  0
SECTION
  2
HEADER
  9
$ACADVER
  1
AC1018
  9
$ACADMAINTVER
 70
     0
  9
$DWGCODEPAGE
  3
ANSI_1252
  9
$INSBASE
 10
0.0
 20
0.0
 30
0.0
  9
$EXTMIN
 10
-606.0000000000006
 20
-375.6253436448415
 30
0.0
  9
$EXTMAX
 10
2781.248974402885
 20
2879.765147320485
 30
0.0
  9
$LIMMIN
 10
0.0
 20
0.0
  9
$LIMMAX
 10
12.0
 20
9.0
  9
$ORTHOMODE
 70
     0
  9
$REGENMODE
 70
     1
  9
$FILLMODE
 70
     1
  9
$QTEXTMODE
 70
     0
  9
$MIRRTEXT
 70
     1
  9
$LTSCALE
 40
1.0
  9
$ATTMODE
 70
     1
  9
$TEXTSIZE
 40
0.2
  9
$TRACEWID
 40
0.05
  9
$TEXTSTYLE
  7
Standard
  9
$CLAYER
  8
Predefinito
  9
$CELTYPE
  6
ByLayer
  9
$CECOLOR
 62
   256
  9
$CELTSCALE
 40
1.0
  9
$DISPSILH
 70
     0
  9
$DIMSCALE
 40
1.0
  9
$DIMASZ
 40
0.18
  9
$DIMEXO
 40
0.0625
  9
$DIMDLI
 40
0.38
  9
$DIMRND
 40
0.0
  9
$DIMDLE
 40
0.0
  9
$DIMEXE
 40
0.18
  9
$DIMTP
 40
0.0
  9
$DIMTM
 40
0.0
  9
$DIMTXT
 40
0.18
  9
$DIMCEN
 40
0.09
  9
$DIMTSZ
 40
0.0
  9
$DIMTOL
 70
     0
  9
$DIMLIM
 70
     0
  9
$DIMTIH
 70
     1
  9
$DIMTOH
 70
     1
  9
$DIMSE1
 70
     0
  9
$DIMSE2
 70
     0
  9
$DIMTAD
 70
     0
  9
$DIMZIN
 70
     0
  9
$DIMBLK
  1

  9
$DIMASO
 70
     1
  9
$DIMSHO
 70
     1
  9
$DIMPOST
  1

  9
$DIMAPOST
  1

  9
$DIMALT
 70
     0
  9
$DIMALTD
 70
     2
  9
$DIMALTF
 40
25.4
  9
$DIMLFAC
 40
1.0
  9
$DIMTOFL
 70
     0
  9
$DIMTVP
 40
0.0
  9
$DIMTIX
 70
     0
  9
$DIMSOXD
 70
     0
  9
$DIMSAH
 70
     0
  9
$DIMBLK1
  1

  9
$DIMBLK2
  1

  9
$DIMSTYLE
  2
Standard
  9
$DIMCLRD
 70
     0
  9
$DIMCLRE
 70
     0
  9
$DIMCLRT
 70
     0
  9
$DIMTFAC
 40
1.0
  9
$DIMGAP
 40
0.09
  9
$DIMJUST
 70
     0
  9
$DIMSD1
 70
     0
  9
$DIMSD2
 70
     0
  9
$DIMTOLJ
 70
     1
  9
$DIMTZIN
 70
     0
  9
$DIMALTZ
 70
     0
  9
$DIMALTTZ
 70
     0
  9
$DIMUPT
 70
     0
  9
$DIMDEC
 70
     4
  9
$DIMTDEC
 70
     4
  9
$DIMALTU
 70
     2
  9
$DIMALTTD
 70
     2
  9
$DIMTXSTY
  7
Standard
  9
$DIMAUNIT
 70
     0
  9
$DIMADEC
 70
     0
  9
$DIMALTRND
 40
0.0
  9
$DIMAZIN
 70
     0
  9
$DIMDSEP
 70
    46
  9
$DIMATFIT
 70
     3
  9
$DIMFRAC
 70
     0
  9
$DIMLDRBLK
  1

  9
$DIMLUNIT
 70
     2
  9
$DIMLWD
 70
    -2
  9
$DIMLWE
 70
    -2
  9
$DIMTMOVE
 70
     2
  9
$LUNITS
 70
     2
  9
$LUPREC
 70
     3
  9
$SKETCHINC
 40
0.1
  9
$FILLETRAD
 40
0.5
  9
$AUNITS
 70
     0
  9
$AUPREC
 70
     0
  9
$MENU
  1
.
  9
$ELEVATION
 40
0.0
  9
$PELEVATION
 40
0.0
  9
$THICKNESS
 40
0.0
  9
$LIMCHECK
 70
     0
  9
$CHAMFERA
 40
0.5
  9
$CHAMFERB
 40
0.5
  9
$CHAMFERC
 40
1.0
  9
$CHAMFERD
 40
0.0
  9
$SKPOLY
 70
     0
  9
$TDCREATE
 40
2456084.522469595
  9
$TDUCREATE
 40
2456084.439136262
  9
$TDUPDATE
 40
2456084.522469606
  9
$TDUUPDATE
 40
2456084.439136273
  9
$TDINDWG
 40
0.0000000116
  9
$TDUSRTIMER
 40
0.0000000116
  9
$USRTIMER
 70
     1
  9
$ANGBASE
 50
0.0
  9
$ANGDIR
 70
     0
  9
$PDMODE
 70
     0
  9
$PDSIZE
 40
0.0
  9
$PLINEWID
 40
0.0
  9
$SPLFRAME
 70
     0
  9
$SPLINETYPE
 70
     6
  9
$SPLINESEGS
 70
     8
  9
$HANDSEED
  5
3C4
  9
$SURFTAB1
 70
     6
  9
$SURFTAB2
 70
     6
  9
$SURFTYPE
 70
     6
  9
$SURFU
 70
     6
  9
$SURFV
 70
     6
  9
$UCSBASE
  2

  9
$UCSNAME
  2

  9
$UCSORG
 10
0.0
 20
0.0
 30
0.0
  9
$UCSXDIR
 10
1.0
 20
0.0
 30
0.0
  9
$UCSYDIR
 10
0.0
 20
1.0
 30
0.0
  9
$UCSORTHOREF
  2

  9
$UCSORTHOVIEW
 70
     0
  9
$UCSORGTOP
 10
0.0
 20
0.0
 30
0.0
  9
$UCSORGBOTTOM
 10
0.0
 20
0.0
 30
0.0
  9
$UCSORGLEFT
 10
0.0
 20
0.0
 30
0.0
  9
$UCSORGRIGHT
 10
0.0
 20
0.0
 30
0.0
  9
$UCSORGFRONT
 10
0.0
 20
0.0
 30
0.0
  9
$UCSORGBACK
 10
0.0
 20
0.0
 30
0.0
  9
$PUCSBASE
  2

  9
$PUCSNAME
  2

  9
$PUCSORG
 10
0.0
 20
0.0
 30
0.0
  9
$PUCSXDIR
 10
1.0
 20
0.0
 30
0.0
  9
$PUCSYDIR
 10
0.0
 20
1.0
 30
0.0
  9
$PUCSORTHOREF
  2

  9
$PUCSORTHOVIEW
 70
     0
  9
$PUCSORGTOP
 10
0.0
 20
0.0
 30
0.0
  9
$PUCSORGBOTTOM
 10
0.0
 20
0.0
 30
0.0
  9
$PUCSORGLEFT
 10
0.0
 20
0.0
 30
0.0
  9
$PUCSORGRIGHT
 10
0.0
 20
0.0
 30
0.0
  9
$PUCSORGFRONT
 10
0.0
 20
0.0
 30
0.0
  9
$PUCSORGBACK
 10
0.0
 20
0.0
 30
0.0
  9
$USERI1
 70
     0
  9
$USERI2
 70
     0
  9
$USERI3
 70
     0
  9
$USERI4
 70
     0
  9
$USERI5
 70
     0
  9
$USERR1
 40
0.0
  9
$USERR2
 40
0.0
  9
$USERR3
 40
0.0
  9
$USERR4
 40
0.0
  9
$USERR5
 40
0.0
  9
$WORLDVIEW
 70
     1
  9
$SHADEDGE
 70
     3
  9
$SHADEDIF
 70
    70
  9
$TILEMODE
 70
     1
  9
$MAXACTVP
 70
    64
  9
$PINSBASE
 10
0.0
 20
0.0
 30
0.0
  9
$PLIMCHECK
 70
     0
  9
$PEXTMIN
 10
1.000000000000000E+20
 20
1.000000000000000E+20
 30
1.000000000000000E+20
  9
$PEXTMAX
 10
-1.000000000000000E+20
 20
-1.000000000000000E+20
 30
-1.000000000000000E+20
  9
$PLIMMIN
 10
0.0
 20
0.0
  9
$PLIMMAX
 10
12.0
 20
9.0
  9
$UNITMODE
 70
     0
  9
$VISRETAIN
 70
     1
  9
$PLINEGEN
 70
     0
  9
$PSLTSCALE
 70
     1
  9
$TREEDEPTH
 70
  3020
  9
$CMLSTYLE
  2
Standard
  9
$CMLJUST
 70
     0
  9
$CMLSCALE
 40
1.0
  9
$PROXYGRAPHICS
 70
     1
  9
$MEASUREMENT
 70
     0
  9
$CELWEIGHT
370
    -1
  9
$ENDCAPS
280
     0
  9
$JOINSTYLE
280
     0
  9
$LWDISPLAY
290
     0
  9
$INSUNITS
 70
     4
  9
$HYPERLINKBASE
  1

  9
$STYLESHEET
  1

  9
$XEDIT
290
     1
  9
$CEPSNTYPE
380
     0
  9
$PSTYLEMODE
290
     1
  9
$FINGERPRINTGUID
  2
{AD67D693-E565-4CFD-A15C-C66886F1C1AC}
  9
$VERSIONGUID
  2
{FAEB1C32-E019-11D5-929B-00C0DF256EC4}
  9
$EXTNAMES
290
     1
  9
$PSVPSCALE
 40
0.0
  9
$OLESTARTUP
290
     0
  9
$SORTENTS
280
   127
  9
$INDEXCTL
280
     0
  9
$HIDETEXT
280
     1
  9
$XCLIPFRAME
290
     0
  9
$HALOGAP
280
     0
  9
$OBSCOLOR
 70
   257
  9
$OBSLTYPE
280
     0
  9
$INTERSECTIONDISPLAY
280
     0
  9
$INTERSECTIONCOLOR
 70
   257
  9
$DIMASSOC
280
     2
  9
$PROJECTNAME
  1

  0
ENDSEC
  0
SECTION
  2
CLASSES
  0
CLASS
  1
ACDBDICTIONARYWDFLT
  2
AcDbDictionaryWithDefault
  3
ObjectDBX Classes
 90
        0
 91
        4
280
     0
281
     0
  0
CLASS
  1
VISUALSTYLE
  2
AcDbVisualStyle
  3
ObjectDBX Classes
 90
     4095
 91
        4
280
     0
281
     0
  0
ENDSEC
  0
SECTION
  2
TABLES
  0
TABLE
  2
VPORT
  5
8
330
0
100
AcDbSymbolTable
 70
     1
  0
VPORT
  5
29
330
8
100
AcDbSymbolTableRecord
100
AcDbViewportTableRecord
  2
*Active
 70
     0
 10
0.0
 20
0.0
 11
1.0
 21
1.0
 12
1087.624487201442
 22
1252.069901837822
 13
0.0
 23
0.0
 14
0.5
 24
0.5
 15
0.5
 25
0.5
 16
0.0
 26
0.0
 36
1.0
 17
0.0
 27
0.0
 37
0.0
 40
3320.498300784633
 41
1.040504659518883
 42
50.0
 43
0.0
 44
0.0
 50
0.0
 51
0.0
 71
     0
 72
   100
 73
     1
 74
     3
 75
     0
 76
     0
 77
     0
 78
     0
281
     0
 65
     1
110
0.0
120
0.0
130
0.0
111
1.0
121
0.0
131
0.0
112
0.0
122
1.0
132
0.0
 79
     0
146
0.0
  0
ENDTAB
  0
TABLE
  2
LTYPE
  5
5
330
0
100
AcDbSymbolTable
 70
     1
  0
LTYPE
  5
14
330
5
100
AcDbSymbolTableRecord
100
AcDbLinetypeTableRecord
  2
ByBlock
 70
     0
  3

 72
    65
 73
     0
 40
0.0
  0
LTYPE
  5
15
330
5
100
AcDbSymbolTableRecord
100
AcDbLinetypeTableRecord
  2
ByLayer
 70
     0
  3

 72
    65
 73
     0
 40
0.0
  0
LTYPE
  5
16
330
5
100
AcDbSymbolTableRecord
100
AcDbLinetypeTableRecord
  2
Continuous
 70
     0
  3
Solid line
 72
    65
 73
     0
 40
0.0
  0
ENDTAB
  0
TABLE
  2
LAYER
  5
2
330
0
100
AcDbSymbolTable
 70
     3
  0
LAYER
  5
10
330
2
100
AcDbSymbolTableRecord
100
AcDbLayerTableRecord
  2
0
 70
     0
 62
     7
  6
Continuous
370
    -3
390
F
  0
LAYER
  5
3B
330
2
100
AcDbSymbolTableRecord
100
AcDbLayerTableRecord
  2
Linee visibili 2D
 70
     0
 62
     7
  6
Continuous
370
    -3
390
F
  0
LAYER
  5
19D
330
2
100
AcDbSymbolTableRecord
100
AcDbLayerTableRecord
  2
Predefinito
 70
     0
 62
     7
  6
Continuous
370
    -3
390
F
  0
ENDTAB
  0
TABLE
  2
STYLE
  5
3
330
0
100
AcDbSymbolTable
 70
     1
  0
STYLE
  5
11
330
3
100
AcDbSymbolTableRecord
100
AcDbTextStyleTableRecord
  2
Standard
 70
     0
 40
0.0
 41
1.0
 50
0.0
 71
     0
 42
0.2
  3
txt
  4

  0
ENDTAB
  0
TABLE
  2
VIEW
  5
6
330
0
100
AcDbSymbolTable
 70
     0
  0
ENDTAB
  0
TABLE
  2
UCS
  5
7
330
0
100
AcDbSymbolTable
 70
     0
  0
ENDTAB
  0
TABLE
  2
APPID
  5
9
330
0
100
AcDbSymbolTable
 70
     1
  0
APPID
  5
12
330
9
100
AcDbSymbolTableRecord
100
AcDbRegAppTableRecord
  2
ACAD
 70
     0
  0
ENDTAB
  0
TABLE
  2
DIMSTYLE
  5
A
330
0
100
AcDbSymbolTable
 70
     1
100
AcDbDimStyleTable
  0
DIMSTYLE
105
27
330
A
100
AcDbSymbolTableRecord
100
AcDbDimStyleTableRecord
  2
Standard
 70
     0
340
11
  0
ENDTAB
  0
TABLE
  2
BLOCK_RECORD
  5
1
330
0
100
AcDbSymbolTable
 70
     1
  0
BLOCK_RECORD
  5
1F
330
1
100
AcDbSymbolTableRecord
100
AcDbBlockTableRecord
  2
*Model_Space
340
22
  0
BLOCK_RECORD
  5
1B
330
1
100
AcDbSymbolTableRecord
100
AcDbBlockTableRecord
  2
*Paper_Space
340
1E
  0
BLOCK_RECORD
  5
23
330
1
100
AcDbSymbolTableRecord
100
AcDbBlockTableRecord
  2
*Paper_Space0
340
26
  0
ENDTAB
  0
ENDSEC
  0
SECTION
  2
BLOCKS
  0
BLOCK
  5
20
330
1F
100
AcDbEntity
  8
0
100
AcDbBlockBegin
  2
*Model_Space
 70
     0
 10
0.0
 20
0.0
 30
0.0
  3
*Model_Space
  1

  0
ENDBLK
  5
21
330
1F
100
AcDbEntity
  8
0
100
AcDbBlockEnd
  0
BLOCK
  5
1C
330
1B
100
AcDbEntity
 67
     1
  8
0
100
AcDbBlockBegin
  2
*Paper_Space
 70
     0
 10
0.0
 20
0.0
 30
0.0
  3
*Paper_Space
  1

  0
ENDBLK
  5
1D
330
1B
100
AcDbEntity
 67
     1
  8
0
100
AcDbBlockEnd
  0
BLOCK
  5
24
330
23
100
AcDbEntity
  8
0
100
AcDbBlockBegin
  2
*Paper_Space0
 70
     0
 10
0.0
 20
0.0
 30
0.0
  3
*Paper_Space0
  1

  0
ENDBLK
  5
25
330
23
100
AcDbEntity
  8
0
100
AcDbBlockEnd
  0
ENDSEC
  0
SECTION
  2
ENTITIES
  0
LINE
  5
3C
330
1F
100
AcDbEntity
  8
Linee visibili 2D
100
AcDbLine
 10
1300.321240510078
 20
277.8756738622151
 30
0.0
 11
1497.00779730787
 21
402.8756738622151
 31
0.0
  0
LINE
  5
3D
330
1F
100
AcDbEntity
  8
Linee visibili 2D
100
AcDbLine
 10
1497.00779730787
 20
402.8756738622151
 30
0.0
 11
1524.479993640296
 21
277.8756738622151
 31
0.0
  0
LINE
  5
3E
330
1F
100
AcDbEntity
  8
Linee visibili 2D
100
AcDbLine
 10
-511.4705321306569
 20
2038.737062594786
 30
0.0
 11
-511.4530467922995
 21
2038.487172914651
 31
0.0
  0
SPLINE
  5
3F
330
1F
100
AcDbEntity
  8
Linee visibili 2D
100
AcDbSpline
210
0.0
220
0.0
230
1.0
 70
    12
 71
     2
 72
    14
 73
    11
 74
     0
 42
0.0000000001
 43
0.0000000001
 40
910.0711461102213
 40
910.0711461102213
 40
910.0711461102213
 40
934.0223016673327
 40
934.0223016673327
 40
935.0888944485324
 40
935.0888944485324
 40
963.0170976788066
 40
963.0170976788066
 40
964.0419031153774
 40
964.0419031153774
 40
986.584384115336
 40
986.584384115336
 40
986.584384115336
 10
-457.4030980882029
 20
1625.586835669903
 30
0.0
 41
8432.33594033672
 10
-446.0549986651902
 20
1628.14927873856
 30
0.0
 41
8436.473826041723
 10
-434.7180257197324
 20
1630.70920940719
 30
0.0
 41
8440.611711746727
 10
-434.1940508625561
 20
1630.824201974839
 30
0.0
 41
8366.502089083277
 10
-433.658254945369
 20
1630.797826291089
 30
0.0
 41
8440.611711746727
 10
-419.2541720501992
 20
1630.123384696849
 30
0.0
 41
8439.521128432627
 10
-404.8463659858037
 20
1629.448768772857
 30
0.0
 41
8438.430545118526
 10
-404.3307711116771
 20
1629.428948983091
 30
0.0
 41
8351.05311630101
 10
-403.8420517342412
 20
1629.263467055343
 30
0.0
 41
8438.430545118526
 10
-394.3434423389132
 20
1625.908461192957
 30
0.0
 41
8433.011222542893
 10
-384.8326168731001
 20
1622.549140489693
 30
0.0
 41
8427.59189996726
  0
SPLINE
  5
40
330
1F
100
AcDbEntity
  8
Linee visibili 2D
100
AcDbSpline
210
0.0
220
0.0
230
1.0
 70
    15
 71
     2
 72
    12
 73
     9
 74
     0
 42
0.0000000001
 43
0.0000000001
 40
0.0
 40
0.0
 40
0.0
 40
6.283185307179586
 40
6.283185307179586
 40
12.56637061435917
 40
12.56637061435917
 40
18.84955592153876
 40
18.84955592153876
 40
25.13274122871834
 40
25.13274122871834
 40
25.13274122871834
 10
-375.9735366144627
 20
1630.158533727528
 30
0.0
 41
8418.58814397533
 10
-375.5715941413416
 20
1632.207143098438
 30
0.0
 41
5955.177972839785
 10
-371.4345476049566
 20
1632.013587562897
 30
0.0
 41
8421.581053961498
 10
-367.2971941267313
 20
1631.8200176668
 30
0.0
 41
5954.736170296869
 10
-367.6959174916191
 20
1629.77110423805
 30
0.0
 41
8417.963340827248
 10
-368.094954096794
 20
1627.720581166408
 30
0.0
 41
5950.061753860554
 10
-372.2355281761266
 20
1627.914455316462
 30
0.0
 41
8414.97043084108
 10
-376.3757948333835
 20
1628.108315072088
 30
0.0
 41
5950.50355640347
 10
-375.9735366144627
 20
1630.158533727528
 30
0.0
 41
8418.58814397533
  0
LINE
  5
41
330
1F
100
AcDbEntity
  8
Linee visibili 2D
100
AcDbLine
 10
-543.5234557985259
 20
913.6572034523078
 30
0.0
 11
-226.2188062591913
 21
904.7628543933779
 31
0.0
  0
LINE
  5
42
330
1F
100
AcDbEntity
  8
Linee visibili 2D
100
AcDbLine
 10
-491.6996080323024
 20
792.6176892576586
 30
0.0
 11
-226.2188062591913
 21
904.7628543933779
 31
0.0
  0
LINE
  5
43
330
1F
100
AcDbEntity
  8
Linee visibili 2D
100
AcDbLine
 10
-408.9564431931763
 20
1662.067013554967
 30
0.0
 11
-408.5994050861509
 21
1663.819201831298
 31
0.0
  0
LINE
  5
44
330
1F
100
AcDbEntity
  8
Linee visibili 2D
100
AcDbLine
 10
-411.621708173072
 20
1623.406706145266
 30
0.0
 11
-394.451656388888
 21
1615.870615653805
 31
0.0
  0
ARC
  5
45
330
1F
100
AcDbEntity
  8
Linee visibili 2D
100
AcDbCircle
 10
-314.0234983004731
 20
1966.412301883491
 30
0.0
 40
3.210916376372855
100
AcDbArc
 50
282.1242439698914
 51
347.7217918004067
  0
LINE
  5
46
330
1F
100
AcDbEntity
  8
Linee visibili 2D
100
AcDbLine
 10
-428.2082284939742
 20
2056.010840311579
 30
0.0
 11
-416.1558412918156
 21
2058.511254645481
 31
0.0
  0
LINE
  5
47
330
1F
100
AcDbEntity
  8
Linee visibili 2D
100
AcDbLine
 10
-324.2200376294506
 20
2013.669146397957
 30
0.0
 11
-324.3919064861782
 21
2013.199640122525
 31
0.0
  0
LINE
  5
48
330
1F
100
AcDbEntity
  8
Linee visibili 2D
100
AcDbLine
 10
-484.2037074576074
 20
1655.262793848524
 30
0.0
 11
-439.9402048785972
 21
1635.836825048241
 31
0.0
  0
LINE
  5
49
330
1F
100
AcDbEntity
  8
Linee visibili 2D
100
AcDbLine
 10
-498.8642655658618
 20
1434.584482936715
 30
0.0
 11
-533.0283123276428
 21
1607.572619531332
 31
0.0
  0
ARC
  5
4A
330
1F
100
AcDbEntity
  8
Linee visibili 2D
100
AcDbCircle
 10
-473.3361655929671
 20
1999.84232344476
 30
0.0
 40
6.714329314939866
100
AcDbArc
 50
62.58012802955099
 51
103.027020597449
  0
LINE
  5
4B
330
1F
100
AcDbEntity
  8
Linee visibili 2D
100
AcDbLine
 10
-582.9504247427186
 20
1043.751220183544
 30
0.0
 11
-227.0707984742644
 21
973.2512738194409
 31
0.0
  0
LINE
  5
4C
330
1F
100
AcDbEntity
  8
Linee visibili 2D
100
AcDbLine
 10
-410.5581432094586
 20
1667.557027382108
 30
0.0
 11
-414.4224965049034
 21
1667.670195931388
 31
0.0
  0
LINE
  5
4D
330
1F
100
AcDbEntity
  8
Linee visibili 2D
100
AcDbLine
 10
-515.1832067534009
 20
2016.422214315637
 30
0.0
 11
-515.0734556203975
 21
2016.162948187005
 31
0.0
  0
LINE
  5
4E
330
1F
100
AcDbEntity
  8
Linee visibili 2D
100
AcDbLine
 10
-427.7495182215347
 20
1592.751821217778
 30
0.0
 11
-465.5817709849888
 21
1634.642971353104
 31
0.0
  0
LINE
  5
4F
330
1F
100
AcDbEntity
  8
Linee visibili 2D
100
AcDbLine
 10
-543.5234557985259
 20
913.6572034523078
 30
0.0
 11
-227.0707984742644
 21
973.2512738194409
 31
0.0
  0
LINE
  5
50
330
1F
100
AcDbEntity
  8
Linee visibili 2D
100
AcDbLine
 10
-315.8774980757555
 20
2005.35251286688
 30
0.0
 11
-316.1963387026547
 21
2005.028439343516
 31
0.0
  0
LINE
  5
51
330
1F
100
AcDbEntity
  8
Linee visibili 2D
100
AcDbLine
 10
-523.3477342760165
 20
2024.744893018076
 30
0.0
 11
-523.0803568841135
 21
2024.630247637975
 31
0.0
  0
ARC
  5
52
330
1F
100
AcDbEntity
  8
Linee visibili 2D
100
AcDbCircle
 10
-420.8037413260859
 20
1629.12950484718
 30
0.0
 40
6.779928688828604
100
AcDbArc
 50
200.3265393493286
 51
273.8628732505309
  0
LINE
  5
53
330
1F
100
AcDbEntity
  8
Linee visibili 2D
100
AcDbLine
 10
-379.081429770024
 20
2067.262354500903
 30
0.0
 11
-435.9529346646575
 21
2055.466282302301
 31
0.0
  0
LINE
  5
54
330
1F
100
AcDbEntity
  8
Linee visibili 2D
100
AcDbLine
 10
-409.2873702749089
 20
1638.541635619797
 30
0.0
 11
-411.5587301397437
 21
1640.148790870262
 31
0.0
  0
LINE
  5
55
330
1F
100
AcDbEntity
  8
Linee visibili 2D
100
AcDbLine
 10
1148.181120039655
 20
527.8756738622151
 30
0.0
 11
1151.34811068368
 21
652.8756738622151
 31
0.0
  0
LINE
  5
56
330
1F
100
AcDbEntity
  8
Linee visibili 2D
100
AcDbLine
 10
1524.479993640296
 20
277.8756738622151
 30
0.0
 11
1524.479993640296
 21
277.3756738622151
 31
0.0
  0
LINE
  5
57
330
1F
100
AcDbEntity
  8
Linee visibili 2D
100
AcDbLine
 10
1360.751021877477
 20
402.8756738622151
 30
0.0
 11
1497.00779730787
 21
402.8756738622151
 31
0.0
  0
LINE
  5
58
330
1F
100
AcDbEntity
  8
Linee visibili 2D
100
AcDbLine
 10
1148.181120039655
 20
527.8756738622151
 30
0.0
 11
1469.952043642557
 21
652.8756738622151
 31
0.0
  0
LINE
  5
59
330
1F
100
AcDbEntity
  8
Linee visibili 2D
100
AcDbLine
 10
-432.7900487518547
 20
682.8222996663239
 30
0.0
 11
-491.6996080323024
 21
792.6176892576586
 31
0.0
  0
LINE
  5
5A
330
1F
100
AcDbEntity
  8
Linee visibili 2D
100
AcDbLine
 10
-549.9522418429976
 20
1340.737373947813
 30
0.0
 11
-502.5093615543598
 21
1453.041264917492
 31
0.0
  0
LINE
  5
5B
330
1F
100
AcDbEntity
  8
Linee visibili 2D
100
AcDbLine
 10
-423.552524208414
 20
1970.830058669676
 30
0.0
 11
-441.88641900346
 21
1966.958105806583
 31
0.0
  0
LINE
  5
5C
330
1F
100
AcDbEntity
  8
Linee visibili 2D
100
AcDbLine
 10
-327.2645700469045
 20
1991.165204254658
 30
0.0
 11
-345.4459007964324
 21
1987.325471538973
 31
0.0
  0
LINE
  5
5D
330
1F
100
AcDbEntity
  8
Linee visibili 2D
100
AcDbLine
 10
-465.6782373138678
 20
1962.452586030969
 30
0.0
 11
-461.458861955232
 21
1961.722175110924
 31
0.0
  0
LINE
  5
5E
330
1F
100
AcDbEntity
  8
Linee visibili 2D
100
AcDbLine
 10
-521.8366461320298
 20
779.786923182055
 30
0.0
 11
-564.5697571060676
 21
854.1777952471184
 31
0.0
  0
LINE
  5
5F
330
1F
100
AcDbEntity
  8
Linee visibili 2D
100
AcDbLine
 10
-462.3036602455645
 20
1962.64616900496
 30
0.0
 11
-463.7099508764862
 21
1962.889571526107
 31
0.0
  0
LINE
  5
60
330
1F
100
AcDbEntity
  8
Linee visibili 2D
100
AcDbLine
 10
-422.7477825322451
 20
1637.634345780479
 30
0.0
 11
-421.5326301611744
 21
1638.564540190995
 31
0.0
  0
LINE
  5
61
330
1F
100
AcDbEntity
  8
Linee visibili 2D
100
AcDbLine
 10
-461.458861955232
 20
1961.722175110924
 30
0.0
 11
-306.1406451904213
 21
1994.5313777591
 31
0.0
  0
LINE
  5
62
330
1F
100
AcDbEntity
  8
Linee visibili 2D
100
AcDbLine
 10
-410.5785907965878
 20
1672.065738669262
 30
0.0
 11
-414.4442134447634
 21
1672.178845916064
 31
0.0
  0
LINE
  5
63
330
1F
100
AcDbEntity
  8
Linee visibili 2D
100
AcDbLine
 10
-308.7453979460863
 20
1995.336674254531
 30
0.0
 11
-372.5865235709549
 21
1981.854728702825
 31
0.0
  0
ARC
  5
64
330
1F
100
AcDbEntity
  8
Linee visibili 2D
100
AcDbCircle
 10
-417.2393178643034
 20
1631.969888806862
 30
0.0
 40
10.09514181023794
100
AcDbArc
 50
252.0710159415595
 51
329.5768879484545
  0
LINE
  5
65
330
1F
100
AcDbEntity
  8
Linee visibili 2D
100
AcDbLine
 10
-330.6162371675498
 20
1660.191717774982
 30
0.0
 11
-414.4052481489214
 21
1664.089267843053
 31
0.0
  0
SPLINE
  5
66
330
1F
100
AcDbEntity
  8
Linee visibili 2D
100
AcDbSpline
210
0.0
220
0.0
230
1.0
 70
    12
 71
     2
 72
     8
 73
     5
 74
     0
 42
0.0000000001
 43
0.0000000001
 40
0.0
 40
0.0
 40
0.0
 40
5.497787143782138
 40
5.497787143782138
 40
10.99557428756428
 40
10.99557428756428
 40
10.99557428756428
 10
-474.8668464325131
 20
2008.295295806958
 30
0.0
 41
8205.123952883512
 10
-478.2800501868236
 20
2007.581578308647
 30
0.0
 41
5801.043651813367
 10
-476.7672025018434
 20
2006.022004488175
 30
0.0
 41
8201.273259317924
 10
-475.2533800301529
 20
2004.461425773523
 30
0.0
 41
5797.308220241839
 10
-471.8384237251476
 20
2005.176063252268
 30
0.0
 41
8199.841254893741
  0
LINE
  5
67
330
1F
100
AcDbEntity
  8
Linee visibili 2D
100
AcDbLine
 10
-426.6583022014656
 20
2056.079801100858
 30
0.0
 11
-379.4585644255792
 21
2065.8724768284
 31
0.0
  0
ARC
  5
68
330
1F
100
AcDbEntity
  8
Linee visibili 2D
100
AcDbCircle
 10
-469.6714866056982
 20
1631.984231845667
 30
0.0
 40
4.743295063730683
100
AcDbArc
 50
217.7093673698357
 51
321.6429351565525
  0
LINE
  5
69
330
1F
100
AcDbEntity
  8
Linee visibili 2D
100
AcDbLine
 10
-243.505059585451
 20
836.8873420327659
 30
0.0
 11
-226.2188062591913
 21
904.7628543933779
 31
0.0
  0
LINE
  5
6A
330
1F
100
AcDbEntity
  8
Linee visibili 2D
100
AcDbLine
 10
-441.88641900346
 20
1966.958105806583
 30
0.0
 11
-462.3036602455645
 21
1962.64616900496
 31
0.0
  0
LINE
  5
6B
330
1F
100
AcDbEntity
  8
Linee visibili 2D
100
AcDbLine
 10
-408.9484765234192
 20
1660.264666365184
 30
0.0
 11
-408.2279560983238
 21
1663.801923419597
 31
0.0
  0
SPLINE
  5
6C
330
1F
100
AcDbEntity
  8
Linee visibili 2D
100
AcDbSpline
210
0.0
220
0.0
230
1.0
 70
    12
 71
     2
 72
    14
 73
    11
 74
     0
 42
0.0000000001
 43
0.0000000001
 40
908.6520124073172
 40
908.6520124073172
 40
908.6520124073172
 40
934.0223016673327
 40
934.0223016673327
 40
935.0890309167332
 40
935.0890309167332
 40
963.0172341470075
 40
963.0172341470075
 40
964.0421608424589
 40
964.0421608424589
 40
988.6350913162997
 40
988.6350913162997
 40
988.6350913162997
 10
-458.763221883234
 20
1627.092882652001
 30
0.0
 41
8430.7300958078
 10
-446.7400886518154
 20
1629.80680870616
 30
0.0
 41
8435.11315603262
 10
-434.7294438712922
 20
1632.517915800267
 30
0.0
 41
8439.49621625744
 10
-434.2053955743819
 20
1632.632883833109
 30
0.0
 41
8365.44683829795
 10
-433.6695328295767
 20
1632.606513683318
 30
0.0
 41
8439.49621625744
 10
-419.263547309921
 20
1631.932216689915
 30
0.0
 41
8438.405632945785
 10
-404.8538376369531
 20
1631.257745381092
 30
0.0
 41
8437.315049634131
 10
-404.3381837630771
 20
1631.237931320612
 30
0.0
 41
8350.00522911929
 10
-403.849390868014
 20
1631.072483382056
 30
0.0
 41
8437.315049634131
 10
-393.484822392395
 20
1627.412878626192
 30
0.0
 41
8431.402788971942
 10
-383.1057080502127
 20
1623.748137899392
 30
0.0
 41
8425.490528309752
  0
LINE
  5
6D
330
1F
100
AcDbEntity
  8
Linee visibili 2D
100
AcDbLine
 10
-474.8496461940629
 20
2006.383851906791
 30
0.0
 11
-476.4450979338043
 21
2005.756923628894
 31
0.0
  0
LINE
  5
6E
330
1F
100
AcDbEntity
  8
Linee visibili 2D
100
AcDbLine
 10
-421.5982126594537
 20
1710.021712581985
 30
0.0
 11
-421.9147746901859
 21
1710.668229844825
 31
0.0
  0
LINE
  5
6F
330
1F
100
AcDbEntity
  8
Linee visibili 2D
100
AcDbLine
 10
-503.0484788347337
 20
2004.275261978869
 30
0.0
 11
-531.0902672219248
 21
2033.356233263893
 31
0.0
  0
LINE
  5
70
330
1F
100
AcDbEntity
  8
Linee visibili 2D
100
AcDbLine
 10
-544.3299490625449
 20
916.3183247860707
 30
0.0
 11
-564.5697571060676
 21
854.1777952471184
 31
0.0
  0
LINE
  5
71
330
1F
100
AcDbEntity
  8
Linee visibili 2D
100
AcDbLine
 10
-315.8774980757555
 20
2005.35251286688
 30
0.0
 11
-306.5687767581107
 21
1996.072697848505
 31
0.0
  0
SPLINE
  5
72
330
1F
100
AcDbEntity
  8
Linee visibili 2D
100
AcDbSpline
210
0.0
220
0.0
230
1.0
 70
     8
 71
     3
 72
    12
 73
     8
 74
     0
 42
0.0000000001
 43
0.0000000001
 40
0.0
 40
0.0
 40
0.0
 40
0.0
 40
5.746785559281999
 40
11.9607503929287
 40
26.50406006278524
 40
44.54040403777753
 40
65.77091810244002
 40
65.77091810244002
 40
65.77091810244002
 40
65.77091810244002
 10
-504.8532127568387
 20
2017.2934877885
 30
0.0
 10
-504.758076490975
 20
2019.211063170276
 30
0.0
 10
-503.9657303806341
 20
2023.146719629973
 30
0.0
 10
-499.7626419943185
 20
2031.053600143966
 30
0.0
 10
-489.9812679279353
 20
2039.800772768886
 30
0.0
 10
-473.8111704050671
 20
2047.781651088883
 30
0.0
 10
-461.1630687416786
 20
2051.327821997006
 30
0.0
 10
-454.235611235874
 20
2052.765786243367
 30
0.0
  0
LINE
  5
73
330
1F
100
AcDbEntity
  8
Linee visibili 2D
100
AcDbLine
 10
-416.1558412918156
 20
2058.511254645481
 30
0.0
 11
-416.1063620966694
 21
2058.269044783385
 31
0.0
  0
LINE
  5
74
330
1F
100
AcDbEntity
  8
Linee visibili 2D
100
AcDbLine
 10
-345.4459007964324
 20
1987.325471538973
 30
0.0
 11
-423.552524208414
 21
1970.830058669676
 31
0.0
  0
LINE
  5
75
330
1F
100
AcDbEntity
  8
Linee visibili 2D
100
AcDbLine
 10
-236.6350766796915
 20
1681.672823524515
 30
0.0
 11
-438.4672442143573
 21
1540.343296450424
 31
0.0
  0
ARC
  5
76
330
1F
100
AcDbEntity
  8
Linee visibili 2D
100
AcDbCircle
 10
-469.7184050724696
 20
1633.154838211687
 30
0.0
 40
5.2051603075767
100
AcDbArc
 50
217.5156926913655
 51
323.3857180831178
  0
LINE
  5
77
330
1F
100
AcDbEntity
  8
Linee visibili 2D
100
AcDbLine
 10
-398.1854462312621
 20
2062.239431698009
 30
0.0
 11
-398.0827550676879
 21
2062.008458336597
 31
0.0
  0
LINE
  5
78
330
1F
100
AcDbEntity
  8
Linee visibili 2D
100
AcDbLine
 10
-220.2348526795154
 20
1539.757461400683
 30
0.0
 11
-498.8642655658618
 21
1434.584482936715
 31
0.0
  0
SPLINE
  5
79
330
1F
100
AcDbEntity
  8
Linee visibili 2D
100
AcDbSpline
210
0.0
220
0.0
230
1.0
 70
    12
 71
     2
 72
    14
 73
    11
 74
     0
 42
0.0000000001
 43
0.0000000001
 40
603.564958425277
 40
603.564958425277
 40
603.564958425277
 40
609.1548890774328
 40
609.1548890774328
 40
612.2964817310226
 40
612.2964817310226
 40
620.7605833461606
 40
620.7605833461606
 40
621.3312416404876
 40
621.3312416404876
 40
648.4489544616284
 40
648.4489544616284
 40
648.4489544616284
 10
-414.295671379293
 20
1641.34005437644
 30
0.0
 41
8453.790592624138
 10
-411.6578034928648
 20
1641.935007198926
 30
0.0
 41
8454.75632866482
 10
-409.0205381532261
 20
1642.529824121158
 30
0.0
 41
8455.722064705504
 10
-407.1337536417968
 20
1642.9553752931
 30
0.0
 41
5979.587060780323
 10
-407.9847021896501
 20
1643.884586671155
 30
0.0
 41
8457.922461028696
 10
-409.7843300467707
 20
1645.849728612249
 30
0.0
 41
8461.11626764209
 10
-411.5825998101309
 20
1647.813387553957
 30
0.0
 41
8464.310074255485
 10
-411.8064279524066
 20
1648.028176525684
 30
0.0
 41
7481.602204642069
 10
-411.7547657301775
 20
1648.334059435381
 30
0.0
 41
8464.310074255485
 10
-410.3537550492023
 20
1655.209612609999
 30
0.0
 41
8475.513014080401
 10
-408.9564431931761
 20
1662.067013554967
 30
0.0
 41
8486.71595390532
  0
ARC
  5
7A
330
1F
100
AcDbEntity
  8
Linee visibili 2D
100
AcDbCircle
 10
-366.5944820211377
 20
2022.149190410188
 30
0.0
 40
6.735813610311718
100
AcDbArc
 50
62.5115392629388
 51
102.9362601685965
  0
LINE
  5
7B
330
1F
100
AcDbEntity
  8
Linee visibili 2D
100
AcDbLine
 10
1469.952043642557
 20
652.8756738622151
 30
0.0
 11
1419.201813155263
 21
527.8756738622151
 31
0.0
  0
LINE
  5
7C
330
1F
100
AcDbEntity
  8
Linee visibili 2D
100
AcDbLine
 10
1196.800547394471
 20
277.8756738622151
 30
0.0
 11
1196.800547394471
 21
277.3756738622151
 31
0.0
  0
LINE
  5
7D
330
1F
100
AcDbEntity
  8
Linee visibili 2D
100
AcDbLine
 10
1419.201813155263
 20
527.8756738622151
 30
0.0
 11
1148.181120039655
 21
527.8756738622151
 31
0.0
  0
LINE
  5
7E
330
1F
100
AcDbEntity
  8
Linee visibili 2D
100
AcDbLine
 10
1454.218848349927
 20
527.8756738622151
 30
0.0
 11
1419.201813155263
 21
527.8756738622151
 31
0.0
  0
LINE
  5
7F
330
1F
100
AcDbEntity
  8
Linee visibili 2D
100
AcDbLine
 10
1436.180564234313
 20
569.6950678728986
 30
0.0
 11
1454.218848349927
 21
527.8756738622151
 31
0.0
  0
LINE
  5
80
330
1F
100
AcDbEntity
  8
Linee visibili 2D
100
AcDbLine
 10
524.0
 20
402.8756738622151
 30
0.0
 11
830.0377283102721
 21
402.8756738622151
 31
0.0
  0
LINE
  5
81
330
1F
100
AcDbEntity
  8
Linee visibili 2D
100
AcDbLine
 10
527.1669906440251
 20
277.8756738622151
 30
0.0
 11
527.1669906440251
 21
277.3756738622151
 31
0.0
  0
LINE
  5
82
330
1F
100
AcDbEntity
  8
Linee visibili 2D
100
AcDbLine
 10
845.770923602902
 20
277.8756738622151
 30
0.0
 11
845.770923602902
 21
277.3756738622151
 31
0.0
  0
LINE
  5
83
330
1F
100
AcDbEntity
  8
Linee visibili 2D
100
AcDbLine
 10
776.1205071789528
 20
277.8756738622151
 30
0.0
 11
776.1205071789528
 21
277.3756738622151
 31
0.0
  0
LINE
  5
84
330
1F
100
AcDbEntity
  8
Linee visibili 2D
100
AcDbLine
 10
900.2988736006411
 20
652.8756738622151
 30
0.0
 11
872.826677268215
 21
527.8756738622151
 31
0.0
  0
LINE
  5
85
330
1F
100
AcDbEntity
  8
Linee visibili 2D
100
AcDbLine
 10
572.619427354816
 20
652.8756738622151
 30
0.0
 11
539.6618423198431
 21
527.8756738622151
 31
0.0
  0
LINE
  5
86
330
1F
100
AcDbEntity
  8
Linee visibili 2D
100
AcDbLine
 10
872.826677268215
 20
527.8756738622151
 30
0.0
 11
539.6618423198431
 21
527.8756738622151
 31
0.0
  0
LINE
  5
87
330
1F
100
AcDbEntity
  8
Linee visibili 2D
100
AcDbLine
 10
539.6618423198431
 20
527.8756738622151
 30
0.0
 11
900.2988736006411
 21
652.8756738622151
 31
0.0
  0
LINE
  5
88
330
1F
100
AcDbEntity
  8
Linee visibili 2D
100
AcDbLine
 10
872.826677268215
 20
527.8756738622151
 30
0.0
 11
830.0377283102721
 21
402.8756738622151
 31
0.0
  0
LINE
  5
89
330
1F
100
AcDbEntity
  8
Linee visibili 2D
100
AcDbLine
 10
539.6618423198431
 20
527.8756738622151
 30
0.0
 11
524.0
 21
402.8756738622151
 31
0.0
  0
LINE
  5
8A
330
1F
100
AcDbEntity
  8
Linee visibili 2D
100
AcDbLine
 10
524.0
 20
402.8756738622151
 30
0.0
 11
872.826677268215
 21
527.8756738622151
 31
0.0
  0
LINE
  5
8B
330
1F
100
AcDbEntity
  8
Linee visibili 2D
100
AcDbLine
 10
900.2988736006411
 20
902.8756738622151
 30
0.0
 11
872.826677268215
 21
1027.875673862215
 31
0.0
  0
LINE
  5
8C
330
1F
100
AcDbEntity
  8
Linee visibili 2D
100
AcDbLine
 10
572.619427354816
 20
902.8756738622151
 30
0.0
 11
539.6618423198431
 21
1027.875673862215
 31
0.0
  0
LINE
  5
8D
330
1F
100
AcDbEntity
  8
Linee visibili 2D
100
AcDbLine
 10
539.6618423198431
 20
1027.875673862215
 30
0.0
 11
900.2988736006411
 21
902.8756738622151
 31
0.0
  0
LINE
  5
8E
330
1F
100
AcDbEntity
  8
Linee visibili 2D
100
AcDbLine
 10
572.619427354816
 20
902.8756738622151
 30
0.0
 11
621.4255769264165
 21
902.8756738622151
 31
0.0
  0
LINE
  5
8F
330
1F
100
AcDbEntity
  8
Linee visibili 2D
100
AcDbLine
 10
676.1401204704232
 20
902.8756738622151
 30
0.0
 11
900.2988736006411
 21
902.8756738622151
 31
0.0
  0
LINE
  5
90
330
1F
100
AcDbEntity
  8
Linee visibili 2D
100
AcDbLine
 10
909.7651473204851
 20
777.8756738622151
 30
0.0
 11
900.2988736006411
 21
902.8756738622151
 31
0.0
  0
LINE
  5
91
330
1F
100
AcDbEntity
  8
Linee visibili 2D
100
AcDbLine
 10
619.6466370526975
 20
777.8756738622151
 30
0.0
 11
572.619427354816
 21
902.8756738622151
 31
0.0
  0
LINE
  5
92
330
1F
100
AcDbEntity
  8
Linee visibili 2D
100
AcDbLine
 10
572.619427354816
 20
902.8756738622151
 30
0.0
 11
909.7651473204851
 21
777.8756738622151
 31
0.0
  0
LINE
  5
93
330
1F
100
AcDbEntity
  8
Linee visibili 2D
100
AcDbLine
 10
-226.2188062591913
 20
904.7628543933779
 30
0.0
 11
-227.0707984742644
 21
973.2512738194409
 31
0.0
  0
LINE
  5
94
330
1F
100
AcDbEntity
  8
Linee visibili 2D
100
AcDbLine
 10
-491.6996080323024
 20
792.6176892576586
 30
0.0
 11
-543.5234557985259
 21
913.6572034523078
 31
0.0
  0
LINE
  5
95
330
1F
100
AcDbEntity
  8
Linee visibili 2D
100
AcDbLine
 10
-493.3679049574467
 20
2042.239353283028
 30
0.0
 11
-493.3515633558097
 21
2042.49606307164
 31
0.0
  0
LINE
  5
96
330
1F
100
AcDbEntity
  8
Linee visibili 2D
100
AcDbLine
 10
-578.6978350942456
 20
1697.505102600717
 30
0.0
 11
-421.8089195011671
 21
1690.243543034439
 31
0.0
  0
LINE
  5
97
330
1F
100
AcDbEntity
  8
Linee visibili 2D
100
AcDbLine
 10
-480.5208064982288
 20
1980.489674739961
 30
0.0
 11
-472.5784101928184
 21
1972.252230501143
 31
0.0
  0
LINE
  5
98
330
1F
100
AcDbEntity
  8
Linee visibili 2D
100
AcDbLine
 10
739.6899757160465
 20
1779.375673862215
 30
0.0
 11
739.6899757160465
 21
1784.375673862215
 31
0.0
  0
LINE
  5
99
330
1F
100
AcDbEntity
  8
Linee visibili 2D
100
AcDbLine
 10
740.0894300457348
 20
1778.375673862215
 30
0.0
 11
740.0894300457348
 21
1779.375673862215
 31
0.0
  0
LINE
  5
9A
330
1F
100
AcDbEntity
  8
Linee visibili 2D
100
AcDbLine
 10
747.6899757160465
 20
1784.375673862215
 30
0.0
 11
747.6899757160465
 21
1779.375673862215
 31
0.0
  0
LINE
  5
9B
330
1F
100
AcDbEntity
  8
Linee visibili 2D
100
AcDbLine
 10
657.6784699937893
 20
1779.375673862215
 30
0.0
 11
657.6784699937893
 21
1784.375673862215
 31
0.0
  0
LINE
  5
9C
330
1F
100
AcDbEntity
  8
Linee visibili 2D
100
AcDbLine
 10
665.6784699937893
 20
1784.375673862215
 30
0.0
 11
665.6784699937893
 21
1779.375673862215
 31
0.0
  0
LINE
  5
9D
330
1F
100
AcDbEntity
  8
Linee visibili 2D
100
AcDbLine
 10
747.2905213863742
 20
1779.375673862215
 30
0.0
 11
747.2905213863742
 21
1778.375673862215
 31
0.0
  0
LINE
  5
9E
330
1F
100
AcDbEntity
  8
Linee visibili 2D
100
AcDbLine
 10
1419.201813155263
 20
1027.875673862215
 30
0.0
 11
1360.751021877477
 21
1152.875673862215
 31
0.0
  0
LINE
  5
9F
330
1F
100
AcDbEntity
  8
Linee visibili 2D
100
AcDbLine
 10
1497.00779730787
 20
1152.875673862215
 30
0.0
 11
1360.751021877477
 21
1152.875673862215
 31
0.0
  0
LINE
  5
A0
330
1F
100
AcDbEntity
  8
Linee visibili 2D
100
AcDbLine
 10
1360.751021877477
 20
1152.875673862215
 30
0.0
 11
1454.218848349927
 21
1027.875673862215
 31
0.0
  0
LINE
  5
A1
330
1F
100
AcDbEntity
  8
Linee visibili 2D
100
AcDbLine
 10
1419.201813155263
 20
1027.875673862215
 30
0.0
 11
1454.218848349927
 21
1027.875673862215
 31
0.0
  0
LINE
  5
A2
330
1F
100
AcDbEntity
  8
Linee visibili 2D
100
AcDbLine
 10
1151.34811068368
 20
652.8756738622151
 30
0.0
 11
1173.033927181615
 21
777.8756738622151
 31
0.0
  0
LINE
  5
A3
330
1F
100
AcDbEntity
  8
Linee visibili 2D
100
AcDbLine
 10
665.279015664101
 20
1779.375673862215
 30
0.0
 11
665.279015664101
 21
1778.375673862215
 31
0.0
  0
LINE
  5
A4
330
1F
100
AcDbEntity
  8
Linee visibili 2D
100
AcDbLine
 10
658.0779243234617
 20
1778.375673862215
 30
0.0
 11
658.0779243234617
 21
1779.375673862215
 31
0.0
  0
LINE
  5
A5
330
1F
100
AcDbEntity
  8
Linee visibili 2D
100
AcDbLine
 10
1360.751021877477
 20
402.8756738622151
 30
0.0
 11
1300.321240510078
 21
277.8756738622151
 31
0.0
  0
LINE
  5
A6
330
1F
100
AcDbEntity
  8
Linee visibili 2D
100
AcDbLine
 10
1196.800547394471
 20
277.8756738622151
 30
0.0
 11
1163.842962359498
 21
402.8756738622151
 31
0.0
  0
LINE
  5
A7
330
1F
100
AcDbEntity
  8
Linee visibili 2D
100
AcDbLine
 10
1360.751021877477
 20
402.8756738622151
 30
0.0
 11
1163.842962359498
 21
402.8756738622151
 31
0.0
  0
LINE
  5
A8
330
1F
100
AcDbEntity
  8
Linee visibili 2D
100
AcDbLine
 10
1196.800547394471
 20
277.8756738622151
 30
0.0
 11
1360.751021877477
 21
402.8756738622151
 31
0.0
  0
LINE
  5
A9
330
1F
100
AcDbEntity
  8
Linee visibili 2D
100
AcDbLine
 10
1508.033927181615
 20
777.8756738622151
 30
0.0
 11
1469.952043642557
 21
652.8756738622151
 31
0.0
  0
LINE
  5
AA
330
1F
100
AcDbEntity
  8
Linee visibili 2D
100
AcDbLine
 10
1196.800547394471
 20
277.3756738622151
 30
0.0
 11
1300.321240510078
 21
277.3756738622151
 31
0.0
  0
LINE
  5
AB
330
1F
100
AcDbEntity
  8
Linee visibili 2D
100
AcDbLine
 10
1300.321240510078
 20
277.3756738622151
 30
0.0
 11
1524.479993640296
 21
277.3756738622151
 31
0.0
  0
LINE
  5
AC
330
1F
100
AcDbEntity
  8
Linee visibili 2D
100
AcDbLine
 10
1197.616064406953
 20
277.8756738622151
 30
0.0
 11
1196.800547394471
 21
277.8756738622151
 31
0.0
  0
LINE
  5
AD
330
1F
100
AcDbEntity
  8
Linee visibili 2D
100
AcDbLine
 10
1163.842962359498
 20
402.8756738622151
 30
0.0
 11
1148.181120039655
 21
527.8756738622151
 31
0.0
  0
LINE
  5
AE
330
1F
100
AcDbEntity
  8
Linee visibili 2D
100
AcDbLine
 10
1163.842962359498
 20
402.8756738622151
 30
0.0
 11
1419.201813155263
 21
527.8756738622151
 31
0.0
  0
LINE
  5
AF
330
1F
100
AcDbEntity
  8
Linee visibili 2D
100
AcDbLine
 10
1454.218848349927
 20
527.8756738622151
 30
0.0
 11
1497.00779730787
 21
402.8756738622151
 31
0.0
  0
LINE
  5
B0
330
1F
100
AcDbEntity
  8
Linee visibili 2D
100
AcDbLine
 10
1419.201813155263
 20
527.8756738622151
 30
0.0
 11
1360.751021877477
 21
402.8756738622151
 31
0.0
  0
LINE
  5
B1
330
1F
100
AcDbEntity
  8
Linee visibili 2D
100
AcDbLine
 10
-304.3298585193787
 20
1995.622903630619
 30
0.0
 11
-310.8860044821004
 21
1965.729467496639
 31
0.0
  0
ARC
  5
B2
330
1F
100
AcDbEntity
  8
Linee visibili 2D
100
AcDbCircle
 10
-410.6436843924046
 20
1670.187646487623
 30
0.0
 40
2.632009531190679
100
AcDbArc
 50
271.8624598177366
 51
342.750682479143
  0
LINE
  5
B3
330
1F
100
AcDbEntity
  8
Linee visibili 2D
100
AcDbLine
 10
-491.6996080323024
 20
792.6176892576586
 30
0.0
 11
-243.505059585451
 21
836.8873420327659
 31
0.0
  0
LINE
  5
B4
330
1F
100
AcDbEntity
  8
Linee visibili 2D
100
AcDbLine
 10
-586.7652496287778
 20
1256.706895611748
 30
0.0
 11
-606.0000000000006
 21
1179.997562505976
 31
0.0
  0
LINE
  5
B5
330
1F
100
AcDbEntity
  8
Linee visibili 2D
100
AcDbLine
 10
-359.6871545445289
 20
2048.469531436333
 30
0.0
 11
-359.5890274824163
 21
2048.928305204246
 31
0.0
  0
LINE
  5
B6
330
1F
100
AcDbEntity
  8
Linee visibili 2D
100
AcDbLine
 10
-606.0000000000006
 20
1179.997562505976
 30
0.0
 11
-246.6186582368516
 21
1045.692797839909
 31
0.0
  0
LINE
  5
B7
330
1F
100
AcDbEntity
  8
Linee visibili 2D
100
AcDbLine
 10
-473.8470686427961
 20
1629.984999383196
 30
0.0
 11
-473.8857662776056
 21
1634.203728588388
 31
0.0
  0
LINE
  5
B8
330
1F
100
AcDbEntity
  8
Linee visibili 2D
100
AcDbLine
 10
-416.1558412918156
 20
2058.511254645481
 30
0.0
 11
-415.8268255039885
 21
2058.327041105708
 31
0.0
  0
LINE
  5
B9
330
1F
100
AcDbEntity
  8
Linee visibili 2D
100
AcDbLine
 10
-223.1183752871345
 20
1397.846727108779
 30
0.0
 11
-549.9522418429976
 21
1340.737373947813
 31
0.0
  0
SPLINE
  5
BA
330
1F
100
AcDbEntity
  8
Linee visibili 2D
100
AcDbSpline
210
0.0
220
0.0
230
1.0
 70
    12
 71
     2
 72
    10
 73
     7
 74
     0
 42
0.0000000001
 43
0.0000000001
 40
0.0
 40
0.0
 40
0.0
 40
0.51208552287358
 40
0.51208552287358
 40
6.795270830053166
 40
6.795270830053166
 40
13.07845613723275
 40
13.07845613723275
 40
13.07845613723275
 10
-414.4607655382733
 20
1675.615223077559
 30
0.0
 41
1.0
 10
-414.2160103946782
 20
1675.690876250481
 30
0.0
 41
0.9991933101589836
 10
-413.9659733194137
 20
1675.746643121314
 30
0.0
 41
1.0
 10
-410.20836128428
 20
1676.588560175004
 30
0.0
 41
0.7072218554264033
 10
-408.5142119608614
 20
1674.749361131752
 30
0.0
 41
0.9998072974715276
 10
-406.8188576330104
 20
1672.908853913967
 30
0.0
 41
0.7067191844174228
 10
-410.5785907965878
 20
1672.065738669262
 30
0.0
 41
0.9992891158416881
  0
LINE
  5
BB
330
1F
100
AcDbEntity
  8
Linee visibili 2D
100
AcDbLine
 10
-427.8395665530697
 20
1630.525378158083
 30
0.0
 11
-427.1814211083298
 21
1630.236486118483
 31
0.0
  0
LINE
  5
BC
330
1F
100
AcDbEntity
  8
Linee visibili 2D
100
AcDbLine
 10
-466.8414377028646
 20
1636.037783550225
 30
0.0
 11
-496.0098137506782
 21
1668.335538269261
 31
0.0
  0
LINE
  5
BD
330
1F
100
AcDbEntity
  8
Linee visibili 2D
100
AcDbLine
 10
-220.2348526795154
 20
1539.757461400683
 30
0.0
 11
-223.1183752871345
 21
1397.846727108779
 31
0.0
  0
LINE
  5
BE
330
1F
100
AcDbEntity
  8
Linee visibili 2D
100
AcDbLine
 10
-244.9653966682534
 20
1258.607663172999
 30
0.0
 11
-283.5373678782346
 21
1125.235939206308
 31
0.0
  0
LINE
  5
BF
330
1F
100
AcDbEntity
  8
Linee visibili 2D
100
AcDbLine
 10
-533.0283123276428
 20
1607.572619531332
 30
0.0
 11
-438.4864303678185
 21
1539.888690268458
 31
0.0
  0
LINE
  5
C0
330
1F
100
AcDbEntity
  8
Linee visibili 2D
100
AcDbLine
 10
-472.2625627752939
 20
1971.760198975106
 30
0.0
 11
-472.4548253296691
 21
1972.106377966445
 31
0.0
  0
LINE
  5
C1
330
1F
100
AcDbEntity
  8
Linee visibili 2D
100
AcDbLine
 10
-228.0911241587571
 20
706.0795335759476
 30
0.0
 11
-230.7813365269712
 21
574.6407223059791
 31
0.0
  0
LINE
  5
C2
330
1F
100
AcDbEntity
  8
Linee visibili 2D
100
AcDbLine
 10
1469.952043642557
 20
902.8756738622151
 30
0.0
 11
1468.057154589373
 21
902.8756738622151
 31
0.0
  0
LINE
  5
C3
330
1F
100
AcDbEntity
  8
Linee visibili 2D
100
AcDbLine
 10
1148.181120039655
 20
1027.875673862215
 30
0.0
 11
1151.34811068368
 21
902.8756738622151
 31
0.0
  0
LINE
  5
C4
330
1F
100
AcDbEntity
  8
Linee visibili 2D
100
AcDbLine
 10
1454.218848349927
 20
1027.875673862215
 30
0.0
 11
1497.00779730787
 21
1152.875673862215
 31
0.0
  0
LINE
  5
C5
330
1F
100
AcDbEntity
  8
Linee visibili 2D
100
AcDbLine
 10
1508.033927181615
 20
777.8756738622151
 30
0.0
 11
1173.033927181615
 21
777.8756738622151
 31
0.0
  0
LINE
  5
C6
330
1F
100
AcDbEntity
  8
Linee visibili 2D
100
AcDbLine
 10
1151.34811068368
 20
652.8756738622151
 30
0.0
 11
1508.033927181615
 21
777.8756738622151
 31
0.0
  0
LINE
  5
C7
330
1F
100
AcDbEntity
  8
Linee visibili 2D
100
AcDbLine
 10
1469.952043642557
 20
652.8756738622151
 30
0.0
 11
1468.058490316639
 21
652.8756738622151
 31
0.0
  0
LINE
  5
C8
330
1F
100
AcDbEntity
  8
Linee visibili 2D
100
AcDbLine
 10
1399.962516176697
 20
652.8756738622151
 30
0.0
 11
1151.34811068368
 21
652.8756738622151
 31
0.0
  0
LINE
  5
C9
330
1F
100
AcDbEntity
  8
Linee visibili 2D
100
AcDbLine
 10
1296.785107946534
 20
1778.375673862215
 30
0.0
 11
1296.785107946534
 21
1779.375673862215
 31
0.0
  0
LINE
  5
CA
330
1F
100
AcDbEntity
  8
Linee visibili 2D
100
AcDbLine
 10
1297.184562276223
 20
1779.375673862215
 30
0.0
 11
1289.184562276223
 21
1779.375673862215
 31
0.0
  0
LINE
  5
CB
330
1F
100
AcDbEntity
  8
Linee visibili 2D
100
AcDbLine
 10
1297.184562276223
 20
1779.375673862215
 30
0.0
 11
1297.184562276223
 21
1784.375673862215
 31
0.0
  0
LINE
  5
CC
330
1F
100
AcDbEntity
  8
Linee visibili 2D
100
AcDbLine
 10
1297.184562276223
 20
1784.375673862215
 30
0.0
 11
1289.184562276223
 21
1784.375673862215
 31
0.0
  0
SPLINE
  5
CD
330
1F
100
AcDbEntity
  8
Linee visibili 2D
100
AcDbSpline
210
0.0
220
0.0
230
1.0
 70
    28
 71
     2
 72
    10
 73
     7
 74
     0
 42
0.0000000001
 43
0.0000000001
 40
7.853981633974483
 40
7.853981633974483
 40
7.853981633974483
 40
12.56637061435917
 40
12.56637061435917
 40
18.84955592153876
 40
18.84955592153876
 40
20.42035224833366
 40
20.42035224833366
 40
20.42035224833366
 10
1344.490997756187
 20
1779.375673862215
 30
0.0
 41
0.8901650429449554
 10
1344.888209478693
 20
1779.375673862215
 30
0.0
 41
0.7803300858899107
 10
1342.533927181616
 20
1779.375673862215
 30
0.0
 41
1.0
 10
1339.069825566479
 20
1779.375673862215
 30
0.0
 41
0.7071067811865476
 10
1337.069825566479
 20
1779.375673862215
 30
0.0
 41
1.0
 10
1336.688338426818
 20
1779.375673862215
 30
0.0
 41
0.9267766952966369
 10
1336.576856607047
 20
1779.375673862215
 30
0.0
 41
0.8901650429449552
  0
SPLINE
  5
CE
330
1F
100
AcDbEntity
  8
Linee visibili 2D
100
AcDbSpline
210
0.0
220
0.0
230
1.0
 70
    28
 71
     2
 72
    10
 73
     7
 74
     0
 42
0.0000000001
 43
0.0000000001
 40
7.853981633974483
 40
7.853981633974483
 40
7.853981633974483
 40
12.56637061435917
 40
12.56637061435917
 40
18.84955592153876
 40
18.84955592153876
 40
20.42035224833366
 40
20.42035224833366
 40
20.42035224833366
 10
1344.490997756187
 20
1784.375673862215
 30
0.0
 41
0.8901650429449554
 10
1344.888209478693
 20
1784.375673862215
 30
0.0
 41
0.7803300858899107
 10
1342.533927181616
 20
1784.375673862215
 30
0.0
 41
1.0
 10
1339.069825566479
 20
1784.375673862216
 30
0.0
 41
0.7071067811865476
 10
1337.069825566479
 20
1784.375673862215
 30
0.0
 41
1.0
 10
1336.688338426818
 20
1784.375673862215
 30
0.0
 41
0.9267766952966369
 10
1336.576856607047
 20
1784.375673862215
 30
0.0
 41
0.8901650429449552
  0
LINE
  5
CF
330
1F
100
AcDbEntity
  8
Linee visibili 2D
100
AcDbLine
 10
1385.883292087005
 20
1779.375673862215
 30
0.0
 11
1383.88943507796
 21
1779.375673862215
 31
0.0
  0
SPLINE
  5
D0
330
1F
100
AcDbEntity
  8
Linee visibili 2D
100
AcDbSpline
210
0.0
220
0.0
230
1.0
 70
    28
 71
     2
 72
     8
 73
     5
 74
     0
 42
0.0000000001
 43
0.0000000001
 40
16.49336143134641
 40
16.49336143134641
 40
16.49336143134641
 40
18.84955592153876
 40
18.84955592153876
 40
25.13274122871834
 40
25.13274122871834
 40
25.13274122871834
 10
1391.877149096051
 20
1779.375673862215
 30
0.0
 41
0.8627063036811942
 10
1391.943159723392
 20
1779.375673862215
 30
0.0
 41
0.8901650429449554
 10
1391.347393702143
 20
1779.375673862215
 30
0.0
 41
1.0
 10
1389.347393702143
 20
1779.375673862215
 30
0.0
 41
0.7071067811865476
 10
1385.883292087005
 20
1779.375673862215
 30
0.0
 41
1.0
  0
LINE
  5
D1
330
1F
100
AcDbEntity
  8
Linee visibili 2D
100
AcDbLine
 10
1385.883292087005
 20
1784.375673862215
 30
0.0
 11
1383.88943507796
 21
1784.375673862215
 31
0.0
  0
SPLINE
  5
D2
330
1F
100
AcDbEntity
  8
Linee visibili 2D
100
AcDbSpline
210
0.0
220
0.0
230
1.0
 70
    28
 71
     2
 72
     8
 73
     5
 74
     0
 42
0.0000000001
 43
0.0000000001
 40
16.49336143134641
 40
16.49336143134641
 40
16.49336143134641
 40
18.84955592153876
 40
18.84955592153876
 40
25.13274122871834
 40
25.13274122871834
 40
25.13274122871834
 10
1391.877149096051
 20
1784.375673862215
 30
0.0
 41
0.8627063036811942
 10
1391.943159723392
 20
1784.375673862215
 30
0.0
 41
0.8901650429449554
 10
1391.347393702143
 20
1784.375673862215
 30
0.0
 41
1.0
 10
1389.347393702143
 20
1784.375673862216
 30
0.0
 41
0.7071067811865476
 10
1385.883292087005
 20
1784.375673862215
 30
0.0
 41
1.0
  0
LINE
  5
D3
330
1F
100
AcDbEntity
  8
Linee visibili 2D
100
AcDbLine
 10
1163.842962359498
 20
1152.875673862215
 30
0.0
 11
1148.181120039655
 21
1027.875673862215
 31
0.0
  0
LINE
  5
D4
330
1F
100
AcDbEntity
  8
Linee visibili 2D
100
AcDbLine
 10
1419.201813155263
 20
1027.875673862215
 30
0.0
 11
1148.181120039655
 21
1027.875673862215
 31
0.0
  0
LINE
  5
D5
330
1F
100
AcDbEntity
  8
Linee visibili 2D
100
AcDbLine
 10
1360.751021877477
 20
1152.875673862215
 30
0.0
 11
1163.842962359498
 21
1152.875673862215
 31
0.0
  0
LINE
  5
D6
330
1F
100
AcDbEntity
  8
Linee visibili 2D
100
AcDbLine
 10
1163.842962359498
 20
1152.875673862215
 30
0.0
 11
1419.201813155263
 21
1027.875673862215
 31
0.0
  0
ARC
  5
D7
330
1F
100
AcDbEntity
  8
Linee visibili 2D
100
AcDbCircle
 10
-305.897517614033
 20
1995.923959699108
 30
0.0
 40
1.413646164369241
100
AcDbArc
 50
260.0966812440829
 51
22.66551995305116
  0
ARC
  5
D8
330
1F
100
AcDbEntity
  8
Linee visibili 2D
100
AcDbCircle
 10
-308.4798953173942
 20
1996.193150010406
 30
0.0
 40
0.8966840950095638
100
AcDbArc
 50
252.7768601579482
 51
29.93855384591763
  0
LINE
  5
D9
330
1F
100
AcDbEntity
  8
Linee visibili 2D
100
AcDbLine
 10
-408.5463453957796
 20
1629.622012708162
 30
0.0
 11
-408.5341828260923
 21
1626.858215393813
 31
0.0
  0
LINE
  5
DA
330
1F
100
AcDbEntity
  8
Linee visibili 2D
100
AcDbLine
 10
-534.1684862617548
 20
2033.525579174439
 30
0.0
 11
-465.6782373138678
 21
1962.452586030969
 31
0.0
  0
LINE
  5
DB
330
1F
100
AcDbEntity
  8
Linee visibili 2D
100
AcDbLine
 10
-529.9966401509071
 20
2034.639876189265
 30
0.0
 11
-477.9565389839306
 21
2045.436797095401
 31
0.0
  0
LINE
  5
DC
330
1F
100
AcDbEntity
  8
Linee visibili 2D
100
AcDbLine
 10
-537.491972739618
 20
512.9708537558454
 30
0.0
 11
-572.204830012935
 21
443.8978974473557
 31
0.0
  0
LINE
  5
DD
330
1F
100
AcDbEntity
  8
Linee visibili 2D
100
AcDbLine
 10
-489.4605796795404
 20
591.9965366280135
 30
0.0
 11
-537.491972739618
 21
512.9708537558454
 31
0.0
  0
LINE
  5
DE
330
1F
100
AcDbEntity
  8
Linee visibili 2D
100
AcDbLine
 10
-537.491972739618
 20
512.9708537558454
 30
0.0
 11
-495.6048541544068
 21
627.6350747553106
 31
0.0
  0
LINE
  5
DF
330
1F
100
AcDbEntity
  8
Linee visibili 2D
100
AcDbLine
 10
-572.204830012935
 20
443.8978974473557
 30
0.0
 11
-230.7813365269712
 21
574.6407223059791
 31
0.0
  0
LINE
  5
E0
330
1F
100
AcDbEntity
  8
Linee visibili 2D
100
AcDbLine
 10
-590.4630118079401
 20
382.0439886207641
 30
0.0
 11
-590.455711961931
 21
381.6690808111298
 31
0.0
  0
LINE
  5
E1
330
1F
100
AcDbEntity
  8
Linee visibili 2D
100
AcDbLine
 10
-287.4798087983396
 20
323.3765235376759
 30
0.0
 11
-287.4816600228481
 21
322.9999999999995
 31
0.0
  0
LINE
  5
E2
330
1F
100
AcDbEntity
  8
Linee visibili 2D
100
AcDbLine
 10
-227.0707984742644
 20
973.2512738194409
 30
0.0
 11
-246.6186582368516
 21
1045.692797839909
 31
0.0
  0
LINE
  5
E3
330
1F
100
AcDbEntity
  8
Linee visibili 2D
100
AcDbLine
 10
-421.3116005429763
 20
1597.221684662877
 30
0.0
 11
-421.4470155351909
 21
1622.550608927113
 31
0.0
  0
LINE
  5
E4
330
1F
100
AcDbEntity
  8
Linee visibili 2D
100
AcDbLine
 10
-511.368736617724
 20
2038.504665008964
 30
0.0
 11
-511.4705321306569
 21
2038.737062594786
 31
0.0
  0
LINE
  5
E5
330
1F
100
AcDbEntity
  8
Linee visibili 2D
100
AcDbLine
 10
-493.4776103805896
 20
2042.21659235924
 30
0.0
 11
-493.3515633558097
 21
2042.49606307164
 31
0.0
  0
LINE
  5
E6
330
1F
100
AcDbEntity
  8
Linee visibili 2D
100
AcDbLine
 10
-368.0974992404628
 20
2056.775287715708
 30
0.0
 11
-367.7822921373719
 21
2057.096127378756
 31
0.0
  0
LINE
  5
E7
330
1F
100
AcDbEntity
  8
Linee visibili 2D
100
AcDbLine
 10
-360.0490598893389
 20
2048.750777927879
 30
0.0
 11
-359.5890274824163
 21
2048.928305204246
 31
0.0
  0
LINE
  5
E8
330
1F
100
AcDbEntity
  8
Linee visibili 2D
100
AcDbLine
 10
-470.7698104092434
 20
2048.244697771107
 30
0.0
 11
-532.5430591590133
 21
2035.431924422758
 31
0.0
  0
LINE
  5
E9
330
1F
100
AcDbEntity
  8
Linee visibili 2D
100
AcDbLine
 10
-374.9398853726221
 20
2066.562936223044
 30
0.0
 11
-379.081429770024
 21
2067.262354500903
 31
0.0
  0
LINE
  5
EA
330
1F
100
AcDbEntity
  8
Linee visibili 2D
100
AcDbLine
 10
-504.9030880481394
 20
2016.239410464003
 30
0.0
 11
-504.853212756839
 21
2017.293487788498
 31
0.0
  0
LINE
  5
EB
330
1F
100
AcDbEntity
  8
Linee visibili 2D
100
AcDbLine
 10
-307.5054764807046
 20
1996.226081686254
 30
0.0
 11
-307.5080582846479
 21
1995.337600962381
 31
0.0
  0
SPLINE
  5
EC
330
1F
100
AcDbEntity
  8
Linee visibili 2D
100
AcDbSpline
210
0.0
220
0.0
230
1.0
 70
     8
 71
     3
 72
    15
 73
    11
 74
     0
 42
0.0000000001
 43
0.0000000001
 40
0.0
 40
0.0
 40
0.0
 40
0.0
 40
20.20285922927339
 40
41.10565494174617
 40
61.74652223484914
 40
80.90582710866383
 40
98.07326634767753
 40
112.5970074472631
 40
124.5564644676804
 40
134.6815986976226
 40
134.6815986976226
 40
134.6815986976226
 40
134.6815986976226
 10
-454.2356112358741
 20
2052.765786243367
 30
0.0
 10
-447.6405504267452
 20
2054.131694910604
 30
0.0
 10
-434.0456074522655
 20
2056.023260171653
 30
0.0
 10
-413.43794637138
 20
2056.524767465654
 30
0.0
 10
-393.2471857810635
 20
2054.745361143523
 30
0.0
 10
-374.6325589826315
 20
2050.809740333031
 30
0.0
 10
-358.662980931267
 20
2044.958450122581
 30
0.0
 10
-346.0982621458795
 20
2037.4667501136
 30
0.0
 10
-337.5508538568181
 20
2028.512170865782
 30
0.0
 10
-334.9959944061382
 20
2021.385939040263
 30
0.0
 10
-334.8268025371069
 20
2018.003429902735
 30
0.0
  0
LINE
  5
ED
330
1F
100
AcDbEntity
  8
Linee visibili 2D
100
AcDbLine
 10
-230.7813365269712
 20
574.6407223059791
 30
0.0
 11
-251.2756603298481
 21
445.9419826515191
 31
0.0
  0
LINE
  5
EE
330
1F
100
AcDbEntity
  8
Linee visibili 2D
100
AcDbLine
 10
-307.0848104565334
 20
1995.426987077999
 30
0.0
 11
-327.2645700469045
 21
1991.165204254658
 31
0.0
  0
LINE
  5
EF
330
1F
100
AcDbEntity
  8
Linee visibili 2D
100
AcDbLine
 10
-421.9181150734297
 20
1710.668211932709
 30
0.0
 11
-423.1438514355499
 21
1939.938124933692
 31
0.0
  0
LINE
  5
F0
330
1F
100
AcDbEntity
  8
Linee visibili 2D
100
AcDbLine
 10
-411.5025427115042
 20
1647.725967493388
 30
0.0
 11
-408.9484765234192
 21
1660.264666365184
 31
0.0
  0
LINE
  5
F1
330
1F
100
AcDbEntity
  8
Linee visibili 2D
100
AcDbLine
 10
-375.9838632194535
 20
1625.425944019218
 30
0.0
 11
-375.9926697396365
 21
1629.782324854626
 31
0.0
  0
LINE
  5
F2
330
1F
100
AcDbEntity
  8
Linee visibili 2D
100
AcDbLine
 10
-246.6186582368516
 20
1045.692797839909
 30
0.0
 11
-582.9504247427186
 21
1043.751220183544
 31
0.0
  0
LINE
  5
F3
330
1F
100
AcDbEntity
  8
Linee visibili 2D
100
AcDbLine
 10
-515.3659713011907
 20
2016.466340618283
 30
0.0
 11
-515.183206753401
 21
2016.422214315637
 31
0.0
  0
SPLINE
  5
F4
330
1F
100
AcDbEntity
  8
Linee visibili 2D
100
AcDbSpline
210
0.0
220
0.0
230
1.0
 70
    12
 71
     2
 72
     8
 73
     5
 74
     0
 42
0.0000000001
 43
0.0000000001
 40
-10.99557428756428
 40
-10.99557428756428
 40
-10.99557428756428
 40
-5.497787143782138
 40
-5.497787143782138
 40
0.0
 40
0.0
 40
0.0
 10
-365.0221701863255
 20
2027.52917447836
 30
0.0
 41
8237.8492271158
 10
-361.639648768882
 20
2028.237024407222
 30
0.0
 41
5825.894186632676
 10
-363.1824573391622
 20
2029.782328525371
 30
0.0
 41
8241.699920681387
 10
-364.7242773293395
 20
2031.326642464354
 30
0.0
 41
5829.629618204204
 10
-368.105083566143
 20
2030.619699444455
 30
0.0
 41
8243.13192510557
  0
SPLINE
  5
F5
330
1F
100
AcDbEntity
  8
Linee visibili 2D
100
AcDbSpline
210
0.0
220
0.0
230
1.0
 70
    12
 71
     2
 72
     8
 73
     5
 74
     0
 42
0.0000000001
 43
0.0000000001
 40
10.99557428756428
 40
10.99557428756428
 40
10.99557428756428
 40
16.49336143134641
 40
16.49336143134641
 40
21.99114857512855
 40
21.99114857512855
 40
21.99114857512855
 10
-471.8384237251476
 20
2005.176063252268
 30
0.0
 41
8199.841254893741
 10
-468.4244745737533
 20
2005.890489967053
 30
0.0
 41
5799.018491735308
 10
-469.9400494340851
 20
2007.450148460406
 30
0.0
 41
8203.691948459327
 10
-471.4546486669379
 20
2009.008802948133
 30
0.0
 41
5802.753923306836
 10
-474.8668464325131
 20
2008.295295806958
 30
0.0
 41
8205.123952883512
  0
LINE
  5
F6
330
1F
100
AcDbEntity
  8
Linee visibili 2D
100
AcDbLine
 10
-336.9627464628471
 20
2025.813062924796
 30
0.0
 11
-307.7028637396883
 21
1996.640658997457
 31
0.0
  0
LINE
  5
F7
330
1F
100
AcDbEntity
  8
Linee visibili 2D
100
AcDbLine
 10
-463.8890761946669
 20
1963.664675806887
 30
0.0
 11
-492.4014209117132
 21
1993.233641471142
 31
0.0
  0
SPLINE
  5
F8
330
1F
100
AcDbEntity
  8
Linee visibili 2D
100
AcDbSpline
210
0.0
220
0.0
230
1.0
 70
    12
 71
     2
 72
    10
 73
     7
 74
     0
 42
0.0000000001
 43
0.0000000001
 40
765.9633912306978
 40
765.9633912306978
 40
765.9633912306978
 40
791.879142897482
 40
791.879142897482
 40
792.782713640635
 40
792.782713640635
 40
818.1530029006502
 40
818.1530029006502
 40
818.1530029006502
 10
-421.5797933640326
 20
1647.386260546675
 30
0.0
 41
8463.61516541891
 10
-429.4248490824172
 20
1641.991626649353
 30
0.0
 41
8454.848245675304
 10
-437.2861909271629
 20
1636.585793635991
 30
0.0
 41
8446.081325931698
 10
-437.6705369510021
 20
1636.338429386014
 30
0.0
 41
8300.421289976826
 10
-438.1185040989918
 20
1636.247674923151
 30
0.0
 41
8446.081325931698
 10
-450.1223182655132
 20
1633.540443570039
 30
0.0
 41
8441.697981440671
 10
-462.1386048489021
 20
1630.830399301171
 30
0.0
 41
8437.314636949644
  0
LINE
  5
F9
330
1F
100
AcDbEntity
  8
Linee visibili 2D
100
AcDbLine
 10
-315.9467165917044
 20
2004.859865054842
 30
0.0
 11
-315.8774980757555
 21
2005.35251286688
 31
0.0
  0
LINE
  5
FA
330
1F
100
AcDbEntity
  8
Linee visibili 2D
100
AcDbLine
 10
-438.4735378831858
 20
1539.887475275365
 30
0.0
 11
-438.4765175271505
 21
1540.336802971572
 31
0.0
  0
LINE
  5
FB
330
1F
100
AcDbEntity
  8
Linee visibili 2D
100
AcDbLine
 10
-543.5234557985259
 20
913.6572034523078
 30
0.0
 11
-582.9504247427186
 21
1043.751220183544
 31
0.0
  0
LINE
  5
FC
330
1F
100
AcDbEntity
  8
Linee visibili 2D
100
AcDbLine
 10
-306.5687767581107
 20
1996.072697848505
 30
0.0
 11
-307.0848104565334
 21
1995.426987077999
 31
0.0
  0
ARC
  5
FD
330
1F
100
AcDbEntity
  8
Linee visibili 2D
100
AcDbCircle
 10
-415.7046040703746
 20
1654.547750425465
 30
0.0
 40
15.08128494604368
100
AcDbArc
 50
275.3937467419111
 51
301.627240721884
  0
LINE
  5
FE
330
1F
100
AcDbEntity
  8
Linee visibili 2D
100
AcDbLine
 10
-496.0098137506782
 20
1668.335538269261
 30
0.0
 11
-421.673308648708
 21
1664.877983762509
 31
0.0
  0
LINE
  5
FF
330
1F
100
AcDbEntity
  8
Linee visibili 2D
100
AcDbLine
 10
-521.8366461320298
 20
779.786923182055
 30
0.0
 11
-432.8797460540069
 21
682.9199728552999
 31
0.0
  0
LINE
  5
100
330
1F
100
AcDbEntity
  8
Linee visibili 2D
100
AcDbLine
 10
-526.821347582794
 20
2000.425933720349
 30
0.0
 11
-527.6441424914328
 21
2001.982844051947
 31
0.0
  0
LINE
  5
101
330
1F
100
AcDbEntity
  8
Linee visibili 2D
100
AcDbLine
 10
-523.0803574095858
 20
2024.630248186619
 30
0.0
 11
-515.2489553164086
 21
2016.507921426071
 31
0.0
  0
ARC
  5
102
330
1F
100
AcDbEntity
  8
Linee visibili 2D
100
AcDbCircle
 10
-460.0236340681964
 20
1935.38109727047
 30
0.0
 40
3.209418249435097
100
AcDbArc
 50
223.7136006061902
 51
281.9519023278834
  0
LINE
  5
103
330
1F
100
AcDbEntity
  8
Linee visibili 2D
100
AcDbLine
 10
-407.801702564399
 20
1643.467142698878
 30
0.0
 11
-407.794057586259
 21
1641.706381339481
 31
0.0
  0
LINE
  5
104
330
1F
100
AcDbEntity
  8
Linee visibili 2D
100
AcDbLine
 10
-432.8711995366627
 20
682.9278214732944
 30
0.0
 11
-564.5697571060676
 21
854.1777952471184
 31
0.0
  0
ARC
  5
105
330
1F
100
AcDbEntity
  8
Linee visibili 2D
100
AcDbCircle
 10
-418.5122465648783
 20
1713.751514788262
 30
0.0
 40
4.840930823179977
100
AcDbArc
 50
230.396303247042
 51
323.2389152525007
  0
LINE
  5
106
330
1F
100
AcDbEntity
  8
Linee visibili 2D
100
AcDbLine
 10
1360.751021877477
 20
402.8756738622151
 30
0.0
 11
1454.218848349927
 21
527.8756738622151
 31
0.0
  0
LINE
  5
107
330
1F
100
AcDbEntity
  8
Linee visibili 2D
100
AcDbLine
 10
1391.883292087005
 20
1784.375673862215
 30
0.0
 11
1391.883292087005
 21
1779.375673862215
 31
0.0
  0
SPLINE
  5
108
330
1F
100
AcDbEntity
  8
Linee visibili 2D
100
AcDbSpline
210
0.0
220
0.0
230
1.0
 70
    28
 71
     2
 72
    10
 73
     7
 74
     0
 42
0.0000000001
 43
0.0000000001
 40
1.570796326794897
 40
1.570796326794897
 40
1.570796326794897
 40
6.283185307179586
 40
6.283185307179586
 40
12.56637061435917
 40
12.56637061435917
 40
14.13716694115407
 40
14.13716694115407
 40
14.13716694115407
 10
665.6355405683597
 20
1779.375673862215
 30
0.0
 41
0.8901650429449554
 10
666.0327522908665
 20
1779.375673862215
 30
0.0
 41
0.7803300858899107
 10
663.6784699937893
 20
1779.375673862215
 30
0.0
 41
1.0
 10
660.2143683786517
 20
1779.375673862215
 30
0.0
 41
0.7071067811865476
 10
658.2143683786517
 20
1779.375673862215
 30
0.0
 41
1.0
 10
657.8328812389907
 20
1779.375673862215
 30
0.0
 41
0.9267766952966369
 10
657.7213994192191
 20
1779.375673862215
 30
0.0
 41
0.8901650429449554
  0
SPLINE
  5
109
330
1F
100
AcDbEntity
  8
Linee visibili 2D
100
AcDbSpline
210
0.0
220
0.0
230
1.0
 70
    12
 71
     2
 72
    10
 73
     7
 74
     0
 42
0.0000000001
 43
0.0000000001
 40
1.570796326794897
 40
1.570796326794897
 40
1.570796326794897
 40
6.283185307179586
 40
6.283185307179586
 40
12.56637061435917
 40
12.56637061435917
 40
13.05933957379172
 40
13.05933957379172
 40
13.05933957379172
 10
665.6355405683597
 20
1784.375673862215
 30
0.0
 41
0.8901650429449554
 10
666.0327522908665
 20
1784.375673862215
 30
0.0
 41
0.7803300858899107
 10
663.6784699937893
 20
1784.375673862215
 30
0.0
 41
1.0
 10
660.2143683786517
 20
1784.375673862216
 30
0.0
 41
0.7071067811865476
 10
658.2143683786517
 20
1784.375673862215
 30
0.0
 41
1.0
 10
657.9678838989354
 20
1784.37567138672
 30
0.0
 41
1.0
 10
657.7213994192191
 20
1784.375671386721
 30
0.0
 41
1.0
  0
LINE
  5
10A
330
1F
100
AcDbEntity
  8
Linee visibili 2D
100
AcDbLine
 10
747.6899757160442
 20
1779.375671386719
 30
0.0
 11
739.6899757160464
 21
1779.375673862215
 31
0.0
  0
LINE
  5
10B
330
1F
100
AcDbEntity
  8
Linee visibili 2D
100
AcDbLine
 10
747.6899757160443
 20
1784.375673862215
 30
0.0
 11
739.6899757160464
 21
1784.375673862216
 31
0.0
  0
LINE
  5
10C
330
1F
100
AcDbEntity
  8
Linee visibili 2D
100
AcDbLine
 10
872.826677268215
 20
1027.875673862215
 30
0.0
 11
830.0377283102721
 21
1152.875673862215
 31
0.0
  0
LINE
  5
10D
330
1F
100
AcDbEntity
  8
Linee visibili 2D
100
AcDbLine
 10
539.6618423198431
 20
1027.875673862215
 30
0.0
 11
524.0
 21
1152.875673862215
 31
0.0
  0
LINE
  5
10E
330
1F
100
AcDbEntity
  8
Linee visibili 2D
100
AcDbLine
 10
830.0377283102721
 20
1152.875673862215
 30
0.0
 11
524.0
 21
1152.875673862215
 31
0.0
  0
LINE
  5
10F
330
1F
100
AcDbEntity
  8
Linee visibili 2D
100
AcDbLine
 10
524.0
 20
1152.875673862215
 30
0.0
 11
872.826677268215
 21
1027.875673862215
 31
0.0
  0
LINE
  5
110
330
1F
100
AcDbEntity
  8
Linee visibili 2D
100
AcDbLine
 10
539.6618423198431
 20
1027.875673862215
 30
0.0
 11
872.826677268215
 21
1027.875673862215
 31
0.0
  0
LINE
  5
111
330
1F
100
AcDbEntity
  8
Linee visibili 2D
100
AcDbLine
 10
909.7651473204851
 20
777.8756738622151
 30
0.0
 11
900.2988736006411
 21
652.8756738622151
 31
0.0
  0
LINE
  5
112
330
1F
100
AcDbEntity
  8
Linee visibili 2D
100
AcDbLine
 10
619.6466370526975
 20
777.8756738622151
 30
0.0
 11
572.619427354816
 21
652.8756738622151
 31
0.0
  0
LINE
  5
113
330
1F
100
AcDbEntity
  8
Linee visibili 2D
100
AcDbLine
 10
900.2988736006411
 20
652.8756738622151
 30
0.0
 11
676.1401204704232
 21
652.8756738622151
 31
0.0
  0
LINE
  5
114
330
1F
100
AcDbEntity
  8
Linee visibili 2D
100
AcDbLine
 10
575.4493117958533
 20
652.8756738622151
 30
0.0
 11
572.619427354816
 21
652.8756738622151
 31
0.0
  0
LINE
  5
115
330
1F
100
AcDbEntity
  8
Linee visibili 2D
100
AcDbLine
 10
572.619427354816
 20
652.8756738622151
 30
0.0
 11
909.7651473204851
 21
777.8756738622151
 31
0.0
  0
LINE
  5
116
330
1F
100
AcDbEntity
  8
Linee visibili 2D
100
AcDbLine
 10
619.6466370526975
 20
777.8756738622151
 30
0.0
 11
909.7651473204851
 21
777.8756738622151
 31
0.0
  0
LINE
  5
117
330
1F
100
AcDbEntity
  8
Linee visibili 2D
100
AcDbLine
 10
527.1669906440251
 20
277.3756738622151
 30
0.0
 11
776.1205071789528
 21
277.3756738622151
 31
0.0
  0
LINE
  5
118
330
1F
100
AcDbEntity
  8
Linee visibili 2D
100
AcDbLine
 10
776.1205071789528
 20
277.3756738622151
 30
0.0
 11
845.770923602902
 21
277.3756738622151
 31
0.0
  0
LINE
  5
119
330
1F
100
AcDbEntity
  8
Linee visibili 2D
100
AcDbLine
 10
845.770923602902
 20
277.8756738622151
 30
0.0
 11
811.9994441946574
 21
361.0562798515307
 31
0.0
  0
LINE
  5
11A
330
1F
100
AcDbEntity
  8
Linee visibili 2D
100
AcDbLine
 10
830.0377283102721
 20
402.8756738622151
 30
0.0
 11
776.1205071789528
 21
277.8756738622151
 31
0.0
  0
LINE
  5
11B
330
1F
100
AcDbEntity
  8
Linee visibili 2D
100
AcDbLine
 10
524.0
 20
402.8756738622151
 30
0.0
 11
527.1669906440251
 21
277.8756738622151
 31
0.0
  0
LINE
  5
11C
330
1F
100
AcDbEntity
  8
Linee visibili 2D
100
AcDbLine
 10
527.1669906440251
 20
277.8756738622151
 30
0.0
 11
830.0377283102721
 21
402.8756738622151
 31
0.0
  0
LINE
  5
11D
330
1F
100
AcDbEntity
  8
Linee visibili 2D
100
AcDbLine
 10
909.765147320485
 20
1777.875673862215
 30
0.0
 11
900.2988736006411
 21
1652.875673862215
 31
0.0
  0
LINE
  5
11E
330
1F
100
AcDbEntity
  8
Linee visibili 2D
100
AcDbLine
 10
619.6466370526975
 20
1777.875673862215
 30
0.0
 11
572.619427354816
 21
1652.875673862215
 31
0.0
  0
LINE
  5
11F
330
1F
100
AcDbEntity
  8
Linee visibili 2D
100
AcDbLine
 10
900.2988736006411
 20
1652.875673862215
 30
0.0
 11
676.1401204704232
 21
1652.875673862215
 31
0.0
  0
LINE
  5
120
330
1F
100
AcDbEntity
  8
Linee visibili 2D
100
AcDbLine
 10
575.4493117958547
 20
1652.875673862215
 30
0.0
 11
572.619427354816
 21
1652.875673862215
 31
0.0
  0
LINE
  5
121
330
1F
100
AcDbEntity
  8
Linee visibili 2D
100
AcDbLine
 10
572.619427354816
 20
1652.875673862215
 30
0.0
 11
909.765147320485
 21
1777.875673862215
 31
0.0
  0
LINE
  5
122
330
1F
100
AcDbEntity
  8
Linee visibili 2D
100
AcDbLine
 10
619.6466370526975
 20
1777.875673862215
 30
0.0
 11
619.6466370526975
 21
1778.375673862215
 31
0.0
  0
LINE
  5
123
330
1F
100
AcDbEntity
  8
Linee visibili 2D
100
AcDbLine
 10
909.765147320485
 20
1778.375673862215
 30
0.0
 11
909.765147320485
 21
1777.875673862215
 31
0.0
  0
LINE
  5
124
330
1F
100
AcDbEntity
  8
Linee visibili 2D
100
AcDbLine
 10
909.765147320485
 20
1778.375673862215
 30
0.0
 11
619.6466370526975
 21
1778.375673862215
 31
0.0
  0
LINE
  5
125
330
1F
100
AcDbEntity
  8
Linee visibili 2D
100
AcDbLine
 10
845.0366287866689
 20
1277.875673862215
 30
0.0
 11
845.770923602902
 21
1277.875673862215
 31
0.0
  0
LINE
  5
126
330
1F
100
AcDbEntity
  8
Linee visibili 2D
100
AcDbLine
 10
845.770923602902
 20
1277.875673862215
 30
0.0
 11
811.9994441946574
 21
1194.695067872899
 31
0.0
  0
LINE
  5
127
330
1F
100
AcDbEntity
  8
Linee visibili 2D
100
AcDbLine
 10
830.0377283102721
 20
1152.875673862215
 30
0.0
 11
776.1205071789528
 21
1277.875673862215
 31
0.0
  0
LINE
  5
128
330
1F
100
AcDbEntity
  8
Linee visibili 2D
100
AcDbLine
 10
524.0
 20
1152.875673862215
 30
0.0
 11
527.166990644025
 21
1277.875673862215
 31
0.0
  0
LINE
  5
129
330
1F
100
AcDbEntity
  8
Linee visibili 2D
100
AcDbLine
 10
776.1205071789528
 20
1277.875673862215
 30
0.0
 11
527.166990644025
 21
1277.875673862215
 31
0.0
  0
LINE
  5
12A
330
1F
100
AcDbEntity
  8
Linee visibili 2D
100
AcDbLine
 10
527.166990644025
 20
1277.875673862215
 30
0.0
 11
830.0377283102721
 21
1152.875673862215
 31
0.0
  0
LINE
  5
12B
330
1F
100
AcDbEntity
  8
Linee visibili 2D
100
AcDbLine
 10
900.2988736006411
 20
1652.875673862215
 30
0.0
 11
872.826677268215
 21
1527.875673862215
 31
0.0
  0
LINE
  5
12C
330
1F
100
AcDbEntity
  8
Linee visibili 2D
100
AcDbLine
 10
572.619427354816
 20
1652.875673862215
 30
0.0
 11
539.6618423198431
 21
1527.875673862215
 31
0.0
  0
LINE
  5
12D
330
1F
100
AcDbEntity
  8
Linee visibili 2D
100
AcDbLine
 10
872.826677268215
 20
1527.875673862215
 30
0.0
 11
539.6618423198431
 21
1527.875673862215
 31
0.0
  0
LINE
  5
12E
330
1F
100
AcDbEntity
  8
Linee visibili 2D
100
AcDbLine
 10
539.6618423198431
 20
1527.875673862215
 30
0.0
 11
900.2988736006411
 21
1652.875673862215
 31
0.0
  0
LINE
  5
12F
330
1F
100
AcDbEntity
  8
Linee visibili 2D
100
AcDbLine
 10
872.826677268215
 20
1527.875673862215
 30
0.0
 11
830.0377283102721
 21
1402.875673862215
 31
0.0
  0
LINE
  5
130
330
1F
100
AcDbEntity
  8
Linee visibili 2D
100
AcDbLine
 10
539.6618423198431
 20
1527.875673862215
 30
0.0
 11
524.0
 21
1402.875673862215
 31
0.0
  0
LINE
  5
131
330
1F
100
AcDbEntity
  8
Linee visibili 2D
100
AcDbLine
 10
830.0377283102721
 20
1402.875673862215
 30
0.0
 11
524.0
 21
1402.875673862215
 31
0.0
  0
LINE
  5
132
330
1F
100
AcDbEntity
  8
Linee visibili 2D
100
AcDbLine
 10
524.0
 20
1402.875673862215
 30
0.0
 11
872.826677268215
 21
1527.875673862215
 31
0.0
  0
LINE
  5
133
330
1F
100
AcDbEntity
  8
Linee visibili 2D
100
AcDbLine
 10
845.770923602902
 20
1277.875673862215
 30
0.0
 11
811.9994441946574
 21
1361.056279851531
 31
0.0
  0
LINE
  5
134
330
1F
100
AcDbEntity
  8
Linee visibili 2D
100
AcDbLine
 10
830.0377283102721
 20
1402.875673862215
 30
0.0
 11
776.1205071789528
 21
1277.875673862215
 31
0.0
  0
LINE
  5
135
330
1F
100
AcDbEntity
  8
Linee visibili 2D
100
AcDbLine
 10
524.0
 20
1402.875673862215
 30
0.0
 11
527.166990644025
 21
1277.875673862215
 31
0.0
  0
LINE
  5
136
330
1F
100
AcDbEntity
  8
Linee visibili 2D
100
AcDbLine
 10
527.166990644025
 20
1277.875673862215
 30
0.0
 11
830.0377283102721
 21
1402.875673862215
 31
0.0
  0
LINE
  5
137
330
1F
100
AcDbEntity
  8
Linee visibili 2D
100
AcDbLine
 10
1289.584016605895
 20
1778.375673862215
 30
0.0
 11
1289.584016605895
 21
1779.375673862215
 31
0.0
  0
LINE
  5
138
330
1F
100
AcDbEntity
  8
Linee visibili 2D
100
AcDbLine
 10
1289.184562276223
 20
1779.375673862215
 30
0.0
 11
1289.184562276223
 21
1784.375673862215
 31
0.0
  0
LINE
  5
139
330
1F
100
AcDbEntity
  8
Linee visibili 2D
100
AcDbLine
 10
1344.134472851941
 20
1779.375673862215
 30
0.0
 11
1344.134472851941
 21
1778.375673862215
 31
0.0
  0
LINE
  5
13A
330
1F
100
AcDbEntity
  8
Linee visibili 2D
100
AcDbLine
 10
1336.933381511302
 20
1778.375673862215
 30
0.0
 11
1336.933381511302
 21
1779.375673862215
 31
0.0
  0
LINE
  5
13B
330
1F
100
AcDbEntity
  8
Linee visibili 2D
100
AcDbLine
 10
1344.533927181616
 20
1784.375673862215
 30
0.0
 11
1344.533927181616
 21
1779.375673862215
 31
0.0
  0
LINE
  5
13C
330
1F
100
AcDbEntity
  8
Linee visibili 2D
100
AcDbLine
 10
1336.533927181616
 20
1779.375673862215
 30
0.0
 11
1336.533927181616
 21
1784.375673862215
 31
0.0
  0
LINE
  5
13D
330
1F
100
AcDbEntity
  8
Linee visibili 2D
100
AcDbLine
 10
1384.282746416691
 20
1778.375673862215
 30
0.0
 11
1384.282746416691
 21
1779.375673862215
 31
0.0
  0
LINE
  5
13E
330
1F
100
AcDbEntity
  8
Linee visibili 2D
100
AcDbLine
 10
1391.48383775733
 20
1779.375673862215
 30
0.0
 11
1391.48383775733
 21
1778.375673862215
 31
0.0
  0
LINE
  5
13F
330
1F
100
AcDbEntity
  8
Linee visibili 2D
100
AcDbLine
 10
1383.883292087005
 20
1779.375673862215
 30
0.0
 11
1383.883292087005
 21
1784.375673862215
 31
0.0
  0
LINE
  5
140
330
1F
100
AcDbEntity
  8
Linee visibili 2D
100
AcDbLine
 10
1399.962516176696
 20
902.8756738622151
 30
0.0
 11
1151.34811068368
 21
902.8756738622151
 31
0.0
  0
LINE
  5
141
330
1F
100
AcDbEntity
  8
Linee visibili 2D
100
AcDbLine
 10
1148.181120039655
 20
1027.875673862215
 30
0.0
 11
1469.952043642557
 21
902.8756738622151
 31
0.0
  0
LINE
  5
142
330
1F
100
AcDbEntity
  8
Linee visibili 2D
100
AcDbLine
 10
1436.180564234313
 20
986.0562798515311
 30
0.0
 11
1454.218848349927
 21
1027.875673862215
 31
0.0
  0
LINE
  5
143
330
1F
100
AcDbEntity
  8
Linee visibili 2D
100
AcDbLine
 10
1469.952043642557
 20
902.8756738622151
 30
0.0
 11
1419.201813155263
 21
1027.875673862215
 31
0.0
  0
LINE
  5
144
330
1F
100
AcDbEntity
  8
Linee visibili 2D
100
AcDbLine
 10
1151.34811068368
 20
902.8756738622151
 30
0.0
 11
1173.033927181615
 21
777.8756738622151
 31
0.0
  0
LINE
  5
145
330
1F
100
AcDbEntity
  8
Linee visibili 2D
100
AcDbLine
 10
1151.34811068368
 20
902.8756738622151
 30
0.0
 11
1508.033927181615
 21
777.8756738622151
 31
0.0
  0
LINE
  5
146
330
1F
100
AcDbEntity
  8
Linee visibili 2D
100
AcDbLine
 10
1508.033927181615
 20
777.8756738622151
 30
0.0
 11
1469.952043642557
 21
902.8756738622151
 31
0.0
  0
LINE
  5
147
330
1F
100
AcDbEntity
  8
Linee visibili 2D
100
AcDbLine
 10
1151.34811068368
 20
1652.875673862215
 30
0.0
 11
1173.033927181615
 21
1777.875673862215
 31
0.0
  0
LINE
  5
148
330
1F
100
AcDbEntity
  8
Linee visibili 2D
100
AcDbLine
 10
1151.34811068368
 20
1652.875673862215
 30
0.0
 11
1508.033927181615
 21
1777.875673862215
 31
0.0
  0
LINE
  5
149
330
1F
100
AcDbEntity
  8
Linee visibili 2D
100
AcDbLine
 10
1469.952043642557
 20
1652.875673862215
 30
0.0
 11
1468.058490316638
 21
1652.875673862215
 31
0.0
  0
LINE
  5
14A
330
1F
100
AcDbEntity
  8
Linee visibili 2D
100
AcDbLine
 10
1399.962516176696
 20
1652.875673862215
 30
0.0
 11
1151.34811068368
 21
1652.875673862215
 31
0.0
  0
LINE
  5
14B
330
1F
100
AcDbEntity
  8
Linee visibili 2D
100
AcDbLine
 10
1508.033927181615
 20
1777.875673862215
 30
0.0
 11
1469.952043642557
 21
1652.875673862215
 31
0.0
  0
LINE
  5
14C
330
1F
100
AcDbEntity
  8
Linee visibili 2D
100
AcDbLine
 10
1508.033927181615
 20
1777.875673862215
 30
0.0
 11
1508.033927181615
 21
1778.375673862215
 31
0.0
  0
LINE
  5
14D
330
1F
100
AcDbEntity
  8
Linee visibili 2D
100
AcDbLine
 10
1508.033927181615
 20
1778.375673862215
 30
0.0
 11
1173.033927181615
 21
1778.375673862215
 31
0.0
  0
LINE
  5
14E
330
1F
100
AcDbEntity
  8
Linee visibili 2D
100
AcDbLine
 10
1173.033927181615
 20
1778.375673862215
 30
0.0
 11
1173.033927181615
 21
1777.875673862215
 31
0.0
  0
LINE
  5
14F
330
1F
100
AcDbEntity
  8
Linee visibili 2D
100
AcDbLine
 10
1196.800547394471
 20
1277.875673862215
 30
0.0
 11
1163.842962359498
 21
1152.875673862215
 31
0.0
  0
LINE
  5
150
330
1F
100
AcDbEntity
  8
Linee visibili 2D
100
AcDbLine
 10
1196.800547394471
 20
1277.875673862215
 30
0.0
 11
1360.751021877477
 21
1152.875673862215
 31
0.0
  0
LINE
  5
151
330
1F
100
AcDbEntity
  8
Linee visibili 2D
100
AcDbLine
 10
1497.00779730787
 20
1152.875673862215
 30
0.0
 11
1524.479993640296
 21
1277.875673862215
 31
0.0
  0
LINE
  5
152
330
1F
100
AcDbEntity
  8
Linee visibili 2D
100
AcDbLine
 10
1197.616064406953
 20
1277.875673862215
 30
0.0
 11
1196.800547394471
 21
1277.875673862215
 31
0.0
  0
LINE
  5
153
330
1F
100
AcDbEntity
  8
Linee visibili 2D
100
AcDbLine
 10
1360.751021877477
 20
1152.875673862215
 30
0.0
 11
1300.321240510078
 21
1277.875673862215
 31
0.0
  0
LINE
  5
154
330
1F
100
AcDbEntity
  8
Linee visibili 2D
100
AcDbLine
 10
1524.479993640296
 20
1277.875673862215
 30
0.0
 11
1300.321240510078
 21
1277.875673862215
 31
0.0
  0
LINE
  5
155
330
1F
100
AcDbEntity
  8
Linee visibili 2D
100
AcDbLine
 10
1300.321240510078
 20
1277.875673862215
 30
0.0
 11
1497.00779730787
 21
1152.875673862215
 31
0.0
  0
LINE
  5
156
330
1F
100
AcDbEntity
  8
Linee visibili 2D
100
AcDbLine
 10
1148.181120039655
 20
1527.875673862215
 30
0.0
 11
1151.34811068368
 21
1652.875673862215
 31
0.0
  0
LINE
  5
157
330
1F
100
AcDbEntity
  8
Linee visibili 2D
100
AcDbLine
 10
1148.181120039655
 20
1527.875673862215
 30
0.0
 11
1469.952043642557
 21
1652.875673862215
 31
0.0
  0
LINE
  5
158
330
1F
100
AcDbEntity
  8
Linee visibili 2D
100
AcDbLine
 10
1436.180564234313
 20
1569.695067872898
 30
0.0
 11
1454.218848349927
 21
1527.875673862215
 31
0.0
  0
LINE
  5
159
330
1F
100
AcDbEntity
  8
Linee visibili 2D
100
AcDbLine
 10
1419.201813155263
 20
1527.875673862215
 30
0.0
 11
1148.181120039655
 21
1527.875673862215
 31
0.0
  0
LINE
  5
15A
330
1F
100
AcDbEntity
  8
Linee visibili 2D
100
AcDbLine
 10
1469.952043642557
 20
1652.875673862215
 30
0.0
 11
1419.201813155263
 21
1527.875673862215
 31
0.0
  0
LINE
  5
15B
330
1F
100
AcDbEntity
  8
Linee visibili 2D
100
AcDbLine
 10
1454.218848349927
 20
1527.875673862215
 30
0.0
 11
1419.201813155263
 21
1527.875673862215
 31
0.0
  0
LINE
  5
15C
330
1F
100
AcDbEntity
  8
Linee visibili 2D
100
AcDbLine
 10
1163.842962359498
 20
1402.875673862215
 30
0.0
 11
1148.181120039655
 21
1527.875673862215
 31
0.0
  0
LINE
  5
15D
330
1F
100
AcDbEntity
  8
Linee visibili 2D
100
AcDbLine
 10
1163.842962359498
 20
1402.875673862215
 30
0.0
 11
1419.201813155263
 21
1527.875673862215
 31
0.0
  0
LINE
  5
15E
330
1F
100
AcDbEntity
  8
Linee visibili 2D
100
AcDbLine
 10
1454.218848349927
 20
1527.875673862215
 30
0.0
 11
1497.00779730787
 21
1402.875673862215
 31
0.0
  0
LINE
  5
15F
330
1F
100
AcDbEntity
  8
Linee visibili 2D
100
AcDbLine
 10
1360.751021877477
 20
1402.875673862215
 30
0.0
 11
1163.842962359498
 21
1402.875673862215
 31
0.0
  0
LINE
  5
160
330
1F
100
AcDbEntity
  8
Linee visibili 2D
100
AcDbLine
 10
1419.201813155263
 20
1527.875673862215
 30
0.0
 11
1360.751021877477
 21
1402.875673862215
 31
0.0
  0
LINE
  5
161
330
1F
100
AcDbEntity
  8
Linee visibili 2D
100
AcDbLine
 10
1497.00779730787
 20
1402.875673862215
 30
0.0
 11
1360.751021877477
 21
1402.875673862215
 31
0.0
  0
LINE
  5
162
330
1F
100
AcDbEntity
  8
Linee visibili 2D
100
AcDbLine
 10
1360.751021877477
 20
1402.875673862215
 30
0.0
 11
1454.218848349927
 21
1527.875673862215
 31
0.0
  0
LINE
  5
163
330
1F
100
AcDbEntity
  8
Linee visibili 2D
100
AcDbLine
 10
1196.800547394471
 20
1277.875673862215
 30
0.0
 11
1163.842962359498
 21
1402.875673862215
 31
0.0
  0
LINE
  5
164
330
1F
100
AcDbEntity
  8
Linee visibili 2D
100
AcDbLine
 10
1196.800547394471
 20
1277.875673862215
 30
0.0
 11
1360.751021877477
 21
1402.875673862215
 31
0.0
  0
LINE
  5
165
330
1F
100
AcDbEntity
  8
Linee visibili 2D
100
AcDbLine
 10
1497.00779730787
 20
1402.875673862215
 30
0.0
 11
1524.479993640296
 21
1277.875673862215
 31
0.0
  0
LINE
  5
166
330
1F
100
AcDbEntity
  8
Linee visibili 2D
100
AcDbLine
 10
1360.751021877477
 20
1402.875673862215
 30
0.0
 11
1300.321240510078
 21
1277.875673862215
 31
0.0
  0
LINE
  5
167
330
1F
100
AcDbEntity
  8
Linee visibili 2D
100
AcDbLine
 10
1300.321240510078
 20
1277.875673862215
 30
0.0
 11
1497.00779730787
 21
1402.875673862215
 31
0.0
  0
LINE
  5
168
330
1F
100
AcDbEntity
  8
Linee visibili 2D
100
AcDbLine
 10
712.85280714196
 20
1778.375673862215
 30
0.0
 11
712.85280714196
 21
2146.33537500526
 31
0.0
  0
LINE
  5
169
330
1F
100
AcDbEntity
  8
Linee visibili 2D
100
AcDbLine
 10
719.85280714196
 20
2146.33537500526
 30
0.0
 11
719.85280714196
 21
1778.375673862215
 31
0.0
  0
POLYLINE
  5
16A
330
1F
100
AcDbEntity
  8
Linee visibili 2D
100
AcDb2dPolyline
 66
     1
 10
0.0
 20
0.0
 30
0.0
  0
VERTEX
  5
16B
330
16A
100
AcDbEntity
  8
Linee visibili 2D
100
AcDbVertex
100
AcDb2dVertex
 10
791.3260177139275
 20
2146.33537500526
 30
0.0
  0
VERTEX
  5
16C
330
16A
100
AcDbEntity
  8
Linee visibili 2D
100
AcDbVertex
100
AcDb2dVertex
 10
641.3795965699924
 20
2146.33537500526
 30
0.0
 42
-0.3738846794852264
  0
VERTEX
  5
16D
330
16A
100
AcDbEntity
  8
Linee visibili 2D
100
AcDbVertex
100
AcDb2dVertex
 10
638.4087923637677
 20
2148.91785570238
 30
0.0
  0
VERTEX
  5
16E
330
16A
100
AcDbEntity
  8
Linee visibili 2D
100
AcDbVertex
100
AcDb2dVertex
 10
633.8528071419599
 20
2181.33537500526
 30
0.0
  0
VERTEX
  5
16F
330
16A
100
AcDbEntity
  8
Linee visibili 2D
100
AcDbVertex
100
AcDb2dVertex
 10
798.8528071419599
 20
2181.33537500526
 30
0.0
  0
VERTEX
  5
170
330
16A
100
AcDbEntity
  8
Linee visibili 2D
100
AcDbVertex
100
AcDb2dVertex
 10
794.2968219201522
 20
2148.91785570238
 30
0.0
 42
-0.3738846794846859
  0
VERTEX
  5
171
330
16A
100
AcDbEntity
  8
Linee visibili 2D
100
AcDbVertex
100
AcDb2dVertex
 10
791.3260177139275
 20
2146.335375005261
 30
0.0
  0
SEQEND
  5
172
330
16A
100
AcDbEntity
  8
Linee visibili 2D
  0
POLYLINE
  5
173
330
1F
100
AcDbEntity
  8
Linee visibili 2D
100
AcDb2dPolyline
 66
     1
 10
0.0
 20
0.0
 30
0.0
  0
VERTEX
  5
174
330
173
100
AcDbEntity
  8
Linee visibili 2D
100
AcDbVertex
100
AcDb2dVertex
 10
636.35280714196
 20
2181.33537500526
 30
0.0
  0
VERTEX
  5
175
330
173
100
AcDbEntity
  8
Linee visibili 2D
100
AcDbVertex
100
AcDb2dVertex
 10
636.3527835251637
 20
2182.000546744493
 30
0.0
  0
VERTEX
  5
176
330
173
100
AcDbEntity
  8
Linee visibili 2D
100
AcDbVertex
100
AcDb2dVertex
 10
636.4024721099997
 20
2182.283039049017
 30
0.0
  0
VERTEX
  5
177
330
173
100
AcDbEntity
  8
Linee visibili 2D
100
AcDbVertex
100
AcDb2dVertex
 10
636.4603655117694
 20
2183.387710961503
 30
0.0
 42
-0.3984872152211662
  0
VERTEX
  5
178
330
173
100
AcDbEntity
  8
Linee visibili 2D
100
AcDbVertex
100
AcDb2dVertex
 10
637.4589941316368
 20
2184.335375005259
 30
0.0
  0
VERTEX
  5
179
330
173
100
AcDbEntity
  8
Linee visibili 2D
100
AcDbVertex
100
AcDb2dVertex
 10
795.2466201522833
 20
2184.335375005259
 30
0.0
 42
-0.3983996104187092
  0
VERTEX
  5
17A
330
173
100
AcDbEntity
  8
Linee visibili 2D
100
AcDbVertex
100
AcDb2dVertex
 10
796.2452487721506
 20
2183.387710961503
 30
0.0
  0
VERTEX
  5
17B
330
173
100
AcDbEntity
  8
Linee visibili 2D
100
AcDbVertex
100
AcDb2dVertex
 10
796.3031421739204
 20
2182.283039049017
 30
0.0
  0
VERTEX
  5
17C
330
173
100
AcDbEntity
  8
Linee visibili 2D
100
AcDbVertex
100
AcDb2dVertex
 10
796.3532852277232
 20
2182.000699901379
 30
0.0
  0
VERTEX
  5
17D
330
173
100
AcDbEntity
  8
Linee visibili 2D
100
AcDbVertex
100
AcDb2dVertex
 10
796.3528669026805
 20
2182.014789711245
 30
0.0
  0
VERTEX
  5
17E
330
173
100
AcDbEntity
  8
Linee visibili 2D
100
AcDbVertex
100
AcDb2dVertex
 10
796.35280714196
 20
2182.019985649468
 30
0.0
  0
VERTEX
  5
17F
330
173
100
AcDbEntity
  8
Linee visibili 2D
100
AcDbVertex
100
AcDb2dVertex
 10
796.35280714196
 20
2181.33537500526
 30
0.0
  0
SEQEND
  5
180
330
173
100
AcDbEntity
  8
Linee visibili 2D
  0
LINE
  5
181
330
1F
100
AcDbEntity
  8
Linee visibili 2D
100
AcDbLine
 10
-438.473484479963
 20
1539.879422116188
 30
0.0
 11
-236.638734839685
 21
1681.222988278363
 31
0.0
  0
LINE
  5
182
330
1F
100
AcDbEntity
  8
Linee visibili 2D
100
AcDbLine
 10
-236.6350766796915
 20
1681.672823524515
 30
0.0
 11
-236.638734839685
 21
1681.222988278363
 31
0.0
  0
LINE
  5
183
330
1F
100
AcDbEntity
  8
Linee visibili 2D
100
AcDbLine
 10
-527.6441962286176
 20
2001.982832623215
 30
0.0
 11
-534.3821595798271
 21
2033.786092120658
 31
0.0
  0
LINE
  5
184
330
1F
100
AcDbEntity
  8
Linee visibili 2D
100
AcDbLine
 10
-432.7900487518547
 20
682.8222996663239
 30
0.0
 11
-489.4605796795404
 21
591.9965366280135
 31
0.0
  0
LINE
  5
185
330
1F
100
AcDbEntity
  8
Linee visibili 2D
100
AcDbLine
 10
-489.4605796795404
 20
591.9965366280135
 30
0.0
 11
-521.8366461320298
 21
779.786923182055
 31
0.0
  0
LINE
  5
186
330
1F
100
AcDbEntity
  8
Linee visibili 2D
100
AcDbLine
 10
-251.2756603298481
 20
445.9419826515191
 30
0.0
 11
-287.4798087983396
 21
323.3765235376759
 31
0.0
  0
LINE
  5
187
330
1F
100
AcDbEntity
  8
Linee visibili 2D
100
AcDbLine
 10
-398.1854462312621
 20
2062.239431698009
 30
0.0
 11
-378.2393211645099
 21
2066.377497973689
 31
0.0
  0
LINE
  5
188
330
1F
100
AcDbEntity
  8
Linee visibili 2D
100
AcDbLine
 10
-427.1614712004366
 20
1626.774358644297
 30
0.0
 11
-427.1829086264337
 21
1630.494631500669
 31
0.0
  0
LINE
  5
189
330
1F
100
AcDbEntity
  8
Linee visibili 2D
100
AcDbLine
 10
-590.455711961931
 20
381.6690808111298
 30
0.0
 11
-287.4816600228481
 21
322.9999999999995
 31
0.0
  0
LINE
  5
18A
330
1F
100
AcDbEntity
  8
Linee visibili 2D
100
AcDbLine
 10
-243.505059585451
 20
836.8873420327659
 30
0.0
 11
-228.0911241587571
 21
706.0795335759476
 31
0.0
  0
LINE
  5
18B
330
1F
100
AcDbEntity
  8
Linee visibili 2D
100
AcDbLine
 10
-432.7900487518547
 20
682.8222996663239
 30
0.0
 11
-243.505059585451
 21
836.8873420327659
 31
0.0
  0
LINE
  5
18C
330
1F
100
AcDbEntity
  8
Linee visibili 2D
100
AcDbLine
 10
-465.5765006768414
 20
1634.266678460095
 30
0.0
 11
-465.5403847038372
 21
1630.05033715676
 31
0.0
  0
LINE
  5
18D
330
1F
100
AcDbEntity
  8
Linee visibili 2D
100
AcDbLine
 10
-489.4605796795404
 20
591.9965366280135
 30
0.0
 11
-243.505059585451
 21
836.8873420327659
 31
0.0
  0
LINE
  5
18E
330
1F
100
AcDbEntity
  8
Linee visibili 2D
100
AcDbLine
 10
-228.0911241587571
 20
706.0795335759476
 30
0.0
 11
-489.4605796795404
 21
591.9965366280135
 31
0.0
  0
LINE
  5
18F
330
1F
100
AcDbEntity
  8
Linee visibili 2D
100
AcDbLine
 10
-236.638734839685
 20
1681.222988278363
 30
0.0
 11
-220.2348526795154
 21
1539.757461400683
 31
0.0
  0
LINE
  5
190
330
1F
100
AcDbEntity
  8
Linee visibili 2D
100
AcDbLine
 10
-493.3515633558097
 20
2042.49606307164
 30
0.0
 11
-476.811853921997
 21
2045.927426987617
 31
0.0
  0
LINE
  5
191
330
1F
100
AcDbEntity
  8
Linee visibili 2D
100
AcDbLine
 10
-283.5373678782346
 20
1125.235939206308
 30
0.0
 11
-606.0000000000006
 21
1179.997562505976
 31
0.0
  0
LINE
  5
192
330
1F
100
AcDbEntity
  8
Linee visibili 2D
100
AcDbLine
 10
-246.6186582368516
 20
1045.692797839909
 30
0.0
 11
-283.5373678782346
 21
1125.235939206308
 31
0.0
  0
LINE
  5
193
330
1F
100
AcDbEntity
  8
Linee visibili 2D
100
AcDbLine
 10
-416.1558412918156
 20
2058.511254645481
 30
0.0
 11
-398.1854462312621
 21
2062.239431698009
 31
0.0
  0
LINE
  5
194
330
1F
100
AcDbEntity
  8
Linee visibili 2D
100
AcDbLine
 10
-582.9504247427186
 20
1043.751220183544
 30
0.0
 11
-606.0000000000006
 21
1179.997562505976
 31
0.0
  0
LINE
  5
195
330
1F
100
AcDbEntity
  8
Linee visibili 2D
100
AcDbLine
 10
-410.7232418521553
 20
1666.839678526416
 30
0.0
 11
-414.4193291370379
 21
1667.012619258183
 31
0.0
  0
LINE
  5
196
330
1F
100
AcDbEntity
  8
Linee visibili 2D
100
AcDbLine
 10
-414.5296033168213
 20
1689.906621921341
 30
0.0
 11
-236.6350766796915
 21
1681.672823524515
 31
0.0
  0
LINE
  5
197
330
1F
100
AcDbEntity
  8
Linee visibili 2D
100
AcDbLine
 10
-427.7495182215347
 20
1592.751821217778
 30
0.0
 11
-375.9904580935747
 21
1628.688274954862
 31
0.0
  0
LINE
  5
198
330
1F
100
AcDbEntity
  8
Linee visibili 2D
100
AcDbLine
 10
-371.21955927003
 20
1632.000722754972
 30
0.0
 11
-330.0074465725083
 21
1660.614402711691
 31
0.0
  0
LINE
  5
199
330
1F
100
AcDbEntity
  8
Linee visibili 2D
100
AcDbLine
 10
1261.043850395394
 20
2766.833151996923
 30
0.0
 11
1281.833927181615
 21
2766.833151996922
 31
0.0
  0
LINE
  5
19A
330
1F
100
AcDbEntity
  8
Linee visibili 2D
100
AcDbLine
 10
1399.233927181615
 20
2766.833151996922
 30
0.0
 11
1420.024003967837
 21
2766.833151996922
 31
0.0
  0
LINE
  5
19B
330
1F
100
AcDbEntity
  8
Linee visibili 2D
100
AcDbLine
 10
1300.205218927028
 20
2766.504443742335
 30
0.0
 11
1300.533927181615
 21
2766.833151996922
 31
0.0
  0
LINE
  5
19C
330
1F
100
AcDbEntity
  8
Linee visibili 2D
100
AcDbLine
 10
1281.833927181615
 20
2766.833151996922
 30
0.0
 11
1300.533927181615
 21
2766.833151996922
 31
0.0
  0
LINE
  5
19E
330
1F
100
AcDbEntity
  8
Predefinito
100
AcDbLine
 10
1399.962516176696
 20
902.8756738622151
 30
0.0
 11
1468.057154589373
 21
902.8756738622151
 31
0.0
  0
LINE
  5
19F
330
1F
100
AcDbEntity
  8
Linee visibili 2D
100
AcDbLine
 10
-244.9653966682534
 20
1258.607663172999
 30
0.0
 11
-586.7652496287778
 21
1256.706895611748
 31
0.0
  0
LINE
  5
1A0
330
1F
100
AcDbEntity
  8
Linee visibili 2D
100
AcDbLine
 10
-414.6287797658254
 20
1710.496626690615
 30
0.0
 11
-414.2735544557447
 21
1636.748363849907
 31
0.0
  0
LINE
  5
1A1
330
1F
100
AcDbEntity
  8
Linee visibili 2D
100
AcDbLine
 10
-304.5930471211037
 20
1996.468709376586
 30
0.0
 11
-374.9398853726221
 21
2066.562936223044
 31
0.0
  0
LINE
  5
1A2
330
1F
100
AcDbEntity
  8
Linee visibili 2D
100
AcDbLine
 10
-414.2053252884592
 20
1622.583318681137
 30
0.0
 11
-414.1072584436099
 21
1602.223678631082
 31
0.0
  0
LINE
  5
1A3
330
1F
100
AcDbEntity
  8
Linee visibili 2D
100
AcDbLine
 10
-408.1483164557549
 20
1673.605233536209
 30
0.0
 11
-408.1300569924538
 21
1669.41495469133
 31
0.0
  0
LINE
  5
1A4
330
1F
100
AcDbEntity
  8
Linee visibili 2D
100
AcDbLine
 10
-572.204830012935
 20
443.8978974473557
 30
0.0
 11
-590.4630118079401
 21
382.0439886207641
 31
0.0
  0
LINE
  5
1A5
330
1F
100
AcDbEntity
  8
Linee visibili 2D
100
AcDbLine
 10
-549.9522418429976
 20
1340.737373947813
 30
0.0
 11
-220.2348526795154
 21
1539.757461400683
 31
0.0
  0
LINE
  5
1A6
330
1F
100
AcDbEntity
  8
Predefinito
100
AcDbLine
 10
621.4255769264165
 20
902.8756738622151
 30
0.0
 11
676.1401204704232
 21
902.8756738622151
 31
0.0
  0
LINE
  5
1A7
330
1F
100
AcDbEntity
  8
Predefinito
100
AcDbLine
 10
676.1401204704232
 20
1652.875673862215
 30
0.0
 11
575.4493117958547
 21
1652.875673862215
 31
0.0
  0
POLYLINE
  5
1A8
330
1F
100
AcDbEntity
  8
Linee visibili 2D
100
AcDb2dPolyline
 66
     1
 10
0.0
 20
0.0
 30
0.0
  0
VERTEX
  5
1A9
330
1A8
100
AcDbEntity
  8
Linee visibili 2D
100
AcDbVertex
100
AcDb2dVertex
 10
1265.560716609648
 20
2146.33537500526
 30
0.0
 42
-0.3738846794850221
  0
VERTEX
  5
1AA
330
1A8
100
AcDbEntity
  8
Linee visibili 2D
100
AcDbVertex
100
AcDb2dVertex
 10
1262.589912403423
 20
2148.91785570238
 30
0.0
  0
VERTEX
  5
1AB
330
1A8
100
AcDbEntity
  8
Linee visibili 2D
100
AcDbVertex
100
AcDb2dVertex
 10
1258.033927181615
 20
2181.33537500526
 30
0.0
  0
VERTEX
  5
1AC
330
1A8
100
AcDbEntity
  8
Linee visibili 2D
100
AcDbVertex
100
AcDb2dVertex
 10
1423.033927181615
 20
2181.33537500526
 30
0.0
  0
VERTEX
  5
1AD
330
1A8
100
AcDbEntity
  8
Linee visibili 2D
100
AcDbVertex
100
AcDb2dVertex
 10
1418.477941959808
 20
2148.91785570238
 30
0.0
 42
-0.3738846794848764
  0
VERTEX
  5
1AE
330
1A8
100
AcDbEntity
  8
Linee visibili 2D
100
AcDbVertex
100
AcDb2dVertex
 10
1415.507137753583
 20
2146.33537500526
 30
0.0
  0
VERTEX
  5
1AF
330
1A8
100
AcDbEntity
  8
Linee visibili 2D
100
AcDbVertex
100
AcDb2dVertex
 10
1265.560716609648
 20
2146.33537500526
 30
0.0
  0
SEQEND
  5
1B0
330
1A8
100
AcDbEntity
  8
Linee visibili 2D
  0
LINE
  5
1B1
330
1F
100
AcDbEntity
  8
Predefinito
100
AcDbLine
 10
676.1401204704232
 20
652.8756738622151
 30
0.0
 11
575.4493117958533
 21
652.8756738622151
 31
0.0
  0
LINE
  5
1B2
330
1F
100
AcDbEntity
  8
Linee visibili 2D
100
AcDbLine
 10
1344.033927181615
 20
2146.33537500526
 30
0.0
 11
1344.033927181615
 21
1784.375673862215
 31
0.0
  0
LINE
  5
1B3
330
1F
100
AcDbEntity
  8
Linee visibili 2D
100
AcDbLine
 10
1337.033927181615
 20
2146.33537500526
 30
0.0
 11
1337.033927181615
 21
1784.375673862215
 31
0.0
  0
POLYLINE
  5
1B4
330
1F
100
AcDbEntity
  8
Linee visibili 2D
100
AcDb2dPolyline
 66
     1
 10
0.0
 20
0.0
 30
0.0
  0
VERTEX
  5
1B5
330
1B4
100
AcDbEntity
  8
Linee visibili 2D
100
AcDbVertex
100
AcDb2dVertex
 10
1260.533927181616
 20
2181.33537500526
 30
0.0
  0
VERTEX
  5
1B6
330
1B4
100
AcDbEntity
  8
Linee visibili 2D
100
AcDbVertex
100
AcDb2dVertex
 10
1260.533927272717
 20
2182.019992573576
 30
0.0
  0
VERTEX
  5
1B7
330
1B4
100
AcDbEntity
  8
Linee visibili 2D
100
AcDbVertex
100
AcDb2dVertex
 10
1260.583592149655
 20
2182.283039049017
 30
0.0
  0
VERTEX
  5
1B8
330
1B4
100
AcDbEntity
  8
Linee visibili 2D
100
AcDbVertex
100
AcDb2dVertex
 10
1260.641485551424
 20
2183.387710961503
 30
0.0
 42
-0.3989595459738061
  0
VERTEX
  5
1B9
330
1B4
100
AcDbEntity
  8
Linee visibili 2D
100
AcDbVertex
100
AcDb2dVertex
 10
1261.640115086179
 20
2184.33537500526
 30
0.0
  0
VERTEX
  5
1BA
330
1B4
100
AcDbEntity
  8
Linee visibili 2D
100
AcDbVertex
100
AcDb2dVertex
 10
1419.427740191938
 20
2184.335375005259
 30
0.0
 42
-0.3983996104182706
  0
VERTEX
  5
1BB
330
1B4
100
AcDbEntity
  8
Linee visibili 2D
100
AcDbVertex
100
AcDb2dVertex
 10
1420.426368811806
 20
2183.387710961503
 30
0.0
  0
VERTEX
  5
1BC
330
1B4
100
AcDbEntity
  8
Linee visibili 2D
100
AcDbVertex
100
AcDb2dVertex
 10
1420.484262213576
 20
2182.283039049017
 30
0.0
  0
VERTEX
  5
1BD
330
1B4
100
AcDbEntity
  8
Linee visibili 2D
100
AcDbVertex
100
AcDb2dVertex
 10
1420.534405267379
 20
2182.000699901379
 30
0.0
 42
0.000734935193015
  0
VERTEX
  5
1BE
330
1B4
100
AcDbEntity
  8
Linee visibili 2D
100
AcDbVertex
100
AcDb2dVertex
 10
1420.533927181615
 20
2181.33537500526
 30
0.0
  0
SEQEND
  5
1BF
330
1B4
100
AcDbEntity
  8
Linee visibili 2D
  0
LINE
  5
1C0
330
1F
100
AcDbEntity
  8
Predefinito
100
AcDbLine
 10
1399.962516176696
 20
1652.875673862215
 30
0.0
 11
1469.952043642557
 21
1652.875673862215
 31
0.0
  0
LINE
  5
1C1
330
1F
100
AcDbEntity
  8
Linee visibili 2D
100
AcDbLine
 10
1380.862635436202
 20
2606.201170541584
 30
0.0
 11
1380.533927181615
 21
2605.872462286998
 31
0.0
  0
LINE
  5
1C2
330
1F
100
AcDbEntity
  8
Linee visibili 2D
100
AcDbLine
 10
1399.233927181615
 20
2606.201170541584
 30
0.0
 11
1399.233927181615
 21
2605.872462286997
 31
0.0
  0
LINE
  5
1C3
330
1F
100
AcDbEntity
  8
Linee visibili 2D
100
AcDbLine
 10
1260.533927181615
 20
2627.65280714196
 30
0.0
 11
1260.38229058124
 21
2627.65280714196
 31
0.0
  0
LINE
  5
1C4
330
1F
100
AcDbEntity
  8
Linee visibili 2D
100
AcDbLine
 10
1399.233927181615
 20
2606.35280714196
 30
0.0
 11
1399.233927181615
 21
2606.201170541584
 31
0.0
  0
LINE
  5
1C5
330
1F
100
AcDbEntity
  8
Linee visibili 2D
100
AcDbLine
 10
1380.862635436203
 20
2766.504443742335
 30
0.0
 11
1381.014272036578
 21
2766.35280714196
 31
0.0
  0
LINE
  5
1C6
330
1F
100
AcDbEntity
  8
Linee visibili 2D
100
AcDbLine
 10
1399.233927181615
 20
2766.833151996922
 30
0.0
 11
1399.233927181615
 21
2766.504443742335
 31
0.0
  0
LINE
  5
1C7
330
1F
100
AcDbEntity
  8
Linee visibili 2D
100
AcDbLine
 10
1421.014272036578
 20
2646.35280714196
 30
0.0
 11
1421.014272036578
 21
2627.65280714196
 31
0.0
  0
LINE
  5
1C8
330
1F
100
AcDbEntity
  8
Linee visibili 2D
100
AcDbLine
 10
1421.014272036578
 20
2745.05280714196
 30
0.0
 11
1421.014272036578
 21
2726.352807141961
 31
0.0
  0
LINE
  5
1C9
330
1F
100
AcDbEntity
  8
Linee visibili 2D
100
AcDbLine
 10
1420.024003967837
 20
2766.833151996922
 30
0.0
 11
1421.014272036578
 21
2765.842883928181
 31
0.0
  0
LINE
  5
1CA
330
1F
100
AcDbEntity
  8
Linee visibili 2D
100
AcDbLine
 10
1380.533927181615
 20
2766.833151996922
 30
0.0
 11
1399.233927181615
 21
2766.833151996922
 31
0.0
  0
LINE
  5
1CB
330
1F
100
AcDbEntity
  8
Linee visibili 2D
100
AcDbLine
 10
1260.053582326652
 20
2765.842883928181
 30
0.0
 11
1261.043850395394
 21
2766.833151996922
 31
0.0
  0
LINE
  5
1CC
330
1F
100
AcDbEntity
  8
Linee visibili 2D
100
AcDbLine
 10
1300.205218927028
 20
2606.201170541585
 30
0.0
 11
1300.053582326652
 21
2606.352807141961
 31
0.0
  0
LINE
  5
1CD
330
1F
100
AcDbEntity
  8
Linee visibili 2D
100
AcDbLine
 10
1300.533927181615
 20
2605.872462286998
 30
0.0
 11
1300.205218927028
 21
2606.201170541585
 31
0.0
  0
LINE
  5
1CE
330
1F
100
AcDbEntity
  8
Linee visibili 2D
100
AcDbLine
 10
1420.533927181615
 20
2726.833151996922
 30
0.0
 11
1420.68556378199
 21
2726.681515396547
 31
0.0
  0
LINE
  5
1CF
330
1F
100
AcDbEntity
  8
Linee visibili 2D
100
AcDbLine
 10
1420.68556378199
 20
2745.05280714196
 30
0.0
 11
1421.014272036578
 21
2745.05280714196
 31
0.0
  0
LINE
  5
1D0
330
1F
100
AcDbEntity
  8
Linee visibili 2D
100
AcDbLine
 10
1420.533927181615
 20
2745.05280714196
 30
0.0
 11
1420.68556378199
 21
2745.05280714196
 31
0.0
  0
LINE
  5
1D1
330
1F
100
AcDbEntity
  8
Linee visibili 2D
100
AcDbLine
 10
1260.38229058124
 20
2726.681515396548
 30
0.0
 11
1260.533927181615
 21
2726.833151996922
 31
0.0
  0
LINE
  5
1D2
330
1F
100
AcDbEntity
  8
Linee visibili 2D
100
AcDbLine
 10
1260.053582326653
 20
2726.352807141961
 30
0.0
 11
1260.38229058124
 21
2726.681515396548
 31
0.0
  0
LINE
  5
1D3
330
1F
100
AcDbEntity
  8
Linee visibili 2D
100
AcDbLine
 10
1260.38229058124
 20
2745.05280714196
 30
0.0
 11
1260.533927181615
 21
2745.05280714196
 31
0.0
  0
LINE
  5
1D4
330
1F
100
AcDbEntity
  8
Linee visibili 2D
100
AcDbLine
 10
1260.053582326653
 20
2745.05280714196
 30
0.0
 11
1260.38229058124
 21
2745.05280714196
 31
0.0
  0
LINE
  5
1D5
330
1F
100
AcDbEntity
  8
Linee visibili 2D
100
AcDbLine
 10
1420.68556378199
 20
2646.024098887372
 30
0.0
 11
1420.533927181615
 21
2645.872462286997
 31
0.0
  0
LINE
  5
1D6
330
1F
100
AcDbEntity
  8
Linee visibili 2D
100
AcDbLine
 10
1421.014272036578
 20
2646.35280714196
 30
0.0
 11
1420.68556378199
 21
2646.024098887372
 31
0.0
  0
LINE
  5
1D7
330
1F
100
AcDbEntity
  8
Linee visibili 2D
100
AcDbLine
 10
1420.68556378199
 20
2627.65280714196
 30
0.0
 11
1420.533927181615
 21
2627.65280714196
 31
0.0
  0
LINE
  5
1D8
330
1F
100
AcDbEntity
  8
Linee visibili 2D
100
AcDbLine
 10
1380.533927181615
 20
2766.833151996922
 30
0.0
 11
1380.862635436203
 21
2766.504443742335
 31
0.0
  0
LINE
  5
1D9
330
1F
100
AcDbEntity
  8
Linee visibili 2D
100
AcDbLine
 10
1381.014272036578
 20
2606.35280714196
 30
0.0
 11
1380.862635436202
 21
2606.201170541584
 31
0.0
  0
LINE
  5
1DA
330
1F
100
AcDbEntity
  8
Linee visibili 2D
100
AcDbLine
 10
1420.68556378199
 20
2726.681515396547
 30
0.0
 11
1421.014272036578
 21
2726.352807141961
 31
0.0
  0
LINE
  5
1DB
330
1F
100
AcDbEntity
  8
Linee visibili 2D
100
AcDbLine
 10
1421.014272036578
 20
2627.65280714196
 30
0.0
 11
1420.68556378199
 21
2627.65280714196
 31
0.0
  0
LINE
  5
1DC
330
1F
100
AcDbEntity
  8
Linee visibili 2D
100
AcDbLine
 10
1399.233927181615
 20
2766.504443742335
 30
0.0
 11
1399.233927181615
 21
2766.35280714196
 31
0.0
  0
LINE
  5
1DD
330
1F
100
AcDbEntity
  8
Linee visibili 2D
100
AcDbLine
 10
1281.833927181615
 20
2606.201170541585
 30
0.0
 11
1281.833927181615
 21
2606.35280714196
 31
0.0
  0
LINE
  5
1DE
330
1F
100
AcDbEntity
  8
Linee visibili 2D
100
AcDbLine
 10
1281.833927181615
 20
2605.872462286998
 30
0.0
 11
1281.833927181615
 21
2606.201170541585
 31
0.0
  0
LINE
  5
1DF
330
1F
100
AcDbEntity
  8
Linee visibili 2D
100
AcDbLine
 10
1421.014272036578
 20
2726.352807141961
 30
0.0
 11
1421.014272036578
 21
2646.35280714196
 31
0.0
  0
LINE
  5
1E0
330
1F
100
AcDbEntity
  8
Linee visibili 2D
100
AcDbLine
 10
1421.014272036578
 20
2765.842883928181
 30
0.0
 11
1421.014272036578
 21
2745.05280714196
 31
0.0
  0
LINE
  5
1E1
330
1F
100
AcDbEntity
  8
Linee visibili 2D
100
AcDbLine
 10
1300.533927181615
 20
2766.833151996922
 30
0.0
 11
1380.533927181615
 21
2766.833151996922
 31
0.0
  0
LINE
  5
1E2
330
1F
100
AcDbEntity
  8
Linee visibili 2D
100
AcDbLine
 10
-511.4705321306569
 20
2038.737062594786
 30
0.0
 11
-493.3515633558097
 21
2042.49606307164
 31
0.0
  0
LINE
  5
1E3
330
1F
100
AcDbEntity
  8
Linee visibili 2D
100
AcDbLine
 10
-472.4548253296691
 20
1972.106377966445
 30
0.0
 11
-472.7797120128006
 21
1972.296577604515
 31
0.0
  0
LINE
  5
1E4
330
1F
100
AcDbEntity
  8
Linee visibili 2D
100
AcDbLine
 10
-462.3434116150033
 20
1933.163215931639
 30
0.0
 11
-526.8213475827936
 21
2000.425933720349
 31
0.0
  0
LINE
  5
1E5
330
1F
100
AcDbEntity
  8
Linee visibili 2D
100
AcDbLine
 10
-590.4630118079401
 20
382.0439886207641
 30
0.0
 11
-251.2756603298481
 21
445.9419826515191
 31
0.0
  0
LINE
  5
1E6
330
1F
100
AcDbEntity
  8
Predefinito
100
AcDbLine
 10
1399.962516176697
 20
652.8756738622151
 30
0.0
 11
1468.058490316639
 21
652.8756738622151
 31
0.0
  0
LINE
  5
1E7
330
1F
100
AcDbEntity
  8
Linee visibili 2D
100
AcDbLine
 10
-523.3477342760165
 20
2024.744893018076
 30
0.0
 11
-532.1895744677222
 21
2033.915503266526
 31
0.0
  0
LINE
  5
1E8
330
1F
100
AcDbEntity
  8
Linee visibili 2D
100
AcDbLine
 10
-531.6479274306363
 20
2034.551016495984
 30
0.0
 11
-511.4705321306569
 21
2038.737062594786
 31
0.0
  0
LINE
  5
1E9
330
1F
100
AcDbEntity
  8
Linee visibili 2D
100
AcDbLine
 10
-472.7797120128006
 20
1972.296577604515
 30
0.0
 11
-480.9078923792837
 21
1980.726991698636
 31
0.0
  0
LINE
  5
1EA
330
1F
100
AcDbEntity
  8
Linee visibili 2D
100
AcDbLine
 10
-586.7652496287778
 20
1256.706895611748
 30
0.0
 11
-223.1183752871345
 21
1397.846727108779
 31
0.0
  0
LINE
  5
1EB
330
1F
100
AcDbEntity
  8
Linee visibili 2D
100
AcDbLine
 10
-515.3659713011907
 20
2016.466340618283
 30
0.0
 11
-523.3477342760165
 21
2024.744893018076
 31
0.0
  0
LINE
  5
1EC
330
1F
100
AcDbEntity
  8
Linee visibili 2D
100
AcDbLine
 10
-463.7099508764862
 20
1962.889571526108
 30
0.0
 11
-472.7797120128006
 21
1972.296577604515
 31
0.0
  0
LINE
  5
1ED
330
1F
100
AcDbEntity
  8
Linee visibili 2D
100
AcDbLine
 10
-498.8642655658618
 20
1434.584482936715
 30
0.0
 11
-549.9522418429976
 21
1340.737373947813
 31
0.0
  0
LINE
  5
1EE
330
1F
100
AcDbEntity
  8
Linee visibili 2D
100
AcDbLine
 10
-359.5890274824163
 20
2048.928305204246
 30
0.0
 11
-350.5291786663662
 21
2039.896589865639
 31
0.0
  0
LINE
  5
1EF
330
1F
100
AcDbEntity
  8
Linee visibili 2D
100
AcDbLine
 10
-438.4835910196625
 20
1539.89075108884
 30
0.0
 11
-578.6903135271759
 21
1697.056128373017
 31
0.0
  0
LINE
  5
1F0
330
1F
100
AcDbEntity
  8
Linee visibili 2D
100
AcDbLine
 10
-324.2200376294506
 20
2013.669146397957
 30
0.0
 11
-315.8774980757555
 21
2005.35251286688
 31
0.0
  0
LINE
  5
1F1
330
1F
100
AcDbEntity
  8
Linee visibili 2D
100
AcDbLine
 10
-480.9078923792837
 20
1980.726991698636
 30
0.0
 11
-515.3659713011907
 21
2016.466340618283
 31
0.0
  0
LINE
  5
1F2
330
1F
100
AcDbEntity
  8
Linee visibili 2D
100
AcDbLine
 10
-532.1895744677222
 20
2033.915503266526
 30
0.0
 11
-531.6479274306363
 21
2034.551016495984
 31
0.0
  0
LINE
  5
1F3
330
1F
100
AcDbEntity
  8
Linee visibili 2D
100
AcDbLine
 10
-549.9522418429976
 20
1340.737373947813
 30
0.0
 11
-586.7652496287778
 21
1256.706895611748
 31
0.0
  0
LINE
  5
1F4
330
1F
100
AcDbEntity
  8
Linee visibili 2D
100
AcDbLine
 10
-531.2574605893233
 20
2032.948730185286
 30
0.0
 11
-531.267329615546
 21
2033.708703498997
 31
0.0
  0
ARC
  5
1F5
330
1F
100
AcDbEntity
  8
Linee visibili 2D
100
AcDbCircle
 10
-532.7800960062218
 20
2033.987906544735
 30
0.0
 40
1.463343465828642
100
AcDbArc
 50
80.67798131193739
 51
198.4175137553607
  0
LINE
  5
1F6
330
1F
100
AcDbEntity
  8
Linee visibili 2D
100
AcDbLine
 10
-223.1183752871345
 20
1397.846727108779
 30
0.0
 11
-244.9653966682534
 21
1258.607663172999
 31
0.0
  0
ARC
  5
1F7
330
1F
100
AcDbEntity
  8
Linee visibili 2D
100
AcDbCircle
 10
-371.8350677844148
 20
1627.438893653163
 30
0.0
 40
4.766494455374833
100
AcDbArc
 50
218.4964756159804
 51
321.887963080751
  0
LINE
  5
1F8
330
1F
100
AcDbEntity
  8
Linee visibili 2D
100
AcDbLine
 10
1352.892521940861
 20
2606.35280714196
 30
0.0
 11
1328.17533242237
 21
2606.35280714196
 31
0.0
  0
LINE
  5
1F9
330
1F
100
AcDbEntity
  8
Linee visibili 2D
100
AcDbLine
 10
1420.533927181615
 20
2764.352807141961
 30
0.0
 11
1420.533927181615
 21
2698.711401901206
 31
0.0
  0
ARC
  5
1FA
330
1F
100
AcDbEntity
  8
Linee visibili 2D
100
AcDbCircle
 10
1262.533927181616
 20
2608.352807141961
 30
0.0
 40
2.000000000001364
100
AcDbArc
 50
180.0000000000391
 51
269.9999999999609
  0
LINE
  5
1FB
330
1F
100
AcDbEntity
  8
Linee visibili 2D
100
AcDbLine
 10
1328.17533242237
 20
2606.35280714196
 30
0.0
 11
1262.533927181615
 21
2606.35280714196
 31
0.0
  0
LINE
  5
1FC
330
1F
100
AcDbEntity
  8
Linee visibili 2D
100
AcDbLine
 10
1262.533927181615
 20
2766.352807141961
 30
0.0
 11
1328.175332422369
 21
2766.352807141961
 31
0.0
  0
ARC
  5
1FD
330
1F
100
AcDbEntity
  8
Linee visibili 2D
100
AcDbCircle
 10
1340.533927181615
 20
2631.35280714196
 30
0.0
 40
3.500000000000227
100
AcDbArc
 50
0.0
 51
180.0
  0
ARC
  5
1FE
330
1F
100
AcDbEntity
  8
Linee visibili 2D
100
AcDbCircle
 10
1340.533927181615
 20
2741.35280714196
 30
0.0
 40
3.500000000000227
100
AcDbArc
 50
180.0000000000074
 51
359.9999999999926
  0
LINE
  5
1FF
330
1F
100
AcDbEntity
  8
Linee visibili 2D
100
AcDbLine
 10
1300.053582326653
 20
2766.35280714196
 30
0.0
 11
1300.205218927028
 21
2766.504443742335
 31
0.0
  0
LINE
  5
200
330
1F
100
AcDbEntity
  8
Linee visibili 2D
100
AcDbLine
 10
1281.833927181615
 20
2766.35280714196
 30
0.0
 11
1281.833927181615
 21
2766.504443742335
 31
0.0
  0
LINE
  5
201
330
1F
100
AcDbEntity
  8
Linee visibili 2D
100
AcDbLine
 10
1260.533927181615
 20
2645.872462286998
 30
0.0
 11
1260.38229058124
 21
2646.024098887373
 31
0.0
  0
LINE
  5
202
330
1F
100
AcDbEntity
  8
Linee visibili 2D
100
AcDbLine
 10
1508.033927181615
 20
2589.646637052698
 30
0.0
 11
1469.952043642557
 21
2542.619427354816
 31
0.0
  0
ARC
  5
203
330
1F
100
AcDbEntity
  8
Linee visibili 2D
100
AcDbCircle
 10
1418.533927181615
 20
2764.35280714196
 30
0.0
 40
2.000000000000455
100
AcDbArc
 50
0.0000000000130276
 51
89.99999999999349
  0
LINE
  5
204
330
1F
100
AcDbEntity
  8
Linee visibili 2D
100
AcDbLine
 10
1418.533927181615
 20
2606.35280714196
 30
0.0
 11
1352.892521940861
 21
2606.35280714196
 31
0.0
  0
LINE
  5
205
330
1F
100
AcDbEntity
  8
Linee visibili 2D
100
AcDbLine
 10
1352.892521940861
 20
2766.352807141961
 30
0.0
 11
1418.533927181615
 21
2766.352807141961
 31
0.0
  0
LINE
  5
206
330
1F
100
AcDbEntity
  8
Linee visibili 2D
100
AcDbLine
 10
1260.533927181736
 20
2673.994212382714
 30
0.0
 11
1260.533927272557
 21
2686.35280714196
 31
0.0
  0
LINE
  5
207
330
1F
100
AcDbEntity
  8
Linee visibili 2D
100
AcDbLine
 10
1420.533927181615
 20
2673.994212382714
 30
0.0
 11
1420.533927181615
 21
2608.35280714196
 31
0.0
  0
LINE
  5
208
330
1F
100
AcDbEntity
  8
Linee visibili 2D
100
AcDbLine
 10
1173.033927181615
 20
2589.646637052698
 30
0.0
 11
1258.033927181615
 21
2736.870955696052
 31
0.0
  0
ARC
  5
209
330
1F
100
AcDbEntity
  8
Linee visibili 2D
100
AcDbCircle
 10
1418.533927181615
 20
2608.352807141959
 30
0.0
 40
2.0
100
AcDbArc
 50
270.0
 51
0.0000000000130276
  0
LINE
  5
20A
330
1F
100
AcDbEntity
  8
Linee visibili 2D
100
AcDbLine
 10
1420.533927181615
 20
2698.711401901206
 30
0.0
 11
1420.533927181615
 21
2673.994212382714
 31
0.0
  0
LINE
  5
20B
330
1F
100
AcDbEntity
  8
Linee visibili 2D
100
AcDbLine
 10
1260.533927181615
 20
2608.35280714196
 30
0.0
 11
1260.533927181615
 21
2673.994212382714
 31
0.0
  0
LINE
  5
20C
330
1F
100
AcDbEntity
  8
Linee visibili 2D
100
AcDbLine
 10
1260.533927273005
 20
2686.35280714196
 30
0.0
 11
1260.533927182478
 21
2698.711401901205
 31
0.0
  0
LINE
  5
20D
330
1F
100
AcDbEntity
  8
Linee visibili 2D
100
AcDbLine
 10
1328.175332422369
 20
2766.352807141961
 30
0.0
 11
1352.892521940861
 21
2766.352807141961
 31
0.0
  0
LINE
  5
20E
330
1F
100
AcDbEntity
  8
Linee visibili 2D
100
AcDbLine
 10
1260.533927181615
 20
2698.711401901205
 30
0.0
 11
1260.533927181615
 21
2764.352807141961
 31
0.0
  0
ARC
  5
20F
330
1F
100
AcDbEntity
  8
Linee visibili 2D
100
AcDbCircle
 10
1340.533927181615
 20
2631.35280714196
 30
0.0
 40
3.500000000000227
100
AcDbArc
 50
180.0
 51
0.0
  0
ARC
  5
210
330
1F
100
AcDbEntity
  8
Linee visibili 2D
100
AcDbCircle
 10
1340.533927181615
 20
2741.35280714196
 30
0.0
 40
3.5
100
AcDbArc
 50
0.0
 51
180.0
  0
LINE
  5
211
330
1F
100
AcDbEntity
  8
Linee visibili 2D
100
AcDbLine
 10
1281.833927181615
 20
2766.504443742335
 30
0.0
 11
1281.833927181615
 21
2766.833151996922
 31
0.0
  0
LINE
  5
212
330
1F
100
AcDbEntity
  8
Linee visibili 2D
100
AcDbLine
 10
1260.38229058124
 20
2646.024098887373
 30
0.0
 11
1260.053582326652
 21
2646.352807141961
 31
0.0
  0
LINE
  5
213
330
1F
100
AcDbEntity
  8
Linee visibili 2D
100
AcDbLine
 10
1260.38229058124
 20
2627.65280714196
 30
0.0
 11
1260.053582326652
 21
2627.65280714196
 31
0.0
  0
LINE
  5
214
330
1F
100
AcDbEntity
  8
Linee visibili 2D
100
AcDbLine
 10
1419.201813155263
 20
2509.661842319843
 30
0.0
 11
1360.751021877477
 21
2494.0
 31
0.0
  0
LINE
  5
215
330
1F
100
AcDbEntity
  8
Linee visibili 2D
100
AcDbLine
 10
1260.053582326653
 20
2745.05280714196
 30
0.0
 11
1260.053582326652
 21
2765.842883928181
 31
0.0
  0
LINE
  5
216
330
1F
100
AcDbEntity
  8
Linee visibili 2D
100
AcDbLine
 10
1260.053582326653
 20
2726.352807141961
 30
0.0
 11
1260.053582326653
 21
2745.05280714196
 31
0.0
  0
LINE
  5
217
330
1F
100
AcDbEntity
  8
Linee visibili 2D
100
AcDbLine
 10
1260.053582326652
 20
2627.65280714196
 30
0.0
 11
1260.053582326653
 21
2646.352807141961
 31
0.0
  0
LINE
  5
218
330
1F
100
AcDbEntity
  8
Linee visibili 2D
100
AcDbLine
 10
1423.033927181615
 20
2736.870955696052
 30
0.0
 11
1508.033927181615
 21
2589.646637052698
 31
0.0
  0
LINE
  5
219
330
1F
100
AcDbEntity
  8
Linee visibili 2D
100
AcDbLine
 10
1508.033927181615
 20
2589.646637052698
 30
0.0
 11
1173.033927181615
 21
2589.646637052698
 31
0.0
  0
LINE
  5
21A
330
1F
100
AcDbEntity
  8
Linee visibili 2D
100
AcDbLine
 10
1469.952043642557
 20
2542.619427354816
 30
0.0
 11
1325.217174556099
 21
2589.646637052698
 31
0.0
  0
LINE
  5
21B
330
1F
100
AcDbEntity
  8
Linee visibili 2D
100
AcDbLine
 10
1419.201813155263
 20
2509.661842319843
 30
0.0
 11
1309.112187772364
 21
2589.646637052698
 31
0.0
  0
LINE
  5
21C
330
1F
100
AcDbEntity
  8
Linee visibili 2D
100
AcDbLine
 10
1148.181120039655
 20
2706.569901837822
 30
0.0
 11
1151.34811068368
 21
2646.140120470423
 31
0.0
  0
LINE
  5
21D
330
1F
100
AcDbEntity
  8
Linee visibili 2D
100
AcDbLine
 10
1341.330456946511
 20
2768.852807142073
 30
0.0
 11
1345.333355487674
 21
2771.452293647107
 31
0.0
  0
LINE
  5
21E
330
1F
100
AcDbEntity
  8
Linee visibili 2D
100
AcDbLine
 10
1524.479993640296
 20
2746.120507178953
 30
0.0
 11
1459.4144998268
 21
2673.857955466142
 31
0.0
  0
LINE
  5
21F
330
1F
100
AcDbEntity
  8
Linee visibili 2D
100
AcDbLine
 10
1291.9144998268
 20
2795.55382890704
 30
0.0
 11
1196.800547394471
 21
2815.770923602902
 31
0.0
  0
LINE
  5
220
330
1F
100
AcDbEntity
  8
Linee visibili 2D
100
AcDbLine
 10
1276.498657723093
 20
2768.852807141961
 30
0.0
 11
1340.533927181615
 21
2879.765147320485
 31
0.0
  0
LINE
  5
221
330
1F
100
AcDbEntity
  8
Linee visibili 2D
100
AcDbLine
 10
1423.033927181615
 20
2763.351810736981
 30
0.0
 11
1431.942303494374
 21
2721.441195309411
 31
0.0
  0
LINE
  5
222
330
1F
100
AcDbEntity
  8
Linee visibili 2D
100
AcDbLine
 10
1151.34811068368
 20
2646.140120470423
 30
0.0
 11
1173.033927181615
 21
2589.646637052698
 31
0.0
  0
LINE
  5
223
330
1F
100
AcDbEntity
  8
Linee visibili 2D
100
AcDbLine
 10
1340.533927181615
 20
2879.765147320485
 30
0.0
 11
1404.569196640138
 21
2768.85280714196
 31
0.0
  0
LINE
  5
224
330
1F
100
AcDbEntity
  8
Linee visibili 2D
100
AcDbLine
 10
1334.233684642055
 20
2768.852807141961
 30
0.0
 11
1340.533927181615
 21
2779.765147320485
 31
0.0
  0
LINE
  5
225
330
1F
100
AcDbEntity
  8
Linee visibili 2D
100
AcDbLine
 10
1340.533927181615
 20
2879.765147320485
 30
0.0
 11
1400.301627218608
 21
2870.298873600641
 31
0.0
  0
LINE
  5
226
330
1F
100
AcDbEntity
  8
Linee visibili 2D
100
AcDbLine
 10
1400.301627218608
 20
2870.298873600641
 30
0.0
 11
1422.019561757712
 21
2768.12402485229
 31
0.0
  0
LINE
  5
227
330
1F
100
AcDbEntity
  8
Linee visibili 2D
100
AcDbLine
 10
1258.033927181615
 20
2742.200461114381
 30
0.0
 11
1151.34811068368
 21
2646.140120470423
 31
0.0
  0
LINE
  5
228
330
1F
100
AcDbEntity
  8
Linee visibili 2D
100
AcDbLine
 10
1281.421054573423
 20
2777.37864858175
 30
0.0
 11
1163.842962359498
 21
2765.020693115608
 31
0.0
  0
LINE
  5
229
330
1F
100
AcDbEntity
  8
Linee visibili 2D
100
AcDbLine
 10
1454.218848349927
 20
2842.826677268215
 30
0.0
 11
1439.994796886241
 21
2707.493867627085
 31
0.0
  0
LINE
  5
22A
330
1F
100
AcDbEntity
  8
Linee visibili 2D
100
AcDbLine
 10
1469.952043642557
 20
2542.619427354816
 30
0.0
 11
1419.201813155263
 21
2509.661842319843
 31
0.0
  0
LINE
  5
22B
330
1F
100
AcDbEntity
  8
Linee visibili 2D
100
AcDbLine
 10
1400.301627218608
 20
2870.298873600641
 30
0.0
 11
1454.218848349927
 21
2842.826677268215
 31
0.0
  0
LINE
  5
22C
330
1F
100
AcDbEntity
  8
Linee visibili 2D
100
AcDbLine
 10
1258.033927181615
 20
2755.479522739089
 30
0.0
 11
1148.181120039655
 21
2706.569901837822
 31
0.0
  0
LINE
  5
22D
330
1F
100
AcDbEntity
  8
Linee visibili 2D
100
AcDbLine
 10
1300.321240510078
 20
2497.166990644025
 30
0.0
 11
1270.272781891246
 21
2589.646637052698
 31
0.0
  0
LINE
  5
22E
330
1F
100
AcDbEntity
  8
Linee visibili 2D
100
AcDbLine
 10
1346.834169721175
 20
2768.852807141961
 30
0.0
 11
1340.533927181615
 21
2779.765147320485
 31
0.0
  0
LINE
  5
22F
330
1F
100
AcDbEntity
  8
Linee visibili 2D
100
AcDbLine
 10
1454.218848349927
 20
2842.826677268215
 30
0.0
 11
1497.00779730787
 21
2800.037728310272
 31
0.0
  0
ARC
  5
230
330
1F
100
AcDbEntity
  8
Linee visibili 2D
100
AcDbCircle
 10
1262.533927181615
 20
2764.352807141961
 30
0.0
 40
2.000000000000227
100
AcDbArc
 50
90.00000000000651
 51
180.0
  0
LINE
  5
231
330
1F
100
AcDbEntity
  8
Linee visibili 2D
100
AcDbLine
 10
1260.053582326653
 20
2646.352807141961
 30
0.0
 11
1260.053582326653
 21
2726.352807141961
 31
0.0
  0
LINE
  5
232
330
1F
100
AcDbEntity
  8
Linee visibili 2D
100
AcDbLine
 10
1300.533927181615
 20
2605.872462286998
 30
0.0
 11
1281.833927181615
 21
2605.872462286998
 31
0.0
  0
LINE
  5
233
330
1F
100
AcDbEntity
  8
Linee visibili 2D
100
AcDbLine
 10
1399.233927181615
 20
2605.872462286997
 30
0.0
 11
1380.533927181615
 21
2605.872462286998
 31
0.0
  0
LINE
  5
234
330
1F
100
AcDbEntity
  8
Linee visibili 2D
100
AcDbLine
 10
1421.014272036578
 20
2606.862730355739
 30
0.0
 11
1420.024003967837
 21
2605.872462286997
 31
0.0
  0
ARC
  5
235
330
1F
100
AcDbEntity
  8
Linee visibili 2D
100
AcDbCircle
 10
1260.992974757693
 20
2606.811854718037
 30
0.0
 40
2.959070931195473
100
AcDbArc
 50
179.7723585961352
 51
270.2276414038604
  0
ARC
  5
236
330
1F
100
AcDbEntity
  8
Linee visibili 2D
100
AcDbCircle
 10
1260.992974757693
 20
2765.893759565884
 30
0.0
 40
2.959070931194337
100
AcDbArc
 50
89.77235859613069
 51
180.2276414038825
  0
ARC
  5
237
330
1F
100
AcDbEntity
  8
Linee visibili 2D
100
AcDbCircle
 10
1420.07487960554
 20
2765.893759565885
 30
0.0
 40
2.959070931192071
100
AcDbArc
 50
359.7723585960909
 51
90.22764140392673
  0
ARC
  5
238
330
1F
100
AcDbEntity
  8
Linee visibili 2D
100
AcDbCircle
 10
1420.074879605538
 20
2606.811854718037
 30
0.0
 40
2.959070931194792
100
AcDbArc
 50
269.7723585961263
 51
0.2276414038736826
  0
LINE
  5
239
330
1F
100
AcDbEntity
  8
Linee visibili 2D
100
AcDbLine
 10
1360.751021877477
 20
2494.0
 30
0.0
 11
1300.321240510078
 21
2497.166990644025
 31
0.0
  0
LINE
  5
23A
330
1F
100
AcDbEntity
  8
Linee visibili 2D
100
AcDbLine
 10
-376.6697606898288
 20
2065.401364379651
 30
0.0
 11
-352.0452794514958
 21
2040.850503394235
 31
0.0
  0
LINE
  5
23B
330
1F
100
AcDbEntity
  8
Linee visibili 2D
100
AcDbLine
 10
-492.4014209117132
 20
1993.233641471142
 30
0.0
 11
-503.0484788347337
 21
2004.275261978869
 31
0.0
  0
LINE
  5
23C
330
1F
100
AcDbEntity
  8
Linee visibili 2D
100
AcDbLine
 10
-368.1024081235871
 20
2028.714047138435
 30
0.0
 11
-369.6403439792465
 21
2028.118022277121
 31
0.0
  0
LINE
  5
23D
330
1F
100
AcDbEntity
  8
Linee visibili 2D
100
AcDbLine
 10
-414.4074193535932
 20
1664.54003125528
 30
0.0
 11
-330.0074465725083
 21
1660.614402711691
 31
0.0
  0
LINE
  5
23E
330
1F
100
AcDbEntity
  8
Linee visibili 2D
100
AcDbLine
 10
-367.6764627350065
 20
1629.771131733185
 30
0.0
 11
-367.6703377699498
 21
1625.43872299985
 31
0.0
  0
LINE
  5
23F
330
1F
100
AcDbEntity
  8
Linee visibili 2D
100
AcDbLine
 10
-578.6978350942456
 20
1697.505102600717
 30
0.0
 11
-578.6903135271759
 21
1697.056128373017
 31
0.0
  0
LINE
  5
240
330
1F
100
AcDbEntity
  8
Linee visibili 2D
100
AcDbLine
 10
-572.204830012935
 20
443.8978974473557
 30
0.0
 11
-251.2756603298481
 21
445.9419826515191
 31
0.0
  0
ARC
  5
241
330
1F
100
AcDbEntity
  8
Linee visibili 2D
100
AcDbCircle
 10
-371.8320070700354
 20
1628.596436494636
 30
0.0
 40
5.22404448607948
100
AcDbArc
 50
217.3675097076568
 51
322.8101883027708
  0
SPLINE
  5
242
330
1F
100
AcDbEntity
  8
Linee visibili 2D
100
AcDbSpline
210
0.0
220
0.0
230
1.0
 70
    12
 71
     2
 72
    24
 73
    21
 74
     0
 42
0.0000000001
 43
0.0000000001
 40
533.5433466169799
 40
533.5433466169799
 40
533.5433466169799
 40
558.1362770908199
 40
558.1362770908199
 40
558.9373996116664
 40
558.9373996116664
 40
567.4015012268047
 40
567.4015012268047
 40
570.5430938803945
 40
570.5430938803945
 40
577.2033479182386
 40
577.2033479182386
 40
578.3052117046949
 40
578.3052117046949
 40
583.8995683829413
 40
583.8995683829413
 40
589.4939250611878
 40
589.4939250611878
 40
595.0882817394343
 40
595.0882817394343
 40
595.4721659631188
 40
595.4721659631188
 40
595.4721659631188
 10
-378.2731417031579
 20
1627.103401625839
 30
0.0
 41
8430.747075427164
 10
-388.6489838047955
 20
1630.763439960812
 30
0.0
 41
8436.659226609174
 10
-399.0102939482416
 20
1634.418352203508
 30
0.0
 41
8442.571377791184
 10
-399.400104923473
 20
1634.540031761552
 30
0.0
 41
8202.763465795506
 10
-399.6903005350737
 20
1634.827338249929
 30
0.0
 41
8442.571377791184
 10
-401.496194407298
 20
1636.799322499581
 30
0.0
 41
8445.764933957957
 10
-403.3007230879383
 20
1638.769815999226
 30
0.0
 41
8448.958490124729
 10
-404.1530400955501
 20
1639.700521696039
 30
0.0
 41
5975.383024803107
 10
-406.0407603546089
 20
1639.274438322415
 30
0.0
 41
8449.776714199952
 10
-409.1846195959586
 20
1638.564827803947
 30
0.0
 41
8448.626155563887
 10
-412.3293352338389
 20
1637.85502398548
 30
0.0
 41
8447.47559692782
 10
-412.8837718990309
 20
1637.753936254347
 30
0.0
 41
8166.023741542291
 10
-413.3155203799915
 20
1637.391704292362
 30
0.0
 41
8447.47559692782
 10
-414.8155497362094
 20
1635.964942111927
 30
0.0
 41
7157.738821577517
 10
-418.0584997905236
 20
1636.001135994556
 30
0.0
 41
8445.22265936271
 10
-421.3014048223698
 20
1636.037329374699
 30
0.0
 41
7157.838195150052
 10
-422.6311595821441
 20
1637.495645395747
 30
0.0
 41
8447.644046012994
 10
-423.9601706986602
 20
1638.953145877788
 30
0.0
 41
7161.843337050653
 10
-421.8800423606122
 20
1640.189319279676
 30
0.0
 41
8452.011813379553
 10
-421.7148264908474
 20
1640.287222835899
 30
0.0
 41
8445.202669762377
 10
-421.542290961219
 20
1640.371560733424
 30
0.0
 41
8452.011813379553
  0
ARC
  5
243
330
1F
100
AcDbEntity
  8
Linee visibili 2D
100
AcDbCircle
 10
-360.3795011762494
 20
1864.368221826081
 30
0.0
 40
118.1189683913807
100
AcDbArc
 50
95.93183188054407
 51
107.9171622314096
  0
LINE
  5
244
330
1F
100
AcDbEntity
  8
Linee visibili 2D
100
AcDbLine
 10
-396.7178145828454
 20
1976.758691495925
 30
0.0
 11
-461.049178390689
 21
1963.173217624103
 31
0.0
  0
ARC
  5
245
330
1F
100
AcDbEntity
  8
Linee visibili 2D
100
AcDbCircle
 10
-461.9295957585928
 20
1966.536637034831
 30
0.0
 40
3.476740553186358
100
AcDbArc
 50
235.6950810802483
 51
284.6687697794687
  0
ARC
  5
246
330
1F
100
AcDbEntity
  8
Linee visibili 2D
100
AcDbCircle
 10
-378.5964928076314
 20
2062.48573112985
 30
0.0
 40
3.494740891842706
100
AcDbArc
 50
56.54215495719142
 51
104.2809510687407
  0
LINE
  5
247
330
1F
100
AcDbEntity
  8
Linee visibili 2D
100
AcDbLine
 10
-606.0000000000006
 20
1179.997562505976
 30
0.0
 11
-244.9653966682534
 21
1258.607663172999
 31
0.0
  0
LINE
  5
248
330
1F
100
AcDbEntity
  8
Linee visibili 2D
100
AcDbLine
 10
-480.5208063841403
 20
1980.489674621277
 30
0.0
 11
-480.9078923792837
 21
1980.726991698636
 31
0.0
  0
SPLINE
  5
249
330
1F
100
AcDbEntity
  8
Linee visibili 2D
100
AcDbSpline
210
0.0
220
0.0
230
1.0
 70
    12
 71
     2
 72
     8
 73
     5
 74
     0
 42
0.0000000001
 43
0.0000000001
 40
-21.99114857512855
 40
-21.99114857512855
 40
-21.99114857512855
 40
-16.49336143134641
 40
-16.49336143134641
 40
-10.99557428756428
 40
-10.99557428756428
 40
-10.99557428756428
 10
-368.105083566143
 20
2030.619699444455
 30
0.0
 41
8243.13192510557
 10
-371.4868819403092
 20
2029.912548963808
 30
0.0
 41
5827.919346710735
 10
-369.9467772958308
 20
2028.367328352315
 30
0.0
 41
8239.281231539984
 10
-368.4056848811172
 20
2026.82111668938
 30
0.0
 41
5824.183915139207
 10
-365.0221701863255
 20
2027.52917447836
 30
0.0
 41
8237.8492271158
  0
LINE
  5
24A
330
1F
100
AcDbEntity
  8
Linee visibili 2D
100
AcDbLine
 10
-421.6708988483966
 20
1664.427238622832
 30
0.0
 11
-495.5852802886541
 21
1667.865458015085
 31
0.0
  0
ARC
  5
24B
330
1F
100
AcDbEntity
  8
Linee visibili 2D
100
AcDbCircle
 10
-530.2665790366957
 20
2033.762165441306
 30
0.0
 40
0.9182827228826225
100
AcDbArc
 50
72.90478268287582
 51
206.2351211757247
  0
LINE
  5
24C
330
1F
100
AcDbEntity
  8
Linee visibili 2D
100
AcDbLine
 10
1260.053582326652
 20
2606.862730355739
 30
0.0
 11
1260.053582326652
 21
2627.65280714196
 31
0.0
  0
LINE
  5
24D
330
1F
100
AcDbEntity
  8
Linee visibili 2D
100
AcDbLine
 10
1261.043850395394
 20
2605.872462286998
 30
0.0
 11
1260.053582326652
 21
2606.862730355739
 31
0.0
  0
LINE
  5
24E
330
1F
100
AcDbEntity
  8
Linee visibili 2D
100
AcDbLine
 10
1281.833927181615
 20
2605.872462286998
 30
0.0
 11
1261.043850395394
 21
2605.872462286998
 31
0.0
  0
LINE
  5
24F
330
1F
100
AcDbEntity
  8
Linee visibili 2D
100
AcDbLine
 10
1380.533927181615
 20
2605.872462286998
 30
0.0
 11
1300.533927181615
 21
2605.872462286998
 31
0.0
  0
LINE
  5
250
330
1F
100
AcDbEntity
  8
Linee visibili 2D
100
AcDbLine
 10
1420.024003967837
 20
2605.872462286997
 30
0.0
 11
1399.233927181615
 21
2605.872462286997
 31
0.0
  0
LINE
  5
251
330
1F
100
AcDbEntity
  8
Linee visibili 2D
100
AcDbLine
 10
1497.00779730787
 20
2800.037728310272
 30
0.0
 11
1524.479993640296
 21
2746.120507178953
 31
0.0
  0
LINE
  5
252
330
1F
100
AcDbEntity
  8
Linee visibili 2D
100
AcDbLine
 10
1360.751021877477
 20
2494.0
 30
0.0
 11
1291.259672397999
 21
2589.646637052698
 31
0.0
  0
LINE
  5
253
330
1F
100
AcDbEntity
  8
Linee visibili 2D
100
AcDbLine
 10
1423.033927181615
 20
2606.823611348184
 30
0.0
 11
1423.033927181615
 21
2765.882002935736
 31
0.0
  0
LINE
  5
254
330
1F
100
AcDbEntity
  8
Linee visibili 2D
100
AcDbLine
 10
1261.00473138784
 20
2603.852807141961
 30
0.0
 11
1420.063122975391
 21
2603.85280714196
 31
0.0
  0
LINE
  5
255
330
1F
100
AcDbEntity
  8
Linee visibili 2D
100
AcDbLine
 10
1497.00779730787
 20
2800.037728310272
 30
0.0
 11
1448.921054573423
 21
2692.033135791433
 31
0.0
  0
LINE
  5
256
330
1F
100
AcDbEntity
  8
Linee visibili 2D
100
AcDbLine
 10
1163.842962359498
 20
2765.020693115608
 30
0.0
 11
1148.181120039655
 21
2706.569901837822
 31
0.0
  0
LINE
  5
257
330
1F
100
AcDbEntity
  8
Linee visibili 2D
100
AcDbLine
 10
1421.014272036578
 20
2627.65280714196
 30
0.0
 11
1421.014272036578
 21
2606.862730355739
 31
0.0
  0
LINE
  5
258
330
1F
100
AcDbEntity
  8
Linee visibili 2D
100
AcDbLine
 10
1196.800547394471
 20
2815.770923602902
 30
0.0
 11
1163.842962359498
 21
2765.020693115608
 31
0.0
  0
LINE
  5
259
330
1F
100
AcDbEntity
  8
Linee visibili 2D
100
AcDbLine
 10
1420.06312297539
 20
2768.85280714196
 30
0.0
 11
1261.00473138784
 21
2768.852807141961
 31
0.0
  0
LINE
  5
25A
330
1F
100
AcDbEntity
  8
Linee visibili 2D
100
AcDbLine
 10
1258.033927181615
 20
2765.882002935736
 30
0.0
 11
1258.033927181615
 21
2606.823611348184
 31
0.0
  0
LINE
  5
25B
330
1F
100
AcDbEntity
  8
Linee visibili 2D
100
AcDbLine
 10
-334.8268025371069
 20
2018.003429902734
 30
0.0
 11
-334.7662340362563
 21
2016.949968652301
 31
0.0
  0
SPLINE
  5
25C
330
1F
100
AcDbEntity
  8
Linee visibili 2D
100
AcDbSpline
210
0.0
220
0.0
230
1.0
 70
    15
 71
     2
 72
    12
 73
     9
 74
     0
 42
0.0000000001
 43
0.0000000001
 40
0.0
 40
0.0
 40
0.0
 40
6.283185307179586
 40
6.283185307179586
 40
12.56637061435917
 40
12.56637061435917
 40
18.84955592153876
 40
18.84955592153876
 40
25.13274122871834
 40
25.13274122871834
 40
25.13274122871834
 10
-467.2890939822958
 20
1636.221571554738
 30
0.0
 41
8428.378033455983
 10
-463.9300955005979
 20
1635.031612299742
 30
0.0
 41
5958.403351638574
 10
-466.3743524544753
 20
1633.356211666527
 30
0.0
 41
8423.748546985034
 10
-468.820180437404
 20
1631.67973418128
 30
0.0
 41
5954.576089528316
 10
-472.1802208529185
 20
1632.871223429091
 30
0.0
 41
8422.965467472899
 10
-475.5387272323938
 20
1634.062168699086
 30
0.0
 41
5957.295909972095
 10
-473.0918580699592
 20
1635.737115978297
 30
0.0
 41
8427.594953943846
 10
-470.6465598882555
 20
1637.410987879247
 30
0.0
 41
5961.123172082353
 10
-467.2890939822958
 20
1636.221571554738
 30
0.0
 41
8428.378033455983
  0
LINE
  5
25D
330
1F
100
AcDbEntity
  8
Linee visibili 2D
100
AcDbLine
 10
-367.7822921373719
 20
2057.096127378756
 30
0.0
 11
-359.5890274824163
 21
2048.928305204246
 31
0.0
  0
LINE
  5
25E
330
1F
100
AcDbEntity
  8
Linee visibili 2D
100
AcDbLine
 10
-337.5217375658204
 20
2026.929540669883
 30
0.0
 11
-324.2200376294506
 21
2013.669146397957
 31
0.0
  0
LINE
  5
25F
330
1F
100
AcDbEntity
  8
Linee visibili 2D
100
AcDbLine
 10
-378.2393211645099
 20
2066.377497973689
 30
0.0
 11
-376.8586444908516
 21
2066.144295006487
 31
0.0
  0
LINE
  5
260
330
1F
100
AcDbEntity
  8
Linee visibili 2D
100
AcDbLine
 10
-376.8586444908516
 20
2066.144295006487
 30
0.0
 11
-367.7822921373719
 21
2057.096127378756
 31
0.0
  0
LINE
  5
261
330
1F
100
AcDbEntity
  8
Linee visibili 2D
100
AcDbLine
 10
-438.4734845005792
 20
1539.879422080242
 30
0.0
 11
-498.8642655658618
 21
1434.584482936715
 31
0.0
  0
LINE
  5
262
330
1F
100
AcDbEntity
  8
Linee visibili 2D
100
AcDbLine
 10
-533.0283123276428
 20
1607.572619531332
 30
0.0
 11
-578.6903135271759
 21
1697.056128373017
 31
0.0
  0
LINE
  5
263
330
1F
100
AcDbEntity
  8
Linee visibili 2D
100
AcDbLine
 10
-438.4782701729521
 20
1540.338767440066
 30
0.0
 11
-578.6978350942456
 21
1697.505102600717
 31
0.0
  0
LINE
  5
264
330
1F
100
AcDbEntity
  8
Linee visibili 2D
100
AcDbLine
 10
-421.522745830305
 20
1636.715708951008
 30
0.0
 11
-421.9181150737751
 21
1710.668211997324
 31
0.0
  0
LINE
  5
265
330
1F
100
AcDbEntity
  8
Linee visibili 2D
100
AcDbLine
 10
-498.8642655658618
 20
1434.584482936715
 30
0.0
 11
-236.638734839685
 21
1681.222988278363
 31
0.0
  0
ARC
  5
266
330
1F
100
AcDbEntity
  8
Linee visibili 2D
100
AcDbCircle
 10
-410.74004093415
 20
1669.094215274637
 30
0.0
 40
2.254599334302551
100
AcDbArc
 50
270.4269163880696
 51
347.1669711478094
  0
LINE
  5
267
330
1F
100
AcDbEntity
  8
Linee visibili 2D
100
AcDbLine
 10
-415.7415148478616
 20
1941.511357266847
 30
0.0
 11
-414.6305027408878
 21
1710.854333233951
 31
0.0
  0
LINE
  5
268
330
1F
100
AcDbEntity
  8
Linee visibili 2D
100
AcDbLine
 10
-230.7813365269712
 20
574.6407223059791
 30
0.0
 11
-537.491972739618
 21
512.9708537558454
 31
0.0
  0
LINE
  5
269
330
1F
100
AcDbEntity
  8
Linee visibili 2D
100
AcDbLine
 10
-537.491972739618
 20
512.9708537558454
 30
0.0
 11
-228.0911241587571
 21
706.0795335759476
 31
0.0
  0
LINE
  5
26A
330
1F
100
AcDbEntity
  8
Linee visibili 2D
100
AcDbLine
 10
-313.3491022114888
 20
1963.273006756998
 30
0.0
 11
-459.358994040809
 21
1932.24125346324
 31
0.0
  0
ARC
  5
26B
330
1F
100
AcDbEntity
  8
Linee visibili 2D
100
AcDbCircle
 10
1329.573772073224
 20
-193.1731585747078
 30
0.0
 40
1.499999999999851
100
AcDbArc
 50
315.0000000000023
 51
135.0000000000038
  0
LINE
  5
26C
330
1F
100
AcDbEntity
  8
Linee visibili 2D
100
AcDbLine
 10
1325.033927181615
 20
-183.7130034663164
 30
0.0
 11
1316.033927181615
 21
-183.7130034663164
 31
0.0
  0
LINE
  5
26D
330
1F
100
AcDbEntity
  8
Linee visibili 2D
100
AcDbLine
 10
1397.949666437444
 20
-176.1783660996191
 30
0.0
 11
1382.982656992393
 21
-202.101986895811
 31
0.0
  0
ARC
  5
26E
330
1F
100
AcDbEntity
  8
Linee visibili 2D
100
AcDbCircle
 10
1340.533927181615
 20
-184.7130034663165
 30
0.0
 40
0.599999999999909
100
AcDbArc
 50
179.9999999999892
 51
0.0000000000108563
  0
ARC
  5
26F
330
1F
100
AcDbEntity
  8
Linee visibili 2D
100
AcDbCircle
 10
1340.533927181615
 20
-166.7130034663163
 30
0.0
 40
1.500000000000227
100
AcDbArc
 50
180.0000000000033
 51
359.9999999999968
  0
LINE
  5
270
330
1F
100
AcDbEntity
  8
Linee visibili 2D
100
AcDbLine
 10
1400.301627218608
 20
-366.1590699249975
 30
0.0
 11
1312.442776422843
 21
-287.0506053411304
 31
0.0
  0
LINE
  5
271
330
1F
100
AcDbEntity
  8
Linee visibili 2D
100
AcDbLine
 10
1151.34811068368
 20
-142.0003167947798
 30
0.0
 11
1173.033927181615
 21
-85.50683337705414
 31
0.0
  0
LINE
  5
272
330
1F
100
AcDbEntity
  8
Linee visibili 2D
100
AcDbLine
 10
1270.272781891246
 20
-85.50683337705414
 30
0.0
 11
1173.033927181615
 21
-85.50683337705414
 31
0.0
  0
LINE
  5
273
330
1F
100
AcDbEntity
  8
Linee visibili 2D
100
AcDbLine
 10
1291.9144998268
 20
-291.4140252313969
 30
0.0
 11
1340.533927181615
 21
-375.6253436448415
 31
0.0
  0
LINE
  5
274
330
1F
100
AcDbEntity
  8
Linee visibili 2D
100
AcDbLine
 10
1263.787476065573
 20
-105.4665523502745
 30
0.0
 11
1151.34811068368
 21
-142.0003167947798
 31
0.0
  0
LINE
  5
275
330
1F
100
AcDbEntity
  8
Linee visibili 2D
100
AcDbLine
 10
1340.533927181615
 20
-375.6253436448415
 30
0.0
 11
1400.301627218608
 21
-366.1590699249975
 31
0.0
  0
ARC
  5
276
330
1F
100
AcDbEntity
  8
Linee visibili 2D
100
AcDbCircle
 10
1340.533927181615
 20
-179.7130034663166
 30
0.0
 40
0.599999999999909
100
AcDbArc
 50
179.9999999999783
 51
0.0000000000217126
  0
ARC
  5
277
330
1F
100
AcDbEntity
  8
Linee visibili 2D
100
AcDbCircle
 10
1340.533927181615
 20
-179.7130034663165
 30
0.0
 40
1.5
100
AcDbArc
 50
0.0000000000010856
 51
179.9999999999989
  0
ARC
  5
278
330
1F
100
AcDbEntity
  8
Linee visibili 2D
100
AcDbCircle
 10
1340.533927181615
 20
-184.7130034663165
 30
0.0
 40
1.5
100
AcDbArc
 50
179.9999999999989
 51
0.0000000000010856
  0
SPLINE
  5
279
330
1F
100
AcDbEntity
  8
Linee visibili 2D
100
AcDbSpline
210
0.0
220
0.0
230
1.0
 70
    12
 71
     2
 72
    14
 73
    11
 74
     0
 42
0.0000000001
 43
0.0000000001
 40
673.9254937184973
 40
673.9254937184973
 40
673.9254937184973
 40
687.2141688530943
 40
687.2141688530943
 40
690.3557615066841
 40
690.3557615066841
 40
694.3557615066841
 40
694.3557615066841
 40
697.4973541602739
 40
697.4973541602739
 40
710.7860292948707
 40
710.7860292948707
 40
710.7860292948707
 10
1382.982656992393
 20
-202.101986895811
 30
0.0
 41
1.0
 10
1388.736822116992
 20
-205.4241556794602
 30
0.0
 41
1.0
 10
1394.490987241592
 20
-208.7463244631094
 30
0.0
 41
1.0
 10
1396.223038049161
 20
-209.7463244631096
 30
0.0
 41
0.70710678118657
 10
1395.223038049161
 20
-211.4783752706785
 30
0.0
 41
1.0
 10
1394.223038049161
 20
-213.2104260782473
 30
0.0
 41
1.0
 10
1393.223038049161
 20
-214.9424768858162
 30
0.0
 41
1.0
 10
1392.223038049161
 20
-216.6745276933849
 30
0.0
 41
0.7071067811865613
 10
1390.490987241592
 20
-215.6745276933848
 30
0.0
 41
1.0
 10
1384.736822116992
 20
-212.3523589097358
 30
0.0
 41
1.0
 10
1378.982656992393
 20
-209.0301901260866
 30
0.0
 41
1.0
  0
LINE
  5
27A
330
1F
100
AcDbEntity
  8
Linee visibili 2D
100
AcDbLine
 10
1339.033927181615
 20
-206.7130034663164
 30
0.0
 11
1339.033927181615
 21
-197.7130034663164
 31
0.0
  0
LINE
  5
27B
330
1F
100
AcDbEntity
  8
Linee visibili 2D
100
AcDbLine
 10
1344.533927181616
 20
-135.5068333770539
 30
0.0
 11
1361.328853886254
 21
-135.5068333770539
 31
0.0
  0
LINE
  5
27C
330
1F
100
AcDbEntity
  8
Linee visibili 2D
100
AcDbLine
 10
1298.085197370836
 20
-202.1019868958087
 30
0.0
 11
1308.421637331787
 21
-196.1342405018916
 31
0.0
  0
ARC
  5
27D
330
1F
100
AcDbEntity
  8
Linee visibili 2D
100
AcDbCircle
 10
1340.533927181615
 20
-157.7130034663164
 30
0.0
 40
1.499999999999773
100
AcDbArc
 50
0.0
 51
180.0
  0
LINE
  5
27E
330
1F
100
AcDbEntity
  8
Linee visibili 2D
100
AcDbLine
 10
1163.842962359498
 20
-260.8808894399642
 30
0.0
 11
1148.181120039655
 21
-202.4300981621782
 31
0.0
  0
ARC
  5
27F
330
1F
100
AcDbEntity
  8
Linee visibili 2D
100
AcDbCircle
 10
1340.533927181615
 20
-206.7130034663163
 30
0.0
 40
1.500000000000227
100
AcDbArc
 50
180.0000000000033
 51
359.9999999999968
  0
LINE
  5
280
330
1F
100
AcDbEntity
  8
Linee visibili 2D
100
AcDbLine
 10
1298.085197370836
 20
-202.1019868958087
 30
0.0
 11
1289.687734018517
 21
-187.5571537148946
 31
0.0
  0
CIRCLE
  5
281
330
1F
100
AcDbEntity
  8
Linee visibili 2D
100
AcDbCircle
 10
1340.533927181621
 20
-127.5386663181387
 30
0.0
 40
3.60054567031945
  0
SPLINE
  5
282
330
1F
100
AcDbEntity
  8
Linee visibili 2D
100
AcDbSpline
210
0.0
220
0.0
230
1.0
 70
    12
 71
     2
 72
    14
 73
    11
 74
     0
 42
0.0000000001
 43
0.0000000001
 40
673.9254937184973
 40
673.9254937184973
 40
673.9254937184973
 40
687.2141688530943
 40
687.2141688530943
 40
690.3557615066841
 40
690.3557615066841
 40
694.3557615066841
 40
694.3557615066841
 40
697.497354160274
 40
697.497354160274
 40
710.7860292948708
 40
710.7860292948708
 40
710.7860292948708
 10
1336.533927181616
 20
-135.5068333770541
 30
0.0
 41
1.0
 10
1336.533927181616
 20
-128.8624958097555
 30
0.0
 41
1.0
 10
1336.533927181616
 20
-122.2181582424569
 30
0.0
 41
1.0
 10
1336.533927181616
 20
-120.2181582424569
 30
0.0
 41
0.7071067811865727
 10
1338.533927181616
 20
-120.2181582424571
 30
0.0
 41
1.0
 10
1340.533927181616
 20
-120.2181582424571
 30
0.0
 41
1.0
 10
1342.533927181616
 20
-120.2181582424571
 30
0.0
 41
1.0
 10
1344.533927181616
 20
-120.218158242457
 30
0.0
 41
0.7071067811865325
 10
1344.533927181616
 20
-122.2181582424573
 30
0.0
 41
1.0
 10
1344.533927181616
 20
-128.8624958097557
 30
0.0
 41
1.0
 10
1344.533927181616
 20
-135.5068333770541
 30
0.0
 41
1.0
  0
LINE
  5
283
330
1F
100
AcDbEntity
  8
Linee visibili 2D
100
AcDbLine
 10
1329.664866468408
 20
-195.2033845230833
 30
0.0
 11
1324.586626128916
 21
-196.0389841754554
 31
0.0
  0
LINE
  5
284
330
1F
100
AcDbEntity
  8
Linee visibili 2D
100
AcDbLine
 10
1306.599908291514
 20
-135.5068333770539
 30
0.0
 11
1336.533927181616
 21
-135.5068333770539
 31
0.0
  0
ARC
  5
285
330
1F
100
AcDbEntity
  8
Linee visibili 2D
100
AcDbCircle
 10
1316.033927181615
 20
-182.2130034663165
 30
0.0
 40
1.499999999999972
100
AcDbArc
 50
90.0
 51
270.0
  0
LINE
  5
286
330
1F
100
AcDbEntity
  8
Linee visibili 2D
100
AcDbLine
 10
1316.033927181615
 20
-180.7130034663164
 30
0.0
 11
1325.033927181615
 21
-180.7130034663164
 31
0.0
  0
ARC
  5
287
330
1F
100
AcDbEntity
  8
Linee visibili 2D
100
AcDbCircle
 10
1340.533927181615
 20
-182.2130034663163
 30
0.0
 40
35.0
100
AcDbArc
 50
359.9999999999998
 51
180.0000000000002
  0
LINE
  5
288
330
1F
100
AcDbEntity
  8
Linee visibili 2D
100
AcDbLine
 10
1378.982656992393
 20
-209.0301901260866
 30
0.0
 11
1370.585193640074
 21
-223.5750233070007
 31
0.0
  0
LINE
  5
289
330
1F
100
AcDbEntity
  8
Linee visibili 2D
100
AcDbLine
 10
1324.66790177783
 20
-183.7130034663164
 30
0.0
 11
1326.126997512432
 21
-181.1857755208789
 31
0.0
  0
LINE
  5
28A
330
1F
100
AcDbEntity
  8
Linee visibili 2D
100
AcDbLine
 10
1336.533927181616
 20
-147.442326164889
 30
0.0
 11
1336.533927181616
 21
-135.5068333770541
 31
0.0
  0
LINE
  5
28B
330
1F
100
AcDbEntity
  8
Linee visibili 2D
100
AcDbLine
 10
1253.294030812197
 20
-137.7620560548403
 30
0.0
 11
1163.842962359498
 21
-260.8808894399642
 31
0.0
  0
LINE
  5
28C
330
1F
100
AcDbEntity
  8
Linee visibili 2D
100
AcDbLine
 10
1345.6582256857
 20
-279.9904436514926
 30
0.0
 11
1497.00779730787
 21
-295.8979246346285
 31
0.0
  0
LINE
  5
28D
330
1F
100
AcDbEntity
  8
Linee visibili 2D
100
AcDbLine
 10
1497.00779730787
 20
-295.8979246346285
 30
0.0
 11
1524.479993640296
 21
-241.9807035033093
 31
0.0
  0
LINE
  5
28E
330
1F
100
AcDbEntity
  8
Linee visibili 2D
100
AcDbLine
 10
1360.751021877477
 20
10.13980367564363
 30
0.0
 11
1300.321240510078
 21
6.972813031618443
 31
0.0
  0
LINE
  5
28F
330
1F
100
AcDbEntity
  8
Linee visibili 2D
100
AcDbLine
 10
1360.751021877477
 20
10.13980367564363
 30
0.0
 11
1422.649525046948
 21
-128.886510692616
 31
0.0
  0
LINE
  5
290
330
1F
100
AcDbEntity
  8
Linee visibili 2D
100
AcDbLine
 10
1335.986038177267
 20
-107.3607850897488
 30
0.0
 11
1311.728790492934
 21
-119.7217570614616
 31
0.0
  0
LINE
  5
291
330
1F
100
AcDbEntity
  8
Linee visibili 2D
100
AcDbLine
 10
1277.983949039939
 20
-223.5777000659973
 30
0.0
 11
1300.817488625143
 21
-238.404606800658
 31
0.0
  0
LINE
  5
292
330
1F
100
AcDbEntity
  8
Linee visibili 2D
100
AcDbLine
 10
1407.631794327397
 20
-215.7005252433109
 30
0.0
 11
1409.055502426676
 21
-188.5126465369042
 31
0.0
  0
LINE
  5
293
330
1F
100
AcDbEntity
  8
Linee visibili 2D
100
AcDbLine
 10
1454.218848349927
 20
-338.6868735925714
 30
0.0
 11
1329.905171503342
 21
-283.3388586842962
 31
0.0
  0
LINE
  5
294
330
1F
100
AcDbEntity
  8
Linee visibili 2D
100
AcDbLine
 10
1400.301627218608
 20
-366.1590699249975
 30
0.0
 11
1454.218848349927
 21
-338.6868735925714
 31
0.0
  0
LINE
  5
295
330
1F
100
AcDbEntity
  8
Linee visibili 2D
100
AcDbLine
 10
1400.768719663138
 20
-217.1593167964265
 30
0.0
 11
1408.627520621028
 21
-196.6845566468849
 31
0.0
  0
LINE
  5
296
330
1F
100
AcDbEntity
  8
Linee visibili 2D
100
AcDbLine
 10
1280.152135828503
 20
-216.904707281933
 30
0.0
 11
1293.954397775551
 21
-233.9480086294511
 31
0.0
  0
LINE
  5
297
330
1F
100
AcDbEntity
  8
Linee visibili 2D
100
AcDbLine
 10
1324.270471214325
 20
-163.8282271554663
 30
0.0
 11
1330.634432245004
 21
-170.1921881861451
 31
0.0
  0
LINE
  5
298
330
1F
100
AcDbEntity
  8
Linee visibili 2D
100
AcDbLine
 10
1322.149150870765
 20
-198.476459433607
 30
0.0
 11
1328.513111901444
 21
-192.1124984029282
 31
0.0
  0
ARC
  5
299
330
1F
100
AcDbEntity
  8
Linee visibili 2D
100
AcDbCircle
 10
1357.858043320686
 20
-164.8888873272459
 30
0.0
 40
1.499999999999992
100
AcDbArc
 50
314.9999999999861
 51
135.0000000000092
  0
LINE
  5
29A
330
1F
100
AcDbEntity
  8
Linee visibili 2D
100
AcDbLine
 10
1342.033927181615
 20
-157.7130034663164
 30
0.0
 11
1342.033927181615
 21
-166.7130034663164
 31
0.0
  0
LINE
  5
29B
330
1F
100
AcDbEntity
  8
Linee visibili 2D
100
AcDbLine
 10
1419.988055066198
 20
-213.0741209456128
 30
0.0
 11
1415.249249435903
 21
-195.3914994792863
 31
0.0
  0
LINE
  5
29C
330
1F
100
AcDbEntity
  8
Linee visibili 2D
100
AcDbLine
 10
1508.033927181615
 20
-85.50683337705391
 30
0.0
 11
1469.952043642557
 21
-38.47962367917239
 31
0.0
  0
LINE
  5
29D
330
1F
100
AcDbEntity
  8
Linee visibili 2D
100
AcDbLine
 10
1445.371529056429
 20
-154.1218527075443
 30
0.0
 11
1469.952043642557
 21
-38.47962367917239
 31
0.0
  0
LINE
  5
29E
330
1F
100
AcDbEntity
  8
Linee visibili 2D
100
AcDbLine
 10
1508.033927181615
 20
-85.50683337705391
 30
0.0
 11
1459.4144998268
 21
-169.7181517904985
 31
0.0
  0
LINE
  5
29F
330
1F
100
AcDbEntity
  8
Linee visibili 2D
100
AcDbLine
 10
1196.800547394471
 20
-311.6311199272584
 30
0.0
 11
1300.321240510078
 21
6.972813031618443
 31
0.0
  0
LINE
  5
2A0
330
1F
100
AcDbEntity
  8
Linee visibili 2D
100
AcDbLine
 10
1300.321240510078
 20
6.972813031618443
 30
0.0
 11
1524.479993640296
 21
-241.9807035033093
 31
0.0
  0
LINE
  5
2A1
330
1F
100
AcDbEntity
  8
Linee visibili 2D
100
AcDbLine
 10
1524.479993640296
 20
-241.9807035033093
 30
0.0
 11
1196.800547394471
 21
-311.6311199272584
 31
0.0
  0
LINE
  5
2A2
330
1F
100
AcDbEntity
  8
Linee visibili 2D
100
AcDbLine
 10
1271.11502994221
 20
-244.7180592913728
 30
0.0
 11
1429.374342010781
 21
-211.0790040658144
 31
0.0
  0
LINE
  5
2A3
330
1F
100
AcDbEntity
  8
Linee visibili 2D
100
AcDbLine
 10
1365.033927181615
 20
-183.7130034663164
 30
0.0
 11
1356.033927181615
 21
-183.7130034663164
 31
0.0
  0
ARC
  5
2A4
330
1F
100
AcDbEntity
  8
Linee visibili 2D
100
AcDbCircle
 10
1357.858043320686
 20
-199.5371196053869
 30
0.0
 40
1.500000000000012
100
AcDbArc
 50
225.0000000000031
 51
45.00000000000307
  0
LINE
  5
2A5
330
1F
100
AcDbEntity
  8
Linee visibili 2D
100
AcDbLine
 10
1356.797383148906
 20
-200.5977797771668
 30
0.0
 11
1350.433422118227
 21
-194.2338187464877
 31
0.0
  0
ARC
  5
2A6
330
1F
100
AcDbEntity
  8
Linee visibili 2D
100
AcDbCircle
 10
1351.494082290007
 20
-193.1731585747079
 30
0.0
 40
1.500000000000093
100
AcDbArc
 50
44.99999999999463
 51
224.9999999999931
  0
LINE
  5
2A7
330
1F
100
AcDbEntity
  8
Linee visibili 2D
100
AcDbLine
 10
1342.033927181615
 20
-197.7130034663164
 30
0.0
 11
1342.033927181615
 21
-206.7130034663164
 31
0.0
  0
ARC
  5
2A8
330
1F
100
AcDbEntity
  8
Linee visibili 2D
100
AcDbCircle
 10
1325.033927181615
 20
-182.2130034663163
 30
0.0
 40
1.499999999999886
100
AcDbArc
 50
270.0
 51
90.0
  0
LINE
  5
2A9
330
1F
100
AcDbEntity
  8
Linee visibili 2D
100
AcDbLine
 10
1328.513111901444
 20
-172.3135085297047
 30
0.0
 11
1322.149150870765
 21
-165.9495474990258
 31
0.0
  0
LINE
  5
2AA
330
1F
100
AcDbEntity
  8
Linee visibili 2D
100
AcDbLine
 10
1339.933927181615
 20
-184.7130034663164
 30
0.0
 11
1341.133927181615
 21
-184.7130034663164
 31
0.0
  0
CIRCLE
  5
2AB
330
1F
100
AcDbEntity
  8
Linee visibili 2D
100
AcDbCircle
 10
1387.88329208701
 20
-209.5501720404104
 30
0.0
 40
3.600545670319718
  0
LINE
  5
2AC
330
1F
100
AcDbEntity
  8
Linee visibili 2D
100
AcDbLine
 10
1356.481228234321
 20
-196.0389841754627
 30
0.0
 11
1351.402987894822
 21
-195.2033845230831
 31
0.0
  0
LINE
  5
2AD
330
1F
100
AcDbEntity
  8
Linee visibili 2D
100
AcDbLine
 10
1148.181120039655
 20
-202.4300981621782
 30
0.0
 11
1151.34811068368
 21
-142.0003167947798
 31
0.0
  0
LINE
  5
2AE
330
1F
100
AcDbEntity
  8
Linee visibili 2D
100
AcDbLine
 10
1429.374342010781
 20
-211.0790040658144
 30
0.0
 11
1321.112409591854
 21
-90.84194704176207
 31
0.0
  0
LINE
  5
2AF
330
1F
100
AcDbEntity
  8
Linee visibili 2D
100
AcDbLine
 10
1321.112409591854
 20
-90.84194704176207
 30
0.0
 11
1271.11502994221
 21
-244.7180592913728
 31
0.0
  0
LINE
  5
2B0
330
1F
100
AcDbEntity
  8
Linee visibili 2D
100
AcDbLine
 10
1196.800547394471
 20
-311.6311199272584
 30
0.0
 11
1163.842962359498
 21
-260.8808894399642
 31
0.0
  0
ARC
  5
2B1
330
1F
100
AcDbEntity
  8
Linee visibili 2D
100
AcDbCircle
 10
1340.533927181615
 20
-182.2130034663163
 30
0.0
 40
35.0
100
AcDbArc
 50
180.0000000000001
 51
359.9999999999998
  0
ARC
  5
2B2
330
1F
100
AcDbEntity
  8
Linee visibili 2D
100
AcDbCircle
 10
1323.209811042545
 20
-164.888887327246
 30
0.0
 40
1.499999999999932
100
AcDbArc
 50
45.0
 51
225.0
  0
LINE
  5
2B3
330
1F
100
AcDbEntity
  8
Linee visibili 2D
100
AcDbLine
 10
1339.933927181615
 20
-179.7130034663164
 30
0.0
 11
1341.133927181615
 21
-179.7130034663164
 31
0.0
  0
LINE
  5
2B4
330
1F
100
AcDbEntity
  8
Linee visibili 2D
100
AcDbLine
 10
1258.270745422554
 20
-122.4453034293235
 30
0.0
 11
1148.181120039655
 21
-202.4300981621782
 31
0.0
  0
LINE
  5
2B5
330
1F
100
AcDbEntity
  8
Linee visibili 2D
100
AcDbLine
 10
1469.952043642557
 20
-38.47962367917239
 30
0.0
 11
1419.201813155263
 21
-5.522038644199483
 31
0.0
  0
LINE
  5
2B6
330
1F
100
AcDbEntity
  8
Linee visibili 2D
100
AcDbLine
 10
1327.533374965533
 20
-97.97315154314401
 30
0.0
 11
1314.589178385205
 21
-110.9183883355472
 31
0.0
  0
LINE
  5
2B7
330
1F
100
AcDbEntity
  8
Linee visibili 2D
100
AcDbLine
 10
1433.425864618949
 20
-140.8548482853294
 30
0.0
 11
1419.201813155263
 21
-5.522038644199483
 31
0.0
  0
LINE
  5
2B8
330
1F
100
AcDbEntity
  8
Linee visibili 2D
100
AcDbLine
 10
1274.080351513163
 20
-235.5917379104894
 30
0.0
 11
1291.763353723558
 21
-240.3291225842202
 31
0.0
  0
LINE
  5
2B9
330
1F
100
AcDbEntity
  8
Linee visibili 2D
100
AcDbLine
 10
1356.033927181615
 20
-180.7130034663164
 30
0.0
 11
1365.033927181615
 21
-180.7130034663164
 31
0.0
  0
CIRCLE
  5
2BA
330
1F
100
AcDbEntity
  8
Linee visibili 2D
100
AcDbCircle
 10
1293.184562276215
 20
-209.5501720404005
 30
0.0
 40
3.600545670319661
  0
ARC
  5
2BB
330
1F
100
AcDbEntity
  8
Linee visibili 2D
100
AcDbCircle
 10
1323.209811042545
 20
-199.5371196053867
 30
0.0
 40
1.499999999999851
100
AcDbArc
 50
135.0000000000146
 51
314.9999999999915
  0
LINE
  5
2BC
330
1F
100
AcDbEntity
  8
Linee visibili 2D
100
AcDbLine
 10
1330.634432245003
 20
-194.2338187464877
 30
0.0
 11
1324.270471214325
 21
-200.5977797771666
 31
0.0
  0
ARC
  5
2BD
330
1F
100
AcDbEntity
  8
Linee visibili 2D
100
AcDbCircle
 10
1340.533927181615
 20
-197.7130034663165
 30
0.0
 40
1.5
100
AcDbArc
 50
0.0000000000032569
 51
179.9999999999967
  0
ARC
  5
2BE
330
1F
100
AcDbEntity
  8
Linee visibili 2D
100
AcDbCircle
 10
1351.494082290007
 20
-171.2528483579251
 30
0.0
 40
1.499999999999932
100
AcDbArc
 50
134.9999999999992
 51
315.0000000000007
  0
ARC
  5
2BF
330
1F
100
AcDbEntity
  8
Linee visibili 2D
100
AcDbCircle
 10
1365.033927181615
 20
-182.2130034663164
 30
0.0
 40
1.499999999999943
100
AcDbArc
 50
269.9999999999913
 51
90.00000000000868
  0
LINE
  5
2C0
330
1F
100
AcDbEntity
  8
Linee visibili 2D
100
AcDbLine
 10
1350.433422118227
 20
-170.1921881861451
 30
0.0
 11
1356.797383148906
 21
-163.8282271554663
 31
0.0
  0
LINE
  5
2C1
330
1F
100
AcDbEntity
  8
Linee visibili 2D
100
AcDbLine
 10
1317.052206815888
 20
-234.9538109222763
 30
0.0
 11
1302.085197370836
 21
-209.0301901260846
 31
0.0
  0
LINE
  5
2C2
330
1F
100
AcDbEntity
  8
Linee visibili 2D
100
AcDbLine
 10
1339.033927181615
 20
-184.7130034663164
 30
0.0
 11
1339.033927181615
 21
-179.7130034663164
 31
0.0
  0
LINE
  5
2C3
330
1F
100
AcDbEntity
  8
Linee visibili 2D
100
AcDbLine
 10
1339.033927181615
 20
-166.7130034663164
 30
0.0
 11
1339.033927181615
 21
-157.7130034663164
 31
0.0
  0
LINE
  5
2C4
330
1F
100
AcDbEntity
  8
Linee visibili 2D
100
AcDbLine
 10
1340.68092605337
 20
-112.5749863205374
 30
0.0
 11
1319.019863148541
 21
-116.006445122619
 31
0.0
  0
LINE
  5
2C5
330
1F
100
AcDbEntity
  8
Linee visibili 2D
100
AcDbLine
 10
1372.646217031442
 20
-196.1342405018934
 30
0.0
 11
1382.982656992393
 21
-202.101986895811
 31
0.0
  0
LINE
  5
2C6
330
1F
100
AcDbEntity
  8
Linee visibili 2D
100
AcDbLine
 10
1344.533927181616
 20
-135.5068333770541
 30
0.0
 11
1344.533927181616
 21
-147.442326164889
 31
0.0
  0
LINE
  5
2C7
330
1F
100
AcDbEntity
  8
Linee visibili 2D
100
AcDbLine
 10
1352.554742461786
 20
-192.1124984029282
 30
0.0
 11
1358.918703492465
 21
-198.476459433607
 31
0.0
  0
SPLINE
  5
2C8
330
1F
100
AcDbEntity
  8
Linee visibili 2D
100
AcDbSpline
210
0.0
220
0.0
230
1.0
 70
    12
 71
     2
 72
    14
 73
    11
 74
     0
 42
0.0000000001
 43
0.0000000001
 40
673.9254937184973
 40
673.9254937184973
 40
673.9254937184973
 40
687.2141688530943
 40
687.2141688530943
 40
690.3557615066841
 40
690.3557615066841
 40
694.3557615066841
 40
694.3557615066841
 40
697.4973541602739
 40
697.4973541602739
 40
710.7860292948707
 40
710.7860292948707
 40
710.7860292948707
 10
1302.085197370836
 20
-209.0301901260846
 30
0.0
 41
1.0
 10
1296.331032246236
 20
-212.3523589097338
 30
0.0
 41
1.0
 10
1290.576867121637
 20
-215.674527693383
 30
0.0
 41
1.0
 10
1288.844816314068
 20
-216.6745276933828
 30
0.0
 41
0.7071067811865164
 10
1287.844816314068
 20
-214.9424768858139
 30
0.0
 41
1.0
 10
1286.844816314068
 20
-213.2104260782451
 30
0.0
 41
1.0
 10
1285.844816314068
 20
-211.4783752706762
 30
0.0
 41
1.0
 10
1284.844816314068
 20
-209.7463244631072
 30
0.0
 41
0.7071067811865407
 10
1286.576867121637
 20
-208.7463244631072
 30
0.0
 41
1.0
 10
1292.331032246237
 20
-205.4241556794582
 30
0.0
 41
1.0
 10
1298.085197370836
 20
-202.1019868958087
 30
0.0
 41
1.0
  0
LINE
  5
2C9
330
1F
100
AcDbEntity
  8
Linee visibili 2D
100
AcDbLine
 10
1419.201813155263
 20
-5.522038644199483
 30
0.0
 11
1360.751021877477
 21
10.13980367564363
 31
0.0
  0
LINE
  5
2CA
330
1F
100
AcDbEntity
  8
Linee visibili 2D
100
AcDbLine
 10
1354.940856850797
 20
-181.1857755208798
 30
0.0
 11
1356.399952585399
 21
-183.7130034663164
 31
0.0
  0
LINE
  5
2CB
330
1F
100
AcDbEntity
  8
Linee visibili 2D
100
AcDbLine
 10
1312.421637331787
 20
-203.0624437321669
 30
0.0
 11
1302.085197370836
 21
-209.0301901260846
 31
0.0
  0
LINE
  5
2CC
330
1F
100
AcDbEntity
  8
Linee visibili 2D
100
AcDbLine
 10
1454.218848349927
 20
-338.6868735925714
 30
0.0
 11
1497.00779730787
 21
-295.8979246346285
 31
0.0
  0
ARC
  5
2CD
330
1F
100
AcDbEntity
  8
Linee visibili 2D
100
AcDbCircle
 10
1329.573772073224
 20
-171.252848357925
 30
0.0
 40
1.500000000000173
100
AcDbArc
 50
224.9999999999969
 51
44.99999999999693
  0
LINE
  5
2CE
330
1F
100
AcDbEntity
  8
Linee visibili 2D
100
AcDbLine
 10
1342.033927181615
 20
-179.7130034663164
 30
0.0
 11
1342.033927181615
 21
-184.7130034663164
 31
0.0
  0
LINE
  5
2CF
330
1F
100
AcDbEntity
  8
Linee visibili 2D
100
AcDbLine
 10
1358.918703492465
 20
-165.949547499026
 30
0.0
 11
1352.554742461786
 21
-172.3135085297049
 31
0.0
  0
LINE
  5
2D0
330
1F
100
AcDbEntity
  8
Linee visibili 2D
100
AcDbLine
 10
1378.982656992393
 20
-209.0301901260866
 30
0.0
 11
1368.646217031441
 21
-203.062443732169
 31
0.0
  0
ARC
  5
2D1
330
1F
100
AcDbEntity
  8
Linee visibili 2D
100
AcDbCircle
 10
1356.033927181615
 20
-182.2130034663165
 30
0.0
 40
1.499999999999943
100
AcDbArc
 50
90.0
 51
270.0
  0
LINE
  5
2D2
330
1F
100
AcDbEntity
  8
Linee visibili 2D
100
AcDbLine
 10
1886.047161247622
 20
402.8756738622151
 30
0.0
 11
2141.406012043387
 21
527.8756738622151
 31
0.0
  0
LINE
  5
2D3
330
1F
100
AcDbEntity
  8
Linee visibili 2D
100
AcDbLine
 10
2141.406012043387
 20
1027.875673862215
 30
0.0
 11
1944.497952525408
 21
1027.875673862215
 31
0.0
  0
LINE
  5
2D4
330
1F
100
AcDbEntity
  8
Linee visibili 2D
100
AcDbLine
 10
1851.675153585274
 20
402.8756738622151
 30
0.0
 11
1851.030126052958
 21
402.8756738622151
 31
0.0
  0
LINE
  5
2D5
330
1F
100
AcDbEntity
  8
Linee visibili 2D
100
AcDbLine
 10
1851.030126052958
 20
1152.875673862215
 30
0.0
 11
1886.047161247622
 21
1152.875673862215
 31
0.0
  0
LINE
  5
2D6
330
1F
100
AcDbEntity
  8
Linee visibili 2D
100
AcDbLine
 10
1944.497952525408
 20
1527.875673862215
 30
0.0
 11
2108.448427008414
 21
1652.875673862215
 31
0.0
  0
LINE
  5
2D7
330
1F
100
AcDbEntity
  8
Linee visibili 2D
100
AcDbLine
 10
1944.497952525408
 20
1027.875673862215
 30
0.0
 11
1851.030126052958
 21
1152.875673862215
 31
0.0
  0
LINE
  5
2D8
330
1F
100
AcDbEntity
  8
Linee visibili 2D
100
AcDbLine
 10
1808.241177095015
 20
1527.875673862215
 30
0.0
 11
1809.1289813287
 21
1527.875673862215
 31
0.0
  0
LINE
  5
2D9
330
1F
100
AcDbEntity
  8
Linee visibili 2D
100
AcDbLine
 10
2157.06785436323
 20
1152.875673862215
 30
0.0
 11
2153.900863719206
 21
1277.875673862215
 31
0.0
  0
LINE
  5
2DA
330
1F
100
AcDbEntity
  8
Linee visibili 2D
100
AcDbLine
 10
2157.06785436323
 20
402.8756738622151
 30
0.0
 11
2153.900863719206
 21
277.8756738622151
 31
0.0
  0
LINE
  5
2DB
330
1F
100
AcDbEntity
  8
Linee visibili 2D
100
AcDbLine
 10
2108.448427008414
 20
652.8756738622151
 30
0.0
 11
2107.632909995939
 21
652.8756738622151
 31
0.0
  0
LINE
  5
2DC
330
1F
100
AcDbEntity
  8
Linee visibili 2D
100
AcDbLine
 10
2157.06785436323
 20
1402.875673862215
 30
0.0
 11
2153.900863719206
 21
1277.875673862215
 31
0.0
  0
LINE
  5
2DD
330
1F
100
AcDbEntity
  8
Linee visibili 2D
100
AcDbLine
 10
1835.296930760328
 20
1277.875673862215
 30
0.0
 11
1886.047161247622
 21
1402.875673862215
 31
0.0
  0
LINE
  5
2DE
330
1F
100
AcDbEntity
  8
Linee visibili 2D
100
AcDbLine
 10
1961.21504722127
 20
1855.376603030003
 30
0.0
 11
1961.21504722127
 21
2146.33537500526
 31
0.0
  0
LINE
  5
2DF
330
1F
100
AcDbEntity
  8
Linee visibili 2D
100
AcDbLine
 10
2004.927733892807
 20
652.8756738622151
 30
0.0
 11
2061.421217310532
 21
777.8756738622151
 31
0.0
  0
LINE
  5
2E0
330
1F
100
AcDbEntity
  8
Linee visibili 2D
100
AcDbLine
 10
1944.497952525408
 20
527.8756738622151
 30
0.0
 11
2004.927733892807
 21
652.8756738622151
 31
0.0
  0
LINE
  5
2E1
330
1F
100
AcDbEntity
  8
Linee visibili 2D
100
AcDbLine
 10
1886.771032443078
 20
2148.91785570238
 30
0.0
 11
1882.21504722127
 21
2181.33537500526
 31
0.0
  0
LINE
  5
2E2
330
1F
100
AcDbEntity
  8
Linee visibili 2D
100
AcDbLine
 10
2015.788838699129
 20
1778.375673862215
 30
0.0
 11
2015.788838699129
 21
1779.375673862215
 31
0.0
  0
ARC
  5
2E3
330
1F
100
AcDbEntity
  8
Linee visibili 2D
100
AcDbCircle
 10
2043.607892961127
 20
2183.334356680823
 30
0.0
 40
1.001018792649871
100
AcDbArc
 50
3.055311646928276
 51
89.94458351473085
  0
SPLINE
  5
2E4
330
1F
100
AcDbEntity
  8
Linee visibili 2D
100
AcDbSpline
210
0.0
220
0.0
230
1.0
 70
    24
 71
     3
 72
    12
 73
     8
 74
     0
 42
0.0000000001
 43
0.0000000001
 40
0.4375
 40
0.4375
 40
0.4375
 40
0.4375
 40
0.5
 40
0.5
 40
0.75
 40
0.75
 40
0.9999998143591626
 40
0.9999998143591626
 40
0.9999998143591626
 40
0.9999998143591626
 10
2044.71504722127
 20
2181.981089977477
 30
0.0
 10
2044.71504722127
 20
2182.005124568085
 30
0.0
 10
2044.71504722127
 20
2182.019620643103
 30
0.0
 10
2044.71504722127
 20
2182.021445674928
 30
0.0
 10
2044.71504722127
 20
2181.793194612433
 30
0.0
 10
2044.71504722127
 20
2181.47238277684
 30
0.0
 10
2044.71504722127
 20
2181.335375208734
 30
0.0
 10
2044.71504722127
 20
2181.33537500526
 30
0.0
  0
LINE
  5
2E5
330
1F
100
AcDbEntity
  8
Linee visibili 2D
100
AcDbLine
 10
2004.927733892807
 20
902.8756738622151
 30
0.0
 11
1808.241177095015
 21
1027.875673862215
 31
0.0
  0
LINE
  5
2E6
330
1F
100
AcDbEntity
  8
Linee visibili 2D
100
AcDbLine
 10
2004.927733892807
 20
902.8756738622151
 30
0.0
 11
2061.421217310532
 21
777.8756738622151
 31
0.0
  0
LINE
  5
2E7
330
1F
100
AcDbEntity
  8
Linee visibili 2D
100
AcDbLine
 10
2141.406012043387
 20
527.8756738622151
 30
0.0
 11
1944.497952525408
 21
527.8756738622151
 31
0.0
  0
LINE
  5
2E8
330
1F
100
AcDbEntity
  8
Linee visibili 2D
100
AcDbLine
 10
1867.099178337637
 20
1277.875673862215
 30
0.0
 11
1835.296930760328
 21
1277.875673862215
 31
0.0
  0
LINE
  5
2E9
330
1F
100
AcDbEntity
  8
Linee visibili 2D
100
AcDbLine
 10
1771.302707042745
 20
777.8756738622151
 30
0.0
 11
1780.768980762589
 21
652.8756738622151
 31
0.0
  0
LINE
  5
2EA
330
1F
100
AcDbEntity
  8
Linee visibili 2D
100
AcDbLine
 10
2141.406012043387
 20
1527.875673862215
 30
0.0
 11
1944.497952525408
 21
1527.875673862215
 31
0.0
  0
LINE
  5
2EB
330
1F
100
AcDbEntity
  8
Linee visibili 2D
100
AcDbLine
 10
2015.389384369441
 20
1779.375673862215
 30
0.0
 11
2015.389384369441
 21
1784.375673862215
 31
0.0
  0
LINE
  5
2EC
330
1F
100
AcDbEntity
  8
Linee visibili 2D
100
AcDbLine
 10
2023.389384369441
 20
1784.375673862215
 30
0.0
 11
2023.389384369441
 21
1779.375673862215
 31
0.0
  0
LINE
  5
2ED
330
1F
100
AcDbEntity
  8
Linee visibili 2D
100
AcDbLine
 10
2108.448427008414
 20
1652.875673862215
 30
0.0
 11
2141.406012043387
 21
1527.875673862215
 31
0.0
  0
LINE
  5
2EE
330
1F
100
AcDbEntity
  8
Linee visibili 2D
100
AcDbLine
 10
1808.241177095015
 20
527.8756738622151
 30
0.0
 11
1809.1289813287
 21
527.8756738622151
 31
0.0
  0
LINE
  5
2EF
330
1F
100
AcDbEntity
  8
Linee visibili 2D
100
AcDbLine
 10
1944.497952525408
 20
1027.875673862215
 30
0.0
 11
2004.927733892807
 21
902.8756738622151
 31
0.0
  0
LINE
  5
2F0
330
1F
100
AcDbEntity
  8
Linee visibili 2D
100
AcDbLine
 10
1835.296930760328
 20
277.8756738622151
 30
0.0
 11
1835.296930760328
 21
277.3756738622151
 31
0.0
  0
LINE
  5
2F1
330
1F
100
AcDbEntity
  8
Linee visibili 2D
100
AcDbLine
 10
2108.448427008414
 20
1652.875673862215
 30
0.0
 11
2107.632909995939
 21
1652.875673862215
 31
0.0
  0
LINE
  5
2F2
330
1F
100
AcDbEntity
  8
Linee visibili 2D
100
AcDbLine
 10
1964.71504722127
 20
2184.33537500526
 30
0.0
 11
1885.821235125834
 21
2184.33537500526
 31
0.0
  0
LINE
  5
2F3
330
1F
100
AcDbEntity
  8
Linee visibili 2D
100
AcDbLine
 10
2043.608859316706
 20
2184.33537500526
 30
0.0
 11
1964.71504722127
 21
2184.33537500526
 31
0.0
  0
LINE
  5
2F4
330
1F
100
AcDbEntity
  8
Linee visibili 2D
100
AcDbLine
 10
1944.497952525408
 20
1027.875673862215
 30
0.0
 11
2108.448427008414
 21
902.8756738622151
 31
0.0
  0
LINE
  5
2F5
330
1F
100
AcDbEntity
  8
Linee visibili 2D
100
AcDbLine
 10
1780.768980762589
 20
1652.875673862215
 30
0.0
 11
2004.927733892807
 21
1652.875673862215
 31
0.0
  0
LINE
  5
2F6
330
1F
100
AcDbEntity
  8
Linee visibili 2D
100
AcDbLine
 10
2061.421217310532
 20
777.8756738622151
 30
0.0
 11
2108.448427008414
 21
902.8756738622151
 31
0.0
  0
LINE
  5
2F7
330
1F
100
AcDbEntity
  8
Linee visibili 2D
100
AcDbLine
 10
2047.21504722127
 20
2181.33537500526
 30
0.0
 11
2042.659061999462
 21
2148.91785570238
 31
0.0
  0
LINE
  5
2F8
330
1F
100
AcDbEntity
  8
Linee visibili 2D
100
AcDbLine
 10
2004.927733892807
 20
1652.875673862215
 30
0.0
 11
2061.421217310532
 21
1777.875673862215
 31
0.0
  0
LINE
  5
2F9
330
1F
100
AcDbEntity
  8
Linee visibili 2D
100
AcDbLine
 10
1808.241177095015
 20
1527.875673862215
 30
0.0
 11
1851.030126052958
 21
1402.875673862215
 31
0.0
  0
LINE
  5
2FA
330
1F
100
AcDbEntity
  8
Linee visibili 2D
100
AcDbLine
 10
2061.421217310532
 20
1777.875673862215
 30
0.0
 11
1780.768980762589
 21
1652.875673862215
 31
0.0
  0
SPLINE
  5
2FB
330
1F
100
AcDbEntity
  8
Linee visibili 2D
100
AcDbSpline
210
0.0
220
0.0
230
1.0
 70
    28
 71
     2
 72
     8
 73
     5
 74
     0
 42
0.0000000001
 43
0.0000000001
 40
14.13716694115407
 40
14.13716694115407
 40
14.13716694115407
 40
18.84955592153876
 40
18.84955592153876
 40
25.13274122871834
 40
25.13274122871834
 40
25.13274122871834
 10
2023.346454944012
 20
1784.375673862215
 30
0.0
 41
0.8901650429449554
 10
2023.743666666518
 20
1784.375673862215
 30
0.0
 41
0.7803300858899107
 10
2021.389384369441
 20
1784.375673862215
 30
0.0
 41
1.0
 10
2017.925282754303
 20
1784.375673862215
 30
0.0
 41
0.7071067811865476
 10
2015.925282754303
 20
1784.375673862215
 30
0.0
 41
1.0
  0
LINE
  5
2FC
330
1F
100
AcDbEntity
  8
Linee visibili 2D
100
AcDbLine
 10
2044.244243015045
 20
2181.33537500526
 30
0.0
 11
2047.21504722127
 21
2181.33537500526
 31
0.0
  0
LINE
  5
2FD
330
1F
100
AcDbEntity
  8
Linee visibili 2D
100
AcDbLine
 10
2015.911524317756
 20
1779.375673862215
 30
0.0
 11
2015.43231379487
 21
1779.375673862215
 31
0.0
  0
LINE
  5
2FE
330
1F
100
AcDbEntity
  8
Linee visibili 2D
100
AcDbLine
 10
1941.377878647186
 20
1779.375673862215
 30
0.0
 11
1933.377878647186
 21
1779.375673862215
 31
0.0
  0
LINE
  5
2FF
330
1F
100
AcDbEntity
  8
Linee visibili 2D
100
AcDbLine
 10
1835.296930760328
 20
277.8756738622151
 30
0.0
 11
2157.06785436323
 21
402.8756738622151
 31
0.0
  0
LINE
  5
300
330
1F
100
AcDbEntity
  8
Linee visibili 2D
100
AcDbLine
 10
2015.925282754303
 20
1784.375673862215
 30
0.0
 11
2015.43231379487
 21
1784.375673862215
 31
0.0
  0
LINE
  5
301
330
1F
100
AcDbEntity
  8
Linee visibili 2D
100
AcDbLine
 10
1968.21504722127
 20
2146.33537500526
 30
0.0
 11
1968.21504722127
 21
1855.376603030003
 31
0.0
  0
LINE
  5
302
330
1F
100
AcDbEntity
  8
Linee visibili 2D
100
AcDbLine
 10
1851.030126052958
 20
1152.875673862215
 30
0.0
 11
1869.068410168573
 21
1194.695067872899
 31
0.0
  0
LINE
  5
303
330
1F
100
AcDbEntity
  8
Linee visibili 2D
100
AcDbLine
 10
2141.406012043387
 20
1027.875673862215
 30
0.0
 11
2157.06785436323
 21
1152.875673862215
 31
0.0
  0
LINE
  5
304
330
1F
100
AcDbEntity
  8
Linee visibili 2D
100
AcDbLine
 10
2061.421217310532
 20
777.8756738622151
 30
0.0
 11
2108.448427008414
 21
652.8756738622151
 31
0.0
  0
LINE
  5
305
330
1F
100
AcDbEntity
  8
Linee visibili 2D
100
AcDbLine
 10
2061.421217310532
 20
1777.875673862215
 30
0.0
 11
2108.448427008414
 21
1652.875673862215
 31
0.0
  0
LINE
  5
306
330
1F
100
AcDbEntity
  8
Linee visibili 2D
100
AcDbLine
 10
1851.030126052958
 20
1402.875673862215
 30
0.0
 11
1869.068410168573
 21
1361.056279851531
 31
0.0
  0
LINE
  5
307
330
1F
100
AcDbEntity
  8
Linee visibili 2D
100
AcDbLine
 10
1835.296930760328
 20
1277.875673862215
 30
0.0
 11
2157.06785436323
 21
1402.875673862215
 31
0.0
  0
LINE
  5
308
330
1F
100
AcDbEntity
  8
Linee visibili 2D
100
AcDbLine
 10
2061.421217310532
 20
777.8756738622151
 30
0.0
 11
1780.768980762589
 21
652.8756738622151
 31
0.0
  0
LINE
  5
309
330
1F
100
AcDbEntity
  8
Linee visibili 2D
100
AcDbLine
 10
1944.497952525408
 20
1527.875673862215
 30
0.0
 11
2004.927733892807
 21
1652.875673862215
 31
0.0
  0
LINE
  5
30A
330
1F
100
AcDbEntity
  8
Linee visibili 2D
100
AcDbLine
 10
2004.927733892807
 20
1652.875673862215
 30
0.0
 11
1808.241177095015
 21
1527.875673862215
 31
0.0
  0
LINE
  5
30B
330
1F
100
AcDbEntity
  8
Predefinito
100
AcDbLine
 10
1867.099178337637
 20
1277.875673862215
 30
0.0
 11
1904.947347184277
 21
1277.875673862215
 31
0.0
  0
LINE
  5
30C
330
1F
100
AcDbEntity
  8
Linee visibili 2D
100
AcDbLine
 10
1941.377878647186
 20
1784.375673862215
 30
0.0
 11
1933.377878647186
 21
1784.375673862215
 31
0.0
  0
LINE
  5
30D
330
1F
100
AcDbEntity
  8
Linee visibili 2D
100
AcDbLine
 10
2157.06785436323
 20
1152.875673862215
 30
0.0
 11
1886.047161247622
 21
1152.875673862215
 31
0.0
  0
LINE
  5
30E
330
1F
100
AcDbEntity
  8
Linee visibili 2D
100
AcDbLine
 10
1886.047161247622
 20
1402.875673862215
 30
0.0
 11
1944.497952525408
 21
1527.875673862215
 31
0.0
  0
LINE
  5
30F
330
1F
100
AcDbEntity
  8
Linee visibili 2D
100
AcDbLine
 10
1886.047161247622
 20
1152.875673862215
 30
0.0
 11
1944.497952525408
 21
1027.875673862215
 31
0.0
  0
LINE
  5
310
330
1F
100
AcDbEntity
  8
Linee visibili 2D
100
AcDbLine
 10
2044.607488851461
 20
2183.387710961503
 30
0.0
 11
2044.665382253231
 21
2182.283039049017
 31
0.0
  0
LINE
  5
311
330
1F
100
AcDbEntity
  8
Linee visibili 2D
100
AcDbLine
 10
1944.497952525408
 20
1527.875673862215
 30
0.0
 11
1851.030126052958
 21
1402.875673862215
 31
0.0
  0
LINE
  5
312
330
1F
100
AcDbEntity
  8
Linee visibili 2D
100
AcDbLine
 10
1886.047161247622
 20
1402.875673862215
 30
0.0
 11
2141.406012043387
 21
1527.875673862215
 31
0.0
  0
LINE
  5
313
330
1F
100
AcDbEntity
  8
Linee visibili 2D
100
AcDbLine
 10
1780.768980762589
 20
1652.875673862215
 30
0.0
 11
1808.241177095015
 21
1527.875673862215
 31
0.0
  0
LINE
  5
314
330
1F
100
AcDbEntity
  8
Linee visibili 2D
100
AcDbLine
 10
1835.296930760328
 20
277.8756738622151
 30
0.0
 11
1886.047161247622
 21
402.8756738622151
 31
0.0
  0
LINE
  5
315
330
1F
100
AcDbEntity
  8
Linee visibili 2D
100
AcDbLine
 10
2108.448427008414
 20
902.8756738622151
 30
0.0
 11
2107.632909995938
 21
902.8756738622151
 31
0.0
  0
ARC
  5
316
330
1F
100
AcDbEntity
  8
Linee visibili 2D
100
AcDbCircle
 10
1889.741836649303
 20
2149.33537500526
 30
0.0
 40
3.000000000000046
100
AcDbArc
 50
187.9999999999963
 51
269.9999999999913
  0
LINE
  5
317
330
1F
100
AcDbEntity
  8
Linee visibili 2D
100
AcDbLine
 10
1808.241177095015
 20
1027.875673862215
 30
0.0
 11
1851.030126052958
 21
1152.875673862215
 31
0.0
  0
LINE
  5
318
330
1F
100
AcDbEntity
  8
Linee visibili 2D
100
AcDbLine
 10
1835.296930760328
 20
277.3756738622151
 30
0.0
 11
2153.900863719206
 21
277.3756738622151
 31
0.0
  0
LINE
  5
319
330
1F
100
AcDbEntity
  8
Linee visibili 2D
100
AcDbLine
 10
2061.421217310532
 20
777.8756738622151
 30
0.0
 11
1780.768980762589
 21
902.8756738622151
 31
0.0
  0
LINE
  5
31A
330
1F
100
AcDbEntity
  8
Linee visibili 2D
100
AcDbLine
 10
1780.768980762589
 20
652.8756738622151
 30
0.0
 11
1808.241177095015
 21
527.8756738622151
 31
0.0
  0
LINE
  5
31B
330
1F
100
AcDbEntity
  8
Linee visibili 2D
100
AcDbLine
 10
1884.714999987678
 20
2182.020003511509
 30
0.0
 11
1884.76471218931
 21
2182.283039049017
 31
0.0
  0
LINE
  5
31C
330
1F
100
AcDbEntity
  8
Linee visibili 2D
100
AcDbLine
 10
2061.421217310532
 20
1778.375673862215
 30
0.0
 11
2061.421217310532
 21
1777.875673862215
 31
0.0
  0
LINE
  5
31D
330
1F
100
AcDbEntity
  8
Linee visibili 2D
100
AcDbLine
 10
1808.241177095015
 20
527.8756738622151
 30
0.0
 11
1851.030126052958
 21
402.8756738622151
 31
0.0
  0
LINE
  5
31E
330
1F
100
AcDbEntity
  8
Linee visibili 2D
100
AcDbLine
 10
1944.497952525408
 20
527.8756738622151
 30
0.0
 11
2108.448427008414
 21
652.8756738622151
 31
0.0
  0
LINE
  5
31F
330
1F
100
AcDbEntity
  8
Linee visibili 2D
100
AcDbLine
 10
2061.421217310532
 20
777.8756738622151
 30
0.0
 11
1771.302707042745
 21
777.8756738622151
 31
0.0
  0
LINE
  5
320
330
1F
100
AcDbEntity
  8
Linee visibili 2D
100
AcDbLine
 10
2108.448427008414
 20
652.8756738622151
 30
0.0
 11
2141.406012043387
 21
527.8756738622151
 31
0.0
  0
LINE
  5
321
330
1F
100
AcDbEntity
  8
Linee visibili 2D
100
AcDbLine
 10
1835.296930760328
 20
1277.875673862215
 30
0.0
 11
1886.047161247622
 21
1152.875673862215
 31
0.0
  0
LINE
  5
322
330
1F
100
AcDbEntity
  8
Linee visibili 2D
100
AcDbLine
 10
2157.06785436323
 20
402.8756738622151
 30
0.0
 11
1886.047161247622
 21
402.8756738622151
 31
0.0
  0
LINE
  5
323
330
1F
100
AcDbEntity
  8
Linee visibili 2D
100
AcDbLine
 10
1968.21504722127
 20
1855.376603030003
 30
0.0
 11
1968.21504722127
 21
1778.375673862215
 31
0.0
  0
LINE
  5
324
330
1F
100
AcDbEntity
  8
Linee visibili 2D
100
AcDbLine
 10
2108.448427008414
 20
902.8756738622151
 30
0.0
 11
2141.406012043387
 21
1027.875673862215
 31
0.0
  0
LINE
  5
325
330
1F
100
AcDbEntity
  8
Linee visibili 2D
100
AcDbLine
 10
2022.989930039768
 20
1779.375673862215
 30
0.0
 11
2022.989930039768
 21
1778.375673862215
 31
0.0
  0
LINE
  5
326
330
1F
100
AcDbEntity
  8
Linee visibili 2D
100
AcDbLine
 10
2044.665382253231
 20
2182.283039049017
 30
0.0
 11
2044.716003392797
 21
2182.020309825279
 31
0.0
  0
LINE
  5
327
330
1F
100
AcDbEntity
  8
Linee visibili 2D
100
AcDbLine
 10
1851.030126052958
 20
1402.875673862215
 30
0.0
 11
1851.675153585274
 21
1402.875673862215
 31
0.0
  0
LINE
  5
328
330
1F
100
AcDbEntity
  8
Linee visibili 2D
100
AcDbLine
 10
2141.406012043387
 20
527.8756738622151
 30
0.0
 11
2157.06785436323
 21
402.8756738622151
 31
0.0
  0
LINE
  5
329
330
1F
100
AcDbEntity
  8
Linee visibili 2D
100
AcDbLine
 10
1780.768980762589
 20
652.8756738622151
 30
0.0
 11
2004.927733892807
 21
652.8756738622151
 31
0.0
  0
LINE
  5
32A
330
1F
100
AcDbEntity
  8
Linee visibili 2D
100
AcDbLine
 10
1882.21504722127
 20
2181.33537500526
 30
0.0
 11
1885.185851427495
 21
2181.33537500526
 31
0.0
  0
LINE
  5
32B
330
1F
100
AcDbEntity
  8
Linee visibili 2D
100
AcDbLine
 10
1885.185851427495
 20
2181.33537500526
 30
0.0
 11
2044.244243015045
 21
2181.33537500526
 31
0.0
  0
LINE
  5
32C
330
1F
100
AcDbEntity
  8
Linee visibili 2D
100
AcDbLine
 10
2004.927733892807
 20
652.8756738622151
 30
0.0
 11
1808.241177095015
 21
527.8756738622151
 31
0.0
  0
LINE
  5
32D
330
1F
100
AcDbEntity
  8
Linee visibili 2D
100
AcDbLine
 10
1886.047161247622
 20
1152.875673862215
 30
0.0
 11
2141.406012043387
 21
1027.875673862215
 31
0.0
  0
LINE
  5
32E
330
1F
100
AcDbEntity
  8
Linee visibili 2D
100
AcDbLine
 10
1886.047161247622
 20
402.8756738622151
 30
0.0
 11
1944.497952525408
 21
527.8756738622151
 31
0.0
  0
LINE
  5
32F
330
1F
100
AcDbEntity
  8
Linee visibili 2D
100
AcDbLine
 10
1961.21504722127
 20
1778.375673862215
 30
0.0
 11
1961.21504722127
 21
1855.376603030003
 31
0.0
  0
LINE
  5
330
330
1F
100
AcDbEntity
  8
Linee visibili 2D
100
AcDbLine
 10
1851.030126052958
 20
402.8756738622151
 30
0.0
 11
1869.068410168573
 21
361.0562798515307
 31
0.0
  0
LINE
  5
331
330
1F
100
AcDbEntity
  8
Linee visibili 2D
100
AcDbLine
 10
2153.900863719206
 20
1277.875673862215
 30
0.0
 11
1904.947347184277
 21
1277.875673862215
 31
0.0
  0
LINE
  5
332
330
1F
100
AcDbEntity
  8
Linee visibili 2D
100
AcDbLine
 10
1835.296930760328
 20
1277.875673862215
 30
0.0
 11
2157.06785436323
 21
1152.875673862215
 31
0.0
  0
LINE
  5
333
330
1F
100
AcDbEntity
  8
Linee visibili 2D
100
AcDbLine
 10
1884.71504722127
 20
2181.33537500526
 30
0.0
 11
1884.71504722127
 21
2181.981089977478
 31
0.0
  0
LINE
  5
334
330
1F
100
AcDbEntity
  8
Linee visibili 2D
100
AcDbLine
 10
2004.927733892807
 20
902.8756738622151
 30
0.0
 11
1780.768980762589
 21
902.8756738622151
 31
0.0
  0
LINE
  5
335
330
1F
100
AcDbEntity
  8
Linee visibili 2D
100
AcDbLine
 10
1940.978424317505
 20
1779.375673862215
 30
0.0
 11
1940.978424317505
 21
1778.375673862215
 31
0.0
  0
LINE
  5
336
330
1F
100
AcDbEntity
  8
Linee visibili 2D
100
AcDbLine
 10
1771.302707042745
 20
777.8756738622151
 30
0.0
 11
1780.768980762589
 21
902.8756738622151
 31
0.0
  0
LINE
  5
337
330
1F
100
AcDbEntity
  8
Linee visibili 2D
100
AcDbLine
 10
1941.377878647186
 20
1784.375673862215
 30
0.0
 11
1941.377878647186
 21
1779.375673862215
 31
0.0
  0
ARC
  5
338
330
1F
100
AcDbEntity
  8
Linee visibili 2D
100
AcDbCircle
 10
1885.822049992188
 20
2183.334516316865
 30
0.0
 40
1.000859021603693
100
AcDbArc
 50
90.04675308458333
 51
176.9533517537445
  0
LINE
  5
339
330
1F
100
AcDbEntity
  8
Linee visibili 2D
100
AcDbLine
 10
1933.377878647186
 20
1779.375673862215
 30
0.0
 11
1933.377878647186
 21
1784.375673862215
 31
0.0
  0
LINE
  5
33A
330
1F
100
AcDbEntity
  8
Linee visibili 2D
100
AcDbLine
 10
1780.768980762589
 20
902.8756738622151
 30
0.0
 11
1808.241177095015
 21
1027.875673862215
 31
0.0
  0
LINE
  5
33B
330
1F
100
AcDbEntity
  8
Linee visibili 2D
100
AcDbLine
 10
1933.777332976866
 20
1778.375673862215
 30
0.0
 11
1933.777332976866
 21
1779.375673862215
 31
0.0
  0
LINE
  5
33C
330
1F
100
AcDbEntity
  8
Linee visibili 2D
100
AcDbLine
 10
1884.76471218931
 20
2182.283039049017
 30
0.0
 11
1884.82260559108
 21
2183.387710961503
 31
0.0
  0
LINE
  5
33D
330
1F
100
AcDbEntity
  8
Linee visibili 2D
100
AcDbLine
 10
2153.900863719206
 20
277.8756738622151
 30
0.0
 11
2153.900863719206
 21
277.3756738622151
 31
0.0
  0
ARC
  5
33E
330
1F
100
AcDbEntity
  8
Linee visibili 2D
100
AcDbCircle
 10
2039.688257793238
 20
2149.335375005259
 30
0.0
 40
2.999999999999019
100
AcDbArc
 50
269.9999999999913
 51
352.0000000000185
  0
LINE
  5
33F
330
1F
100
AcDbEntity
  8
Linee visibili 2D
100
AcDbLine
 10
2039.688257793237
 20
2146.33537500526
 30
0.0
 11
1889.741836649303
 21
2146.33537500526
 31
0.0
  0
LINE
  5
340
330
1F
100
AcDbEntity
  8
Linee visibili 2D
100
AcDbLine
 10
2141.406012043387
 20
1527.875673862215
 30
0.0
 11
2157.06785436323
 21
1402.875673862215
 31
0.0
  0
LINE
  5
341
330
1F
100
AcDbEntity
  8
Linee visibili 2D
100
AcDbLine
 10
2157.06785436323
 20
1402.875673862215
 30
0.0
 11
1886.047161247622
 21
1402.875673862215
 31
0.0
  0
LINE
  5
342
330
1F
100
AcDbEntity
  8
Linee visibili 2D
100
AcDbLine
 10
1944.497952525408
 20
527.8756738622151
 30
0.0
 11
1851.030126052958
 21
402.8756738622151
 31
0.0
  0
SPLINE
  5
343
330
1F
100
AcDbEntity
  8
Linee visibili 2D
100
AcDbSpline
210
0.0
220
0.0
230
1.0
 70
    28
 71
     2
 72
     8
 73
     5
 74
     0
 42
0.0000000001
 43
0.0000000001
 40
14.13716694115407
 40
14.13716694115407
 40
14.13716694115407
 40
18.84955592153876
 40
18.84955592153876
 40
25.13274122871834
 40
25.13274122871834
 40
25.13274122871834
 10
2023.346454944012
 20
1779.375673862215
 30
0.0
 41
0.8901650429449554
 10
2023.743666666518
 20
1779.375673862215
 30
0.0
 41
0.7803300858899107
 10
2021.389384369441
 20
1779.375673862215
 30
0.0
 41
1.0
 10
2017.925282754303
 20
1779.375673862215
 30
0.0
 41
0.7071067811865476
 10
2015.925282754303
 20
1779.375673862215
 30
0.0
 41
1.0
  0
LINE
  5
344
330
1F
100
AcDbEntity
  8
Linee visibili 2D
100
AcDbLine
 10
1944.497952525408
 20
1027.875673862215
 30
0.0
 11
1808.241177095015
 21
1027.875673862215
 31
0.0
  0
LINE
  5
345
330
1F
100
AcDbEntity
  8
Linee visibili 2D
100
AcDbLine
 10
2585.396167260928
 20
1779.375673862215
 30
0.0
 11
2584.939096686353
 21
1779.375673862215
 31
0.0
  0
LINE
  5
346
330
1F
100
AcDbEntity
  8
Linee visibili 2D
100
AcDbLine
 10
2545.14734802585
 20
1779.375673862215
 30
0.0
 11
2545.14734802585
 21
1778.375673862215
 31
0.0
  0
LINE
  5
347
330
1F
100
AcDbEntity
  8
Linee visibili 2D
100
AcDbLine
 10
2640.245532166317
 20
1784.375673862215
 30
0.0
 11
2632.245532166317
 21
1784.375673862215
 31
0.0
  0
LINE
  5
348
330
1F
100
AcDbEntity
  8
Linee visibili 2D
100
AcDbLine
 10
2781.248974402885
 20
1527.875673862215
 30
0.0
 11
2778.08198375886
 21
1652.875673862215
 31
0.0
  0
LINE
  5
349
330
1F
100
AcDbEntity
  8
Linee visibili 2D
100
AcDbLine
 10
2404.950100802244
 20
277.3756738622151
 30
0.0
 11
2732.62954704807
 21
277.3756738622151
 31
0.0
  0
LINE
  5
34A
330
1F
100
AcDbEntity
  8
Linee visibili 2D
100
AcDbLine
 10
2778.08198375886
 20
652.8756738622151
 30
0.0
 11
2756.396167260925
 21
777.8756738622151
 31
0.0
  0
LINE
  5
34B
330
1F
100
AcDbEntity
  8
Linee visibili 2D
100
AcDbLine
 10
2510.674628541075
 20
1527.875673862215
 30
0.0
 11
2781.248974402885
 21
1527.875673862215
 31
0.0
  0
LINE
  5
34C
330
1F
100
AcDbEntity
  8
Linee visibili 2D
100
AcDbLine
 10
2778.08198375886
 20
652.8756738622151
 30
0.0
 11
2475.211246092613
 21
527.8756738622151
 31
0.0
  0
LINE
  5
34D
330
1F
100
AcDbEntity
  8
Linee visibili 2D
100
AcDbLine
 10
2778.08198375886
 20
1652.875673862215
 30
0.0
 11
2756.396167260925
 21
1777.875673862215
 31
0.0
  0
LINE
  5
34E
330
1F
100
AcDbEntity
  8
Linee visibili 2D
100
AcDbLine
 10
2671.396167260925
 20
2181.33537500526
 30
0.0
 11
2666.840182039117
 21
2148.91785570238
 31
0.0
  0
LINE
  5
34F
330
1F
100
AcDbEntity
  8
Linee visibili 2D
100
AcDbLine
 10
2404.950100802244
 20
277.8756738622151
 30
0.0
 11
2404.950100802244
 21
277.3756738622151
 31
0.0
  0
LINE
  5
350
330
1F
100
AcDbEntity
  8
Linee visibili 2D
100
AcDbLine
 10
2765.587132083042
 20
402.8756738622151
 30
0.0
 11
2781.248974402885
 21
527.8756738622151
 31
0.0
  0
LINE
  5
351
330
1F
100
AcDbEntity
  8
Linee visibili 2D
100
AcDbLine
 10
2765.587132083042
 20
402.8756738622151
 30
0.0
 11
2568.793780677345
 21
402.8756738622151
 31
0.0
  0
LINE
  5
352
330
1F
100
AcDbEntity
  8
Linee visibili 2D
100
AcDbLine
 10
2475.211246092613
 20
1527.875673862215
 30
0.0
 11
2492.704376832405
 21
1527.875673862215
 31
0.0
  0
LINE
  5
353
330
1F
100
AcDbEntity
  8
Linee visibili 2D
100
AcDbLine
 10
2663.869377832893
 20
2146.33537500526
 30
0.0
 11
2513.922956688958
 21
2146.33537500526
 31
0.0
  0
LINE
  5
354
330
1F
100
AcDbEntity
  8
Linee visibili 2D
100
AcDbLine
 10
2432.42229713467
 20
1402.875673862215
 30
0.0
 11
2404.950100802244
 21
1277.875673862215
 31
0.0
  0
LINE
  5
355
330
1F
100
AcDbEntity
  8
Linee visibili 2D
100
AcDbLine
 10
2732.629547048069
 20
1277.875673862215
 30
0.0
 11
2765.587132083042
 21
1402.875673862215
 31
0.0
  0
LINE
  5
356
330
1F
100
AcDbEntity
  8
Linee visibili 2D
100
AcDbLine
 10
2588.896167260925
 20
777.8756738622151
 30
0.0
 11
2529.128467223933
 21
902.8756738622151
 31
0.0
  0
LINE
  5
357
330
1F
100
AcDbEntity
  8
Linee visibili 2D
100
AcDbLine
 10
2510.952152482733
 20
2148.91785570238
 30
0.0
 11
2506.396167260925
 21
2181.33537500526
 31
0.0
  0
LINE
  5
358
330
1F
100
AcDbEntity
  8
Linee visibili 2D
100
AcDbLine
 10
2756.396167260925
 20
1777.875673862215
 30
0.0
 11
2529.128467223933
 21
1652.875673862215
 31
0.0
  0
ARC
  5
359
330
1F
100
AcDbEntity
  8
Linee visibili 2D
100
AcDbCircle
 10
2667.789979356362
 20
2183.335375005261
 30
0.0
 40
0.9999999999995453
100
AcDbArc
 50
2.99999999998145
 51
90.00000000002605
  0
LINE
  5
35A
330
1F
100
AcDbEntity
  8
Linee visibili 2D
100
AcDbLine
 10
2509.36697146715
 20
2181.33537500526
 30
0.0
 11
2668.4253630547
 21
2181.33537500526
 31
0.0
  0
LINE
  5
35B
330
1F
100
AcDbEntity
  8
Linee visibili 2D
100
AcDbLine
 10
2508.896167260925
 20
2181.33537500526
 30
0.0
 11
2508.896167260925
 21
2181.981089977477
 31
0.0
  0
LINE
  5
35C
330
1F
100
AcDbEntity
  8
Predefinito
100
AcDbLine
 10
2492.704376832405
 20
1527.875673862215
 30
0.0
 11
2510.674628541075
 21
1527.875673862215
 31
0.0
  0
LINE
  5
35D
330
1F
100
AcDbEntity
  8
Predefinito
100
AcDbLine
 10
2499.675160901746
 20
1402.875673862215
 30
0.0
 11
2568.793780677345
 21
1402.875673862215
 31
0.0
  0
LINE
  5
35E
330
1F
100
AcDbEntity
  8
Predefinito
100
AcDbLine
 10
2492.704376832405
 20
527.8756738622151
 30
0.0
 11
2510.674628541074
 21
527.8756738622151
 31
0.0
  0
LINE
  5
35F
330
1F
100
AcDbEntity
  8
Predefinito
100
AcDbLine
 10
2499.616750361383
 20
402.8756738622151
 30
0.0
 11
2568.793780677345
 21
402.8756738622151
 31
0.0
  0
LINE
  5
360
330
1F
100
AcDbEntity
  8
Linee visibili 2D
100
AcDbLine
 10
2668.896167169823
 20
2182.019992573576
 30
0.0
 11
2668.846502292886
 21
2182.283039049017
 31
0.0
  0
LINE
  5
361
330
1F
100
AcDbEntity
  8
Linee visibili 2D
100
AcDbLine
 10
2529.128467223933
 20
1652.875673862215
 30
0.0
 11
2778.08198375886
 21
1652.875673862215
 31
0.0
  0
LINE
  5
362
330
1F
100
AcDbEntity
  8
Linee visibili 2D
100
AcDbLine
 10
2756.396167260925
 20
777.8756738622151
 30
0.0
 11
2529.128467223933
 21
902.8756738622151
 31
0.0
  0
LINE
  5
363
330
1F
100
AcDbEntity
  8
Linee visibili 2D
100
AcDbLine
 10
2529.128467223933
 20
1652.875673862215
 30
0.0
 11
2475.211246092613
 21
1527.875673862215
 31
0.0
  0
LINE
  5
364
330
1F
100
AcDbEntity
  8
Linee visibili 2D
100
AcDbLine
 10
2778.08198375886
 20
902.8756738622151
 30
0.0
 11
2475.211246092613
 21
1027.875673862215
 31
0.0
  0
LINE
  5
365
330
1F
100
AcDbEntity
  8
Linee visibili 2D
100
AcDbLine
 10
2529.128467223933
 20
902.8756738622151
 30
0.0
 11
2475.211246092613
 21
1027.875673862215
 31
0.0
  0
LINE
  5
366
330
1F
100
AcDbEntity
  8
Linee visibili 2D
100
AcDbLine
 10
2460.212345616209
 20
1652.875673862215
 30
0.0
 11
2459.478050799983
 21
1652.875673862215
 31
0.0
  0
LINE
  5
367
330
1F
100
AcDbEntity
  8
Linee visibili 2D
100
AcDbLine
 10
2667.789979356361
 20
2184.33537500526
 30
0.0
 11
2510.002355165489
 21
2184.33537500526
 31
0.0
  0
LINE
  5
368
330
1F
100
AcDbEntity
  8
Linee visibili 2D
100
AcDbLine
 10
2421.396167260925
 20
1777.875673862215
 30
0.0
 11
2459.478050799983
 21
1652.875673862215
 31
0.0
  0
LINE
  5
369
330
1F
100
AcDbEntity
  8
Linee visibili 2D
100
AcDbLine
 10
2584.896167260924
 20
1779.375673862215
 30
0.0
 11
2584.896167260924
 21
1784.375673862215
 31
0.0
  0
ARC
  5
36A
330
1F
100
AcDbEntity
  8
Linee visibili 2D
100
AcDbCircle
 10
2510.003170031844
 20
2183.334516316864
 30
0.0
 40
1.000859021604172
100
AcDbArc
 50
90.04675308460932
 51
176.9533517537199
  0
LINE
  5
36B
330
1F
100
AcDbEntity
  8
Linee visibili 2D
100
AcDbLine
 10
2529.128467223933
 20
652.8756738622151
 30
0.0
 11
2475.211246092613
 21
527.8756738622151
 31
0.0
  0
LINE
  5
36C
330
1F
100
AcDbEntity
  8
Linee visibili 2D
100
AcDbLine
 10
2459.478050799983
 20
652.8756738622151
 30
0.0
 11
2588.896167260925
 21
777.8756738622151
 31
0.0
  0
LINE
  5
36D
330
1F
100
AcDbEntity
  8
Linee visibili 2D
100
AcDbLine
 10
2510.674628541074
 20
527.8756738622151
 30
0.0
 11
2781.248974402885
 21
527.8756738622151
 31
0.0
  0
LINE
  5
36E
330
1F
100
AcDbEntity
  8
Linee visibili 2D
100
AcDbLine
 10
2756.396167260925
 20
1778.375673862215
 30
0.0
 11
2756.396167260925
 21
1777.875673862215
 31
0.0
  0
LINE
  5
36F
330
1F
100
AcDbEntity
  8
Linee visibili 2D
100
AcDbLine
 10
2537.546802355535
 20
1779.375673862215
 30
0.0
 11
2537.546802355535
 21
1784.375673862215
 31
0.0
  0
LINE
  5
370
330
1F
100
AcDbEntity
  8
Linee visibili 2D
100
AcDbLine
 10
2585.2956215906
 20
1778.375673862215
 30
0.0
 11
2585.2956215906
 21
1779.375673862215
 31
0.0
  0
LINE
  5
371
330
1F
100
AcDbEntity
  8
Linee visibili 2D
100
AcDbLine
 10
2585.396167260925
 20
1778.375673862216
 30
0.0
 11
2585.396167260925
 21
1855.376603030003
 31
0.0
  0
LINE
  5
372
330
1F
100
AcDbEntity
  8
Linee visibili 2D
100
AcDbLine
 10
2585.396167260925
 20
1855.376603030003
 30
0.0
 11
2585.396167260925
 21
2146.33537500526
 31
0.0
  0
LINE
  5
373
330
1F
100
AcDbEntity
  8
Linee visibili 2D
100
AcDbLine
 10
2781.248974402885
 20
1027.875673862215
 30
0.0
 11
2475.211246092613
 21
1027.875673862215
 31
0.0
  0
LINE
  5
374
330
1F
100
AcDbEntity
  8
Linee visibili 2D
100
AcDbLine
 10
2640.245532166317
 20
1779.375673862215
 30
0.0
 11
2632.245532166317
 21
1779.375673862215
 31
0.0
  0
LINE
  5
375
330
1F
100
AcDbEntity
  8
Linee visibili 2D
100
AcDbLine
 10
2537.946256685211
 20
1778.375673862215
 30
0.0
 11
2537.946256685211
 21
1779.375673862215
 31
0.0
  0
LINE
  5
376
330
1F
100
AcDbEntity
  8
Linee visibili 2D
100
AcDbLine
 10
2545.546802355535
 20
1784.375673862215
 30
0.0
 11
2545.546802355535
 21
1779.375673862215
 31
0.0
  0
ARC
  5
377
330
1F
100
AcDbEntity
  8
Linee visibili 2D
100
AcDbCircle
 10
2513.922956688958
 20
2149.335375005261
 30
0.0
 40
3.000000000000455
100
AcDbArc
 50
188.0000000000122
 51
270.0
  0
LINE
  5
378
330
1F
100
AcDbEntity
  8
Linee visibili 2D
100
AcDbLine
 10
2475.211246092613
 20
527.8756738622151
 30
0.0
 11
2432.42229713467
 21
402.8756738622151
 31
0.0
  0
LINE
  5
379
330
1F
100
AcDbEntity
  8
Linee visibili 2D
100
AcDbLine
 10
2778.08198375886
 20
1652.875673862215
 30
0.0
 11
2475.211246092613
 21
1527.875673862215
 31
0.0
  0
LINE
  5
37A
330
1F
100
AcDbEntity
  8
Linee visibili 2D
100
AcDbLine
 10
2756.396167260925
 20
777.8756738622151
 30
0.0
 11
2529.128467223933
 21
652.8756738622151
 31
0.0
  0
LINE
  5
37B
330
1F
100
AcDbEntity
  8
Linee visibili 2D
100
AcDbLine
 10
2475.211246092613
 20
1027.875673862215
 30
0.0
 11
2432.42229713467
 21
1152.875673862215
 31
0.0
  0
LINE
  5
37C
330
1F
100
AcDbEntity
  8
Linee visibili 2D
100
AcDbLine
 10
2781.248974402885
 20
1527.875673862215
 30
0.0
 11
2432.42229713467
 21
1402.875673862215
 31
0.0
  0
ARC
  5
37D
330
1F
100
AcDbEntity
  8
Linee visibili 2D
100
AcDbCircle
 10
2663.869377832892
 20
2149.335375005262
 30
0.0
 40
3.000000000001651
100
AcDbArc
 50
270.000000000026
 51
351.9999999999729
  0
LINE
  5
37E
330
1F
100
AcDbEntity
  8
Linee visibili 2D
100
AcDbLine
 10
2459.478050799983
 20
1652.875673862215
 30
0.0
 11
2493.249530208227
 21
1569.6950678729
 31
0.0
  0
SPLINE
  5
37F
330
1F
100
AcDbEntity
  8
Linee visibili 2D
100
AcDbSpline
210
0.0
220
0.0
230
1.0
 70
    28
 71
     2
 72
     6
 73
     3
 74
     0
 42
0.0000000001
 43
0.0000000001
 40
20.42035224833366
 40
20.42035224833366
 40
20.42035224833366
 40
22.91938354420306
 40
22.91938354420306
 40
22.91938354420306
 10
2592.853237835494
 20
1779.375673862215
 30
0.0
 41
0.8901650429449552
 10
2593.050821146614
 20
1779.375673862215
 30
0.0
 41
0.8319183667466289
 10
2592.396167260753
 20
1779.375673862216
 30
0.0
 41
0.8663382344006142
  0
LINE
  5
380
330
1F
100
AcDbEntity
  8
Linee visibili 2D
100
AcDbLine
 10
2632.245532166317
 20
1779.375673862215
 30
0.0
 11
2632.245532166317
 21
1784.375673862215
 31
0.0
  0
LINE
  5
381
330
1F
100
AcDbEntity
  8
Linee visibili 2D
100
AcDbLine
 10
2639.846077836646
 20
1779.375673862215
 30
0.0
 11
2639.846077836646
 21
1778.375673862215
 31
0.0
  0
LINE
  5
382
330
1F
100
AcDbEntity
  8
Linee visibili 2D
100
AcDbLine
 10
2781.248974402885
 20
527.8756738622151
 30
0.0
 11
2432.42229713467
 21
402.8756738622151
 31
0.0
  0
LINE
  5
383
330
1F
100
AcDbEntity
  8
Linee visibili 2D
100
AcDbLine
 10
2588.896167260925
 20
777.8756738622151
 30
0.0
 11
2529.128467223933
 21
652.8756738622151
 31
0.0
  0
LINE
  5
384
330
1F
100
AcDbEntity
  8
Linee visibili 2D
100
AcDbLine
 10
2588.896167260925
 20
1777.875673862215
 30
0.0
 11
2529.128467223933
 21
1652.875673862215
 31
0.0
  0
LINE
  5
385
330
1F
100
AcDbEntity
  8
Linee visibili 2D
100
AcDbLine
 10
2765.587132083042
 20
1152.875673862215
 30
0.0
 11
2781.248974402885
 21
1027.875673862215
 31
0.0
  0
LINE
  5
386
330
1F
100
AcDbEntity
  8
Linee visibili 2D
100
AcDbLine
 10
2432.42229713467
 20
1152.875673862215
 30
0.0
 11
2765.587132083042
 21
1152.875673862215
 31
0.0
  0
LINE
  5
387
330
1F
100
AcDbEntity
  8
Predefinito
100
AcDbLine
 10
2628.88069447398
 20
1277.875673862215
 30
0.0
 11
2729.951904528648
 21
1277.875673862215
 31
0.0
  0
LINE
  5
388
330
1F
100
AcDbEntity
  8
Linee visibili 2D
100
AcDbLine
 10
2756.396167260925
 20
1778.375673862215
 30
0.0
 11
2588.896167260925
 21
1778.375673862215
 31
0.0
  0
LINE
  5
389
330
1F
100
AcDbEntity
  8
Linee visibili 2D
100
AcDbLine
 10
2588.896167260925
 20
1778.375673862215
 30
0.0
 11
2421.396167260925
 21
1778.375673862215
 31
0.0
  0
LINE
  5
38A
330
1F
100
AcDbEntity
  8
Linee visibili 2D
100
AcDbLine
 10
2432.42229713467
 20
1152.875673862215
 30
0.0
 11
2404.950100802244
 21
1277.875673862215
 31
0.0
  0
LINE
  5
38B
330
1F
100
AcDbEntity
  8
Linee visibili 2D
100
AcDbLine
 10
2732.629547048069
 20
1277.875673862215
 30
0.0
 11
2765.587132083042
 21
1152.875673862215
 31
0.0
  0
LINE
  5
38C
330
1F
100
AcDbEntity
  8
Linee visibili 2D
100
AcDbLine
 10
2729.951904528648
 20
1277.875673862215
 30
0.0
 11
2732.629547048069
 21
1277.875673862215
 31
0.0
  0
LINE
  5
38D
330
1F
100
AcDbEntity
  8
Linee visibili 2D
100
AcDbLine
 10
2508.945832228965
 20
2182.283039049017
 30
0.0
 11
2509.003725630735
 21
2183.387710961503
 31
0.0
  0
LINE
  5
38E
330
1F
100
AcDbEntity
  8
Linee visibili 2D
100
AcDbLine
 10
2421.396167260925
 20
777.8756738622151
 30
0.0
 11
2588.896167260925
 21
777.8756738622151
 31
0.0
  0
LINE
  5
38F
330
1F
100
AcDbEntity
  8
Linee visibili 2D
100
AcDbLine
 10
2432.42229713467
 20
402.8756738622151
 30
0.0
 11
2404.950100802244
 21
277.8756738622151
 31
0.0
  0
LINE
  5
390
330
1F
100
AcDbEntity
  8
Linee visibili 2D
100
AcDbLine
 10
2459.478050799983
 20
902.8756738622151
 30
0.0
 11
2588.896167260925
 21
777.8756738622151
 31
0.0
  0
LINE
  5
391
330
1F
100
AcDbEntity
  8
Linee visibili 2D
100
AcDbLine
 10
2421.396167260925
 20
777.8756738622151
 30
0.0
 11
2459.478050799983
 21
902.8756738622151
 31
0.0
  0
LINE
  5
392
330
1F
100
AcDbEntity
  8
Linee visibili 2D
100
AcDbLine
 10
2668.788608891116
 20
2183.387710961503
 30
0.0
 11
2668.846502292886
 21
2182.283039049017
 31
0.0
  0
LINE
  5
393
330
1F
100
AcDbEntity
  8
Linee visibili 2D
100
AcDbLine
 10
2781.248974402885
 20
527.8756738622151
 30
0.0
 11
2778.08198375886
 21
652.8756738622151
 31
0.0
  0
LINE
  5
394
330
1F
100
AcDbEntity
  8
Linee visibili 2D
100
AcDbLine
 10
2668.896167169823
 20
2182.019992573576
 30
0.0
 11
2668.896167260923
 21
2181.33537500526
 31
0.0
  0
LINE
  5
395
330
1F
100
AcDbEntity
  8
Linee visibili 2D
100
AcDbLine
 10
2432.42229713467
 20
1402.875673862215
 30
0.0
 11
2499.675160901746
 21
1402.875673862215
 31
0.0
  0
LINE
  5
396
330
1F
100
AcDbEntity
  8
Linee visibili 2D
100
AcDbLine
 10
2592.396167260925
 20
1855.376603030003
 30
0.0
 11
2592.396167260925
 21
1778.375673862215
 31
0.0
  0
LINE
  5
397
330
1F
100
AcDbEntity
  8
Linee visibili 2D
100
AcDbLine
 10
2499.616750361383
 20
402.8756738622151
 30
0.0
 11
2432.42229713467
 21
402.8756738622151
 31
0.0
  0
LINE
  5
398
330
1F
100
AcDbEntity
  8
Linee visibili 2D
100
AcDbLine
 10
2421.396167260925
 20
1777.875673862215
 30
0.0
 11
2421.396167260925
 21
1778.375673862215
 31
0.0
  0
LINE
  5
399
330
1F
100
AcDbEntity
  8
Linee visibili 2D
100
AcDbLine
 10
2592.496712931239
 20
1779.375673862215
 30
0.0
 11
2592.496712931239
 21
1778.375673862215
 31
0.0
  0
LINE
  5
39A
330
1F
100
AcDbEntity
  8
Linee visibili 2D
100
AcDbLine
 10
2668.4253630547
 20
2181.33537500526
 30
0.0
 11
2671.396167260925
 21
2181.33537500526
 31
0.0
  0
LINE
  5
39B
330
1F
100
AcDbEntity
  8
Linee visibili 2D
100
AcDbLine
 10
2640.245532166317
 20
1784.375673862215
 30
0.0
 11
2640.245532166317
 21
1779.375673862215
 31
0.0
  0
LINE
  5
39C
330
1F
100
AcDbEntity
  8
Linee visibili 2D
100
AcDbLine
 10
2765.587132083042
 20
1402.875673862215
 30
0.0
 11
2781.248974402885
 21
1527.875673862215
 31
0.0
  0
LINE
  5
39D
330
1F
100
AcDbEntity
  8
Linee visibili 2D
100
AcDbLine
 10
2475.211246092613
 20
1527.875673862215
 30
0.0
 11
2432.42229713467
 21
1402.875673862215
 31
0.0
  0
LINE
  5
39E
330
1F
100
AcDbEntity
  8
Linee visibili 2D
100
AcDbLine
 10
2632.644986496007
 20
1778.375673862215
 30
0.0
 11
2632.644986496007
 21
1779.375673862215
 31
0.0
  0
LINE
  5
39F
330
1F
100
AcDbEntity
  8
Linee visibili 2D
100
AcDbLine
 10
2568.793780677345
 20
1402.875673862215
 30
0.0
 11
2765.587132083042
 21
1402.875673862215
 31
0.0
  0
LINE
  5
3A0
330
1F
100
AcDbEntity
  8
Linee visibili 2D
100
AcDbLine
 10
2508.896120027332
 20
2182.020003511509
 30
0.0
 11
2508.945832228965
 21
2182.283039049017
 31
0.0
  0
LINE
  5
3A1
330
1F
100
AcDbEntity
  8
Linee visibili 2D
100
AcDbLine
 10
2781.248974402885
 20
1027.875673862215
 30
0.0
 11
2432.42229713467
 21
1152.875673862215
 31
0.0
  0
LINE
  5
3A2
330
1F
100
AcDbEntity
  8
Linee visibili 2D
100
AcDbLine
 10
2592.396167260925
 20
2146.33537500526
 30
0.0
 11
2592.396167260925
 21
1855.376603030003
 31
0.0
  0
LINE
  5
3A3
330
1F
100
AcDbEntity
  8
Linee visibili 2D
100
AcDbLine
 10
2545.54065936458
 20
1784.375673862215
 30
0.0
 11
2537.552945346489
 21
1784.375673862215
 31
0.0
  0
LINE
  5
3A4
330
1F
100
AcDbEntity
  8
Linee visibili 2D
100
AcDbLine
 10
2545.54065936458
 20
1779.375673862215
 30
0.0
 11
2537.552945346489
 21
1779.375673862215
 31
0.0
  0
LINE
  5
3A5
330
1F
100
AcDbEntity
  8
Linee visibili 2D
100
AcDbLine
 10
2756.396167260925
 20
777.8756738622151
 30
0.0
 11
2588.896167260925
 21
777.8756738622151
 31
0.0
  0
LINE
  5
3A6
330
1F
100
AcDbEntity
  8
Linee visibili 2D
100
AcDbLine
 10
2585.396167260928
 20
1784.375673862215
 30
0.0
 11
2584.939096686353
 21
1784.375673862215
 31
0.0
  0
SPLINE
  5
3A7
330
1F
100
AcDbEntity
  8
Linee visibili 2D
100
AcDbSpline
210
0.0
220
0.0
230
1.0
 70
    28
 71
     2
 72
     6
 73
     3
 74
     0
 42
0.0000000001
 43
0.0000000001
 40
20.42035224833366
 40
20.42035224833366
 40
20.42035224833366
 40
22.91938354386268
 40
22.91938354386268
 40
22.91938354386268
 10
2592.853237835494
 20
1784.375673862215
 30
0.0
 41
0.8901650429449552
 10
2593.050821146585
 20
1784.375673862214
 30
0.0
 41
0.8319183667545624
 10
2592.396167260925
 20
1784.375673862215
 30
0.0
 41
0.8663382343912378
  0
LINE
  5
3A8
330
1F
100
AcDbEntity
  8
Linee visibili 2D
100
AcDbLine
 10
2778.08198375886
 20
902.8756738622151
 30
0.0
 11
2529.128467223933
 21
902.8756738622151
 31
0.0
  0
LINE
  5
3A9
330
1F
100
AcDbEntity
  8
Linee visibili 2D
100
AcDbLine
 10
2475.211246092613
 20
527.8756738622151
 30
0.0
 11
2492.704376832405
 21
527.8756738622151
 31
0.0
  0
LINE
  5
3AA
330
1F
100
AcDbEntity
  8
Linee visibili 2D
100
AcDbLine
 10
2781.248974402885
 20
1027.875673862215
 30
0.0
 11
2778.08198375886
 21
902.8756738622151
 31
0.0
  0
LINE
  5
3AB
330
1F
100
AcDbEntity
  8
Linee visibili 2D
100
AcDbLine
 10
2778.08198375886
 20
902.8756738622151
 30
0.0
 11
2756.396167260925
 21
777.8756738622151
 31
0.0
  0
LINE
  5
3AC
330
1F
100
AcDbEntity
  8
Linee visibili 2D
100
AcDbLine
 10
2421.396167260925
 20
777.8756738622151
 30
0.0
 11
2459.478050799983
 21
652.8756738622151
 31
0.0
  0
LINE
  5
3AD
330
1F
100
AcDbEntity
  8
Linee visibili 2D
100
AcDbLine
 10
2529.128467223933
 20
652.8756738622151
 30
0.0
 11
2778.08198375886
 21
652.8756738622151
 31
0.0
  0
LINE
  5
3AE
330
1F
100
AcDbEntity
  8
Linee visibili 2D
100
AcDbLine
 10
2460.212345616209
 20
652.8756738622151
 30
0.0
 11
2459.478050799983
 21
652.8756738622151
 31
0.0
  0
LINE
  5
3AF
330
1F
100
AcDbEntity
  8
Linee visibili 2D
100
AcDbLine
 10
2404.950100802244
 20
1277.875673862215
 30
0.0
 11
2628.88069447398
 21
1277.875673862215
 31
0.0
  0
LINE
  5
3B0
330
1F
100
AcDbEntity
  8
Linee visibili 2D
100
AcDbLine
 10
2592.896167260924
 20
1784.375673862215
 30
0.0
 11
2592.896167260924
 21
1779.375673862215
 31
0.0
  0
LINE
  5
3B1
330
1F
100
AcDbEntity
  8
Linee visibili 2D
100
AcDbLine
 10
2506.396167260925
 20
2181.33537500526
 30
0.0
 11
2509.36697146715
 21
2181.33537500526
 31
0.0
  0
LINE
  5
3B2
330
1F
100
AcDbEntity
  8
Linee visibili 2D
100
AcDbLine
 10
2459.478050799983
 20
902.8756738622151
 30
0.0
 11
2493.249530208228
 21
986.0562798515311
 31
0.0
  0
LINE
  5
3B3
330
1F
100
AcDbEntity
  8
Linee visibili 2D
100
AcDbLine
 10
2459.478050799983
 20
1652.875673862215
 30
0.0
 11
2588.896167260925
 21
1777.875673862215
 31
0.0
  0
LINE
  5
3B4
330
1F
100
AcDbEntity
  8
Linee visibili 2D
100
AcDbLine
 10
2459.478050799983
 20
902.8756738622151
 30
0.0
 11
2460.212345616213
 21
902.8756738622151
 31
0.0
  0
LINE
  5
3B5
330
1F
100
AcDbEntity
  8
Linee visibili 2D
100
AcDbLine
 10
2732.629547048069
 20
277.8756738622151
 30
0.0
 11
2765.587132083042
 21
402.8756738622151
 31
0.0
  0
LINE
  5
3B6
330
1F
100
AcDbEntity
  8
Linee visibili 2D
100
AcDbLine
 10
2765.587132083042
 20
402.8756738622151
 30
0.0
 11
2404.950100802244
 21
277.8756738622151
 31
0.0
  0
LINE
  5
3B7
330
1F
100
AcDbEntity
  8
Linee visibili 2D
100
AcDbLine
 10
2765.587132083042
 20
1152.875673862215
 30
0.0
 11
2404.950100802244
 21
1277.875673862215
 31
0.0
  0
LINE
  5
3B8
330
1F
100
AcDbEntity
  8
Linee visibili 2D
100
AcDbLine
 10
2732.629547048069
 20
277.8756738622151
 30
0.0
 11
2732.62954704807
 21
277.3756738622151
 31
0.0
  0
LINE
  5
3B9
330
1F
100
AcDbEntity
  8
Linee visibili 2D
100
AcDbLine
 10
2765.587132083042
 20
1402.875673862215
 30
0.0
 11
2404.950100802244
 21
1277.875673862215
 31
0.0
  0
LINE
  5
3BA
330
1F
100
AcDbEntity
  8
Linee visibili 2D
100
AcDbLine
 10
2588.896167260925
 20
1778.375673862215
 30
0.0
 11
2588.896167260925
 21
1777.875673862215
 31
0.0
  0
LINE
  5
3BB
330
1F
100
AcDbEntity
  8
Linee visibili 2D
100
AcDbLine
 10
2459.478050799983
 20
652.8756738622151
 30
0.0
 11
2493.249530208227
 21
569.6950678728999
 31
0.0
  0
POLYLINE
  5
3BC
330
1F
100
AcDbEntity
  8
Linee visibili 2D
100
AcDb2dPolyline
 66
     1
 10
0.0
 20
0.0
 30
0.0
  0
VERTEX
  5
3BD
330
3BC
100
AcDbEntity
  8
Linee visibili 2D
100
AcDbVertex
100
AcDb2dVertex
 10
2061.421217310532
 20
1778.375673862215
 30
0.0
  0
VERTEX
  5
3BE
330
3BC
100
AcDbEntity
  8
Linee visibili 2D
100
AcDbVertex
100
AcDb2dVertex
 10
1771.302707042745
 20
1778.375673862215
 30
0.0
  0
VERTEX
  5
3BF
330
3BC
100
AcDbEntity
  8
Linee visibili 2D
100
AcDbVertex
100
AcDb2dVertex
 10
1771.302707042745
 20
1777.875673862215
 30
0.0
  0
VERTEX
  5
3C0
330
3BC
100
AcDbEntity
  8
Linee visibili 2D
100
AcDbVertex
100
AcDb2dVertex
 10
1780.768980762589
 20
1652.875673862215
 30
0.0
  0
SEQEND
  5
3C1
330
3BC
100
AcDbEntity
  8
Linee visibili 2D
  0
ENDSEC
  0
SECTION
  2
OBJECTS
  0
DICTIONARY
  5
C
330
0
100
AcDbDictionary
281
     1
  3
ACAD_GROUP
350
D
  3
ACAD_LAYOUT
350
1A
  3
ACAD_MLEADERSTYLE
350
3C3
  3
ACAD_MLINESTYLE
350
17
  3
ACAD_PLOTSETTINGS
350
19
  3
ACAD_PLOTSTYLENAME
350
E
  3
ACAD_TABLESTYLE
350
3C2
  3
ACAD_VISUALSTYLE
350
2A
  0
DICTIONARY
  5
D
102
{ACAD_REACTORS
330
C
102
}
330
C
100
AcDbDictionary
281
     1
  0
DICTIONARY
  5
1A
102
{ACAD_REACTORS
330
C
102
}
330
C
100
AcDbDictionary
281
     1
  3
Layout1
350
1E
  3
Layout2
350
26
  3
Model
350
22
  0
DICTIONARY
  5
3C3
102
{ACAD_REACTORS
330
C
102
}
330
C
100
AcDbDictionary
281
     1
  0
DICTIONARY
  5
17
102
{ACAD_REACTORS
330
C
102
}
330
C
100
AcDbDictionary
281
     1
  3
Standard
350
18
  0
DICTIONARY
  5
19
102
{ACAD_REACTORS
330
C
102
}
330
C
100
AcDbDictionary
281
     1
  0
ACDBDICTIONARYWDFLT
  5
E
102
{ACAD_REACTORS
330
C
102
}
330
C
100
AcDbDictionary
281
     1
  3
Normal
350
F
100
AcDbDictionaryWithDefault
340
F
  0
DICTIONARY
  5
3C2
102
{ACAD_REACTORS
330
C
102
}
330
C
100
AcDbDictionary
281
     1
  0
DICTIONARY
  5
2A
102
{ACAD_REACTORS
330
C
102
}
330
C
100
AcDbDictionary
281
     1
  3
2dWireframe
350
2F
  3
3D Hidden
350
31
  3
3dWireframe
350
30
  3
Basic
350
32
  3
Brighten
350
36
  3
ColorChange
350
3A
  3
Conceptual
350
34
  3
Dim
350
35
  3
Facepattern
350
39
  3
Flat
350
2B
  3
FlatWithEdges
350
2C
  3
Gouraud
350
2D
  3
GouraudWithEdges
350
2E
  3
Linepattern
350
38
  3
Realistic
350
33
  3
Thicken
350
37
  0
LAYOUT
  5
1E
102
{ACAD_REACTORS
330
1A
102
}
330
1A
100
AcDbPlotSettings
  1

  2
none_device
  4

  6

 40
0.0
 41
0.0
 42
0.0
 43
0.0
 44
0.0
 45
0.0
 46
0.0
 47
0.0
 48
0.0
 49
0.0
140
0.0
141
0.0
142
1.0
143
1.0
 70
   688
 72
     0
 73
     0
 74
     5
  7

 75
    16
 76
     0
 77
     2
 78
   300
147
1.0
148
0.0
149
0.0
100
AcDbLayout
  1
Layout1
 70
     1
 71
     1
 10
0.0
 20
0.0
 11
12.0
 21
9.0
 12
0.0
 22
0.0
 32
0.0
 14
1.000000000000000E+20
 24
1.000000000000000E+20
 34
1.000000000000000E+20
 15
-1.000000000000000E+20
 25
-1.000000000000000E+20
 35
-1.000000000000000E+20
146
0.0
 13
0.0
 23
0.0
 33
0.0
 16
1.0
 26
0.0
 36
0.0
 17
0.0
 27
1.0
 37
0.0
 76
     0
330
1B
  0
LAYOUT
  5
26
102
{ACAD_REACTORS
330
1A
102
}
330
1A
100
AcDbPlotSettings
  1

  2
none_device
  4

  6

 40
0.0
 41
0.0
 42
0.0
 43
0.0
 44
0.0
 45
0.0
 46
0.0
 47
0.0
 48
0.0
 49
0.0
140
0.0
141
0.0
142
1.0
143
1.0
 70
   688
 72
     0
 73
     0
 74
     5
  7

 75
    16
 76
     0
 77
     2
 78
   300
147
1.0
148
0.0
149
0.0
100
AcDbLayout
  1
Layout2
 70
     1
 71
     2
 10
0.0
 20
0.0
 11
0.0
 21
0.0
 12
0.0
 22
0.0
 32
0.0
 14
0.0
 24
0.0
 34
0.0
 15
0.0
 25
0.0
 35
0.0
146
0.0
 13
0.0
 23
0.0
 33
0.0
 16
1.0
 26
0.0
 36
0.0
 17
0.0
 27
1.0
 37
0.0
 76
     0
330
23
  0
LAYOUT
  5
22
102
{ACAD_REACTORS
330
1A
102
}
330
1A
100
AcDbPlotSettings
  1

  2
none_device
  4

  6

 40
0.0
 41
0.0
 42
0.0
 43
0.0
 44
0.0
 45
0.0
 46
0.0
 47
0.0
 48
0.0
 49
0.0
140
0.0
141
0.0
142
1.0
143
1.0
 70
  1712
 72
     0
 73
     0
 74
     0
  7

 75
     0
 76
     0
 77
     2
 78
   300
147
1.0
148
0.0
149
0.0
100
AcDbLayout
  1
Model
 70
     1
 71
     0
 10
0.0
 20
0.0
 11
12.0
 21
9.0
 12
0.0
 22
0.0
 32
0.0
 14
-606.0000000000006
 24
-375.6253436448415
 34
0.0
 15
2781.248974402885
 25
2879.765147320485
 35
0.0
146
0.0
 13
0.0
 23
0.0
 33
0.0
 16
1.0
 26
0.0
 36
0.0
 17
0.0
 27
1.0
 37
0.0
 76
     0
330
1F
331
29
  0
MLINESTYLE
  5
18
102
{ACAD_REACTORS
330
17
102
}
330
17
100
AcDbMlineStyle
  2
Standard
 70
     0
  3

 62
   256
 51
90.0
 52
90.0
 71
     2
 49
0.5
 62
   256
  6
BYLAYER
 49
-0.5
 62
   256
  6
BYLAYER
  0
ACDBPLACEHOLDER
  5
F
102
{ACAD_REACTORS
330
E
102
}
330
E
  0
VISUALSTYLE
  5
2F
102
{ACAD_REACTORS
330
2A
102
}
330
2A
100
AcDbVisualStyle
  2
2dWireframe
 70
     4
 71
     0
 72
     2
 73
     0
 90
        0
 40
-0.6
 41
-30.0
 62
     5
 63
     7
421
 16777215
 74
     1
 91
        4
 64
     7
 65
   257
 75
     1
175
     1
 42
1.0
 92
        0
 66
   257
 43
1.0
 76
     1
 77
     6
 78
     2
 67
     7
 79
     5
170
     0
171
     0
290
     0
174
     0
 93
        1
 44
0.0
173
     0
291
     0
 45
0.0
1001
ACAD
1000
AcDbSavedByObjectVersion
1070
     0
  0
VISUALSTYLE
  5
31
102
{ACAD_REACTORS
330
2A
102
}
330
2A
100
AcDbVisualStyle
  2
3D Hidden
 70
     6
 71
     1
 72
     2
 73
     2
 90
        0
 40
-0.6
 41
-30.0
 62
     5
 63
     7
421
 16777215
 74
     2
 91
        2
 64
     7
 65
   257
 75
     2
175
     1
 42
40.0
 92
        0
 66
   257
 43
1.0
 76
     1
 77
     6
 78
     2
 67
     7
 79
     3
170
     0
171
     0
290
     0
174
     0
 93
        1
 44
0.0
173
     0
291
     0
 45
0.0
1001
ACAD
1000
AcDbSavedByObjectVersion
1070
     0
  0
VISUALSTYLE
  5
30
102
{ACAD_REACTORS
330
2A
102
}
330
2A
100
AcDbVisualStyle
  2
3dWireframe
 70
     5
 71
     0
 72
     2
 73
     0
 90
        0
 40
-0.6
 41
-30.0
 62
     5
 63
     7
421
 16777215
 74
     1
 91
        4
 64
     7
 65
   257
 75
     1
175
     1
 42
1.0
 92
        0
 66
   257
 43
1.0
 76
     1
 77
     6
 78
     2
 67
     7
 79
     5
170
     0
171
     0
290
     0
174
     0
 93
        1
 44
0.0
173
     0
291
     0
 45
0.0
1001
ACAD
1000
AcDbSavedByObjectVersion
1070
     0
  0
VISUALSTYLE
  5
32
102
{ACAD_REACTORS
330
2A
102
}
330
2A
100
AcDbVisualStyle
  2
Basic
 70
     7
 71
     1
 72
     0
 73
     1
 90
        0
 40
-0.6
 41
-30.0
 62
     5
 63
     7
421
 16777215
 74
     0
 91
        4
 64
     7
 65
   257
 75
     1
175
     1
 42
1.0
 92
        8
 66
     7
 43
1.0
 76
     1
 77
     6
 78
     2
 67
     7
 79
     5
170
     0
171
     0
290
     0
174
     0
 93
        1
 44
0.0
173
     0
291
     1
 45
0.0
1001
ACAD
1000
AcDbSavedByObjectVersion
1070
     0
  0
VISUALSTYLE
  5
36
102
{ACAD_REACTORS
330
2A
102
}
330
2A
100
AcDbVisualStyle
  2
Brighten
 70
    12
 71
     2
 72
     2
 73
     0
 90
        0
 40
-0.6
 41
-30.0
 62
     5
 63
     7
421
 16777215
 74
     1
 91
        4
 64
     7
 65
   257
 75
     1
175
     1
 42
1.0
 92
        8
 66
     7
 43
1.0
 76
     1
 77
     6
 78
     2
 67
     7
 79
     5
170
     0
171
     0
290
     0
174
     0
 93
        1
 44
50.0
173
     0
291
     1
 45
0.0
1001
ACAD
1000
AcDbSavedByObjectVersion
1070
     0
  0
VISUALSTYLE
  5
3A
102
{ACAD_REACTORS
330
2A
102
}
330
2A
100
AcDbVisualStyle
  2
ColorChange
 70
    16
 71
     2
 72
     2
 73
     3
 90
        0
 40
-0.6
 41
-30.0
 62
     5
 63
     8
421
  8421504
 74
     1
 91
        4
 64
     7
 65
   257
 75
     1
175
     1
 42
1.0
 92
        8
 66
     8
424
  8421504
 43
1.0
 76
     1
 77
     6
 78
     2
 67
     7
 79
     5
170
     0
171
     0
290
     0
174
     0
 93
        1
 44
0.0
173
     0
291
     1
 45
0.0
1001
ACAD
1000
AcDbSavedByObjectVersion
1070
     0
  0
VISUALSTYLE
  5
34
102
{ACAD_REACTORS
330
2A
102
}
330
2A
100
AcDbVisualStyle
  2
Conceptual
 70
     9
 71
     3
 72
     2
 73
     0
 90
        0
 40
-0.6
 41
-30.0
 62
     5
 63
     7
421
 16777215
 74
     2
 91
        2
 64
     7
 65
   257
 75
     1
175
     1
 42
40.0
 92
        8
 66
     7
 43
1.0
 76
     1
 77
     6
 78
     2
 67
     7
 79
     3
170
     0
171
     0
290
     0
174
     0
 93
        1
 44
0.0
173
     0
291
     0
 45
0.0
1001
ACAD
1000
AcDbSavedByObjectVersion
1070
     0
  0
VISUALSTYLE
  5
35
102
{ACAD_REACTORS
330
2A
102
}
330
2A
100
AcDbVisualStyle
  2
Dim
 70
    11
 71
     2
 72
     2
 73
     0
 90
        0
 40
-0.6
 41
-30.0
 62
     5
 63
     7
421
 16777215
 74
     1
 91
        4
 64
     7
 65
   257
 75
     1
175
     1
 42
1.0
 92
        8
 66
     7
 43
1.0
 76
     1
 77
     6
 78
     2
 67
     7
 79
     5
170
     0
171
     0
290
     0
174
     0
 93
        1
 44
-50.0
173
     0
291
     1
 45
0.0
1001
ACAD
1000
AcDbSavedByObjectVersion
1070
     0
  0
VISUALSTYLE
  5
39
102
{ACAD_REACTORS
330
2A
102
}
330
2A
100
AcDbVisualStyle
  2
Facepattern
 70
    15
 71
     2
 72
     2
 73
     0
 90
        0
 40
-0.6
 41
-30.0
 62
     5
 63
     7
421
 16777215
 74
     1
 91
        4
 64
     7
 65
   257
 75
     1
175
     1
 42
1.0
 92
        8
 66
     7
 43
1.0
 76
     1
 77
     6
 78
     2
 67
     7
 79
     5
170
     0
171
     0
290
     0
174
     0
 93
        1
 44
0.0
173
     0
291
     1
 45
0.0
1001
ACAD
1000
AcDbSavedByObjectVersion
1070
     0
  0
VISUALSTYLE
  5
2B
102
{ACAD_REACTORS
330
2A
102
}
330
2A
100
AcDbVisualStyle
  2
Flat
 70
     0
 71
     2
 72
     1
 73
     1
 90
        2
 40
-0.6
 41
30.0
 62
     5
 63
     7
421
 16777215
 74
     0
 91
        4
 64
     7
 65
   257
 75
     1
175
     1
 42
1.0
 92
        8
 66
     7
 43
1.0
 76
     1
 77
     6
 78
     2
 67
     7
 79
     5
170
     0
171
     0
290
     0
174
     0
 93
       13
 44
0.0
173
     0
291
     1
 45
0.0
1001
ACAD
1000
AcDbSavedByObjectVersion
1070
     0
  0
VISUALSTYLE
  5
2C
102
{ACAD_REACTORS
330
2A
102
}
330
2A
100
AcDbVisualStyle
  2
FlatWithEdges
 70
     1
 71
     2
 72
     1
 73
     1
 90
        2
 40
-0.6
 41
30.0
 62
     5
 63
     7
421
 16777215
 74
     1
 91
        4
 64
     7
 65
   257
 75
     1
175
     1
 42
1.0
 92
        0
 66
   257
 43
1.0
 76
     1
 77
     6
 78
     2
 67
     7
 79
     5
170
     0
171
     0
290
     0
174
     0
 93
       13
 44
0.0
173
     0
291
     1
 45
0.0
1001
ACAD
1000
AcDbSavedByObjectVersion
1070
     0
  0
VISUALSTYLE
  5
2D
102
{ACAD_REACTORS
330
2A
102
}
330
2A
100
AcDbVisualStyle
  2
Gouraud
 70
     2
 71
     2
 72
     2
 73
     1
 90
        2
 40
-0.6
 41
30.0
 62
     5
 63
     7
421
 16777215
 74
     0
 91
        4
 64
     7
 65
   257
 75
     1
175
     1
 42
1.0
 92
        0
 66
     7
 43
1.0
 76
     1
 77
     6
 78
     2
 67
     7
 79
     5
170
     0
171
     0
290
     0
174
     0
 93
       13
 44
0.0
173
     0
291
     1
 45
0.0
1001
ACAD
1000
AcDbSavedByObjectVersion
1070
     0
  0
VISUALSTYLE
  5
2E
102
{ACAD_REACTORS
330
2A
102
}
330
2A
100
AcDbVisualStyle
  2
GouraudWithEdges
 70
     3
 71
     2
 72
     2
 73
     1
 90
        2
 40
-0.6
 41
30.0
 62
     5
 63
     7
421
 16777215
 74
     1
 91
        4
 64
     7
 65
   257
 75
     1
175
     1
 42
1.0
 92
        0
 66
   257
 43
1.0
 76
     1
 77
     6
 78
     2
 67
     7
 79
     5
170
     0
171
     0
290
     0
174
     0
 93
       13
 44
0.0
173
     0
291
     1
 45
0.0
1001
ACAD
1000
AcDbSavedByObjectVersion
1070
     0
  0
VISUALSTYLE
  5
38
102
{ACAD_REACTORS
330
2A
102
}
330
2A
100
AcDbVisualStyle
  2
Linepattern
 70
    14
 71
     2
 72
     2
 73
     0
 90
        0
 40
-0.6
 41
-30.0
 62
     5
 63
     7
421
 16777215
 74
     1
 91
        4
 64
     7
 65
   257
 75
     7
175
     7
 42
1.0
 92
        8
 66
     7
 43
1.0
 76
     1
 77
     6
 78
     2
 67
     7
 79
     5
170
     0
171
     0
290
     0
174
     0
 93
        1
 44
0.0
173
     0
291
     1
 45
0.0
1001
ACAD
1000
AcDbSavedByObjectVersion
1070
     0
  0
VISUALSTYLE
  5
33
102
{ACAD_REACTORS
330
2A
102
}
330
2A
100
AcDbVisualStyle
  2
Realistic
 70
     8
 71
     2
 72
     2
 73
     0
 90
        0
 40
-0.6
 41
-30.0
 62
     5
 63
     7
421
 16777215
 74
     1
 91
        0
 64
     7
 65
   257
 75
     1
175
     1
 42
1.0
 92
        8
 66
     8
424
  7895160
 43
1.0
 76
     1
 77
     6
 78
     2
 67
     7
 79
     5
170
     0
171
     0
290
     0
174
     0
 93
       13
 44
0.0
173
     0
291
     0
 45
0.0
1001
ACAD
1000
AcDbSavedByObjectVersion
1070
     0
  0
VISUALSTYLE
  5
37
102
{ACAD_REACTORS
330
2A
102
}
330
2A
100
AcDbVisualStyle
  2
Thicken
 70
    13
 71
     2
 72
     2
 73
     0
 90
        0
 40
-0.6
 41
-30.0
 62
     5
 63
     7
421
 16777215
 74
     1
 91
        4
 64
     7
 65
   257
 75
     1
175
     1
 42
1.0
 92
       12
 66
     7
 43
1.0
 76
     1
 77
     6
 78
     2
 67
     7
 79
     5
170
     0
171
     0
290
     0
174
     0
 93
        1
 44
0.0
173
     0
291
     1
 45
0.0
1001
ACAD
1000
AcDbSavedByObjectVersion
1070
     0
  0
ENDSEC
  0
EOF
