  0
SECTION
  2
HEADER
  9
$ACADVER
  1
AC1018
  9
$ACADMAINTVER
 70
     0
  9
$DWGCODEPAGE
  3
ANSI_1252
  9
$INSBASE
 10
0.0
 20
0.0
 30
0.0
  9
$EXTMIN
 10
-0.0000000000000001
 20
0.0000000000000782
 30
0.0
  9
$EXTMAX
 10
852.3858047687012
 20
1116.735804768701
 30
0.0
  9
$LIMMIN
 10
0.0
 20
0.0
  9
$LIMMAX
 10
12.0
 20
9.0
  9
$ORTHOMODE
 70
     0
  9
$REGENMODE
 70
     1
  9
$FILLMODE
 70
     1
  9
$QTEXTMODE
 70
     0
  9
$MIRRTEXT
 70
     1
  9
$LTSCALE
 40
1.0
  9
$ATTMODE
 70
     1
  9
$TEXTSIZE
 40
0.2
  9
$TRACEWID
 40
0.05
  9
$TEXTSTYLE
  7
Standard
  9
$CLAYER
  8
Predefinito
  9
$CELTYPE
  6
ByLayer
  9
$CECOLOR
 62
   256
  9
$CELTSCALE
 40
1.0
  9
$DISPSILH
 70
     0
  9
$DIMSCALE
 40
1.0
  9
$DIMASZ
 40
0.18
  9
$DIMEXO
 40
0.0625
  9
$DIMDLI
 40
0.38
  9
$DIMRND
 40
0.0
  9
$DIMDLE
 40
0.0
  9
$DIMEXE
 40
0.18
  9
$DIMTP
 40
0.0
  9
$DIMTM
 40
0.0
  9
$DIMTXT
 40
0.18
  9
$DIMCEN
 40
0.09
  9
$DIMTSZ
 40
0.0
  9
$DIMTOL
 70
     0
  9
$DIMLIM
 70
     0
  9
$DIMTIH
 70
     1
  9
$DIMTOH
 70
     1
  9
$DIMSE1
 70
     0
  9
$DIMSE2
 70
     0
  9
$DIMTAD
 70
     0
  9
$DIMZIN
 70
     0
  9
$DIMBLK
  1

  9
$DIMASO
 70
     1
  9
$DIMSHO
 70
     1
  9
$DIMPOST
  1

  9
$DIMAPOST
  1

  9
$DIMALT
 70
     0
  9
$DIMALTD
 70
     2
  9
$DIMALTF
 40
25.4
  9
$DIMLFAC
 40
1.0
  9
$DIMTOFL
 70
     0
  9
$DIMTVP
 40
0.0
  9
$DIMTIX
 70
     0
  9
$DIMSOXD
 70
     0
  9
$DIMSAH
 70
     0
  9
$DIMBLK1
  1

  9
$DIMBLK2
  1

  9
$DIMSTYLE
  2
Standard
  9
$DIMCLRD
 70
     0
  9
$DIMCLRE
 70
     0
  9
$DIMCLRT
 70
     0
  9
$DIMTFAC
 40
1.0
  9
$DIMGAP
 40
0.09
  9
$DIMJUST
 70
     0
  9
$DIMSD1
 70
     0
  9
$DIMSD2
 70
     0
  9
$DIMTOLJ
 70
     1
  9
$DIMTZIN
 70
     0
  9
$DIMALTZ
 70
     0
  9
$DIMALTTZ
 70
     0
  9
$DIMUPT
 70
     0
  9
$DIMDEC
 70
     4
  9
$DIMTDEC
 70
     4
  9
$DIMALTU
 70
     2
  9
$DIMALTTD
 70
     2
  9
$DIMTXSTY
  7
Standard
  9
$DIMAUNIT
 70
     0
  9
$DIMADEC
 70
     0
  9
$DIMALTRND
 40
0.0
  9
$DIMAZIN
 70
     0
  9
$DIMDSEP
 70
    46
  9
$DIMATFIT
 70
     3
  9
$DIMFRAC
 70
     0
  9
$DIMLDRBLK
  1

  9
$DIMLUNIT
 70
     2
  9
$DIMLWD
 70
    -2
  9
$DIMLWE
 70
    -2
  9
$DIMTMOVE
 70
     2
  9
$LUNITS
 70
     2
  9
$LUPREC
 70
     3
  9
$SKETCHINC
 40
0.1
  9
$FILLETRAD
 40
0.5
  9
$AUNITS
 70
     0
  9
$AUPREC
 70
     0
  9
$MENU
  1
.
  9
$ELEVATION
 40
0.0
  9
$PELEVATION
 40
0.0
  9
$THICKNESS
 40
0.0
  9
$LIMCHECK
 70
     0
  9
$CHAMFERA
 40
0.5
  9
$CHAMFERB
 40
0.5
  9
$CHAMFERC
 40
1.0
  9
$CHAMFERD
 40
0.0
  9
$SKPOLY
 70
     0
  9
$TDCREATE
 40
2458312.655359202
  9
$TDUCREATE
 40
2458312.572025868
  9
$TDUPDATE
 40
2458312.655359213
  9
$TDUUPDATE
 40
2458312.57202588
  9
$TDINDWG
 40
0.0000000116
  9
$TDUSRTIMER
 40
0.0000000116
  9
$USRTIMER
 70
     1
  9
$ANGBASE
 50
0.0
  9
$ANGDIR
 70
     0
  9
$PDMODE
 70
     0
  9
$PDSIZE
 40
0.0
  9
$PLINEWID
 40
0.0
  9
$SPLFRAME
 70
     0
  9
$SPLINETYPE
 70
     6
  9
$SPLINESEGS
 70
     8
  9
$HANDSEED
  5
119
  9
$SURFTAB1
 70
     6
  9
$SURFTAB2
 70
     6
  9
$SURFTYPE
 70
     6
  9
$SURFU
 70
     6
  9
$SURFV
 70
     6
  9
$UCSBASE
  2

  9
$UCSNAME
  2

  9
$UCSORG
 10
0.0
 20
0.0
 30
0.0
  9
$UCSXDIR
 10
1.0
 20
0.0
 30
0.0
  9
$UCSYDIR
 10
0.0
 20
1.0
 30
0.0
  9
$UCSORTHOREF
  2

  9
$UCSORTHOVIEW
 70
     0
  9
$UCSORGTOP
 10
0.0
 20
0.0
 30
0.0
  9
$UCSORGBOTTOM
 10
0.0
 20
0.0
 30
0.0
  9
$UCSORGLEFT
 10
0.0
 20
0.0
 30
0.0
  9
$UCSORGRIGHT
 10
0.0
 20
0.0
 30
0.0
  9
$UCSORGFRONT
 10
0.0
 20
0.0
 30
0.0
  9
$UCSORGBACK
 10
0.0
 20
0.0
 30
0.0
  9
$PUCSBASE
  2

  9
$PUCSNAME
  2

  9
$PUCSORG
 10
0.0
 20
0.0
 30
0.0
  9
$PUCSXDIR
 10
1.0
 20
0.0
 30
0.0
  9
$PUCSYDIR
 10
0.0
 20
1.0
 30
0.0
  9
$PUCSORTHOREF
  2

  9
$PUCSORTHOVIEW
 70
     0
  9
$PUCSORGTOP
 10
0.0
 20
0.0
 30
0.0
  9
$PUCSORGBOTTOM
 10
0.0
 20
0.0
 30
0.0
  9
$PUCSORGLEFT
 10
0.0
 20
0.0
 30
0.0
  9
$PUCSORGRIGHT
 10
0.0
 20
0.0
 30
0.0
  9
$PUCSORGFRONT
 10
0.0
 20
0.0
 30
0.0
  9
$PUCSORGBACK
 10
0.0
 20
0.0
 30
0.0
  9
$USERI1
 70
     0
  9
$USERI2
 70
     0
  9
$USERI3
 70
     0
  9
$USERI4
 70
     0
  9
$USERI5
 70
     0
  9
$USERR1
 40
0.0
  9
$USERR2
 40
0.0
  9
$USERR3
 40
0.0
  9
$USERR4
 40
0.0
  9
$USERR5
 40
0.0
  9
$WORLDVIEW
 70
     1
  9
$SHADEDGE
 70
     3
  9
$SHADEDIF
 70
    70
  9
$TILEMODE
 70
     0
  9
$MAXACTVP
 70
    64
  9
$PINSBASE
 10
0.0
 20
0.0
 30
0.0
  9
$PLIMCHECK
 70
     0
  9
$PEXTMIN
 10
0.0
 20
0.0
 30
0.0
  9
$PEXTMAX
 10
0.0
 20
0.0
 30
0.0
  9
$PLIMMIN
 10
0.0
 20
0.0
  9
$PLIMMAX
 10
12.0
 20
9.0
  9
$UNITMODE
 70
     0
  9
$VISRETAIN
 70
     1
  9
$PLINEGEN
 70
     0
  9
$PSLTSCALE
 70
     1
  9
$TREEDEPTH
 70
  3020
  9
$CMLSTYLE
  2
Standard
  9
$CMLJUST
 70
     0
  9
$CMLSCALE
 40
1.0
  9
$PROXYGRAPHICS
 70
     1
  9
$MEASUREMENT
 70
     0
  9
$CELWEIGHT
370
    -1
  9
$ENDCAPS
280
     0
  9
$JOINSTYLE
280
     0
  9
$LWDISPLAY
290
     0
  9
$INSUNITS
 70
     4
  9
$HYPERLINKBASE
  1

  9
$STYLESHEET
  1

  9
$XEDIT
290
     1
  9
$CEPSNTYPE
380
     0
  9
$PSTYLEMODE
290
     1
  9
$FINGERPRINTGUID
  2
{34F34E0C-CC20-40C6-9564-BBFB478685BB}
  9
$VERSIONGUID
  2
{FAEB1C32-E019-11D5-929B-00C0DF256EC4}
  9
$EXTNAMES
290
     1
  9
$PSVPSCALE
 40
0.0
  9
$OLESTARTUP
290
     0
  9
$SORTENTS
280
   127
  9
$INDEXCTL
280
     0
  9
$HIDETEXT
280
     1
  9
$XCLIPFRAME
290
     0
  9
$HALOGAP
280
     0
  9
$OBSCOLOR
 70
   257
  9
$OBSLTYPE
280
     0
  9
$INTERSECTIONDISPLAY
280
     0
  9
$INTERSECTIONCOLOR
 70
   257
  9
$DIMASSOC
280
     2
  9
$PROJECTNAME
  1

  0
ENDSEC
  0
SECTION
  2
CLASSES
  0
CLASS
  1
ACDBDICTIONARYWDFLT
  2
AcDbDictionaryWithDefault
  3
ObjectDBX Classes
 90
        0
 91
        4
280
     0
281
     0
  0
CLASS
  1
VISUALSTYLE
  2
AcDbVisualStyle
  3
ObjectDBX Classes
 90
     4095
 91
        4
280
     0
281
     0
  0
CLASS
  1
SCALE
  2
AcDbScale
  3
ObjectDBX Classes
 90
     1153
 91
        4
280
     0
281
     0
  0
CLASS
  1
DICTIONARYVAR
  2
AcDbDictionaryVar
  3
ObjectDBX Classes
 90
        0
 91
        4
280
     0
281
     0
  0
ENDSEC
  0
SECTION
  2
TABLES
  0
TABLE
  2
VPORT
  5
8
330
0
100
AcDbSymbolTable
 70
     1
  0
VPORT
  5
29
330
8
100
AcDbSymbolTableRecord
100
AcDbViewportTableRecord
  2
*Active
 70
     0
 10
0.0
 20
0.0
 11
1.0
 21
1.0
 12
426.1929023843506
 22
558.3679023843506
 13
0.0
 23
0.0
 14
0.5
 24
0.5
 15
0.5
 25
0.5
 16
0.0
 26
0.0
 36
1.0
 17
0.0
 27
0.0
 37
0.0
 40
1139.070520864075
 41
0.7632833129633985
 42
50.0
 43
0.0
 44
0.0
 50
0.0
 51
0.0
 71
     0
 72
   100
 73
     1
 74
     3
 75
     0
 76
     0
 77
     0
 78
     0
281
     0
 65
     1
110
0.0
120
0.0
130
0.0
111
1.0
121
0.0
131
0.0
112
0.0
122
1.0
132
0.0
 79
     0
146
0.0
  0
ENDTAB
  0
TABLE
  2
LTYPE
  5
5
330
0
100
AcDbSymbolTable
 70
     1
  0
LTYPE
  5
14
330
5
100
AcDbSymbolTableRecord
100
AcDbLinetypeTableRecord
  2
ByBlock
 70
     0
  3

 72
    65
 73
     0
 40
0.0
  0
LTYPE
  5
15
330
5
100
AcDbSymbolTableRecord
100
AcDbLinetypeTableRecord
  2
ByLayer
 70
     0
  3

 72
    65
 73
     0
 40
0.0
  0
LTYPE
  5
16
330
5
100
AcDbSymbolTableRecord
100
AcDbLinetypeTableRecord
  2
Continuous
 70
     0
  3
Solid line
 72
    65
 73
     0
 40
0.0
  0
ENDTAB
  0
TABLE
  2
LAYER
  5
2
330
0
100
AcDbSymbolTable
 70
     2
  0
LAYER
  5
10
330
2
100
AcDbSymbolTableRecord
100
AcDbLayerTableRecord
  2
0
 70
     0
 62
     7
  6
Continuous
370
    -3
390
F
  0
LAYER
  5
3B
330
2
100
AcDbSymbolTableRecord
100
AcDbLayerTableRecord
  2
Predefinito
 70
     0
 62
     7
  6
Continuous
370
    -3
390
F
  0
ENDTAB
  0
TABLE
  2
STYLE
  5
3
330
0
100
AcDbSymbolTable
 70
     1
  0
STYLE
  5
11
330
3
100
AcDbSymbolTableRecord
100
AcDbTextStyleTableRecord
  2
Standard
 70
     0
 40
0.0
 41
1.0
 50
0.0
 71
     0
 42
0.2
  3
txt
  4

  0
ENDTAB
  0
TABLE
  2
VIEW
  5
6
330
0
100
AcDbSymbolTable
 70
     0
  0
ENDTAB
  0
TABLE
  2
UCS
  5
7
330
0
100
AcDbSymbolTable
 70
     0
  0
ENDTAB
  0
TABLE
  2
APPID
  5
9
330
0
100
AcDbSymbolTable
 70
     1
  0
APPID
  5
12
330
9
100
AcDbSymbolTableRecord
100
AcDbRegAppTableRecord
  2
ACAD
 70
     0
  0
ENDTAB
  0
TABLE
  2
DIMSTYLE
  5
A
330
0
100
AcDbSymbolTable
 70
     1
100
AcDbDimStyleTable
  0
DIMSTYLE
105
27
330
A
100
AcDbSymbolTableRecord
100
AcDbDimStyleTableRecord
  2
Standard
 70
     0
340
11
  0
ENDTAB
  0
TABLE
  2
BLOCK_RECORD
  5
1
330
0
100
AcDbSymbolTable
 70
     3
  0
BLOCK_RECORD
  5
1F
330
1
100
AcDbSymbolTableRecord
100
AcDbBlockTableRecord
  2
*Model_Space
340
22
  0
BLOCK_RECORD
  5
EE
330
1
100
AcDbSymbolTableRecord
100
AcDbBlockTableRecord
  2
*Paper_Space
340
EF
  0
BLOCK_RECORD
  5
23
330
1
100
AcDbSymbolTableRecord
100
AcDbBlockTableRecord
  2
*Paper_Space0
340
26
  0
BLOCK_RECORD
  5
1B
330
1
100
AcDbSymbolTableRecord
100
AcDbBlockTableRecord
  2
*Paper_Space1
340
1E
  0
BLOCK_RECORD
  5
E9
330
1
100
AcDbSymbolTableRecord
100
AcDbBlockTableRecord
  2
*Paper_Space2
340
EA
  0
ENDTAB
  0
ENDSEC
  0
SECTION
  2
BLOCKS
  0
BLOCK
  5
20
330
1F
100
AcDbEntity
  8
0
100
AcDbBlockBegin
  2
*Model_Space
 70
     0
 10
0.0
 20
0.0
 30
0.0
  3
*Model_Space
  1

  0
ENDBLK
  5
21
330
1F
100
AcDbEntity
  8
0
100
AcDbBlockEnd
  0
BLOCK
  5
F0
330
EE
100
AcDbEntity
 67
     1
  8
0
100
AcDbBlockBegin
  2
*Paper_Space
 70
     0
 10
0.0
 20
0.0
 30
0.0
  3
*Paper_Space
  1

  0
ENDBLK
  5
F1
330
EE
100
AcDbEntity
 67
     1
  8
0
100
AcDbBlockEnd
  0
BLOCK
  5
24
330
23
100
AcDbEntity
  8
0
100
AcDbBlockBegin
  2
*Paper_Space0
 70
     0
 10
0.0
 20
0.0
 30
0.0
  3
*Paper_Space0
  1

  0
ENDBLK
  5
25
330
23
100
AcDbEntity
  8
0
100
AcDbBlockEnd
  0
BLOCK
  5
1C
330
1B
100
AcDbEntity
  8
0
100
AcDbBlockBegin
  2
*Paper_Space1
 70
     0
 10
0.0
 20
0.0
 30
0.0
  3
*Paper_Space1
  1

  0
ENDBLK
  5
1D
330
1B
100
AcDbEntity
  8
0
100
AcDbBlockEnd
  0
BLOCK
  5
EB
330
E9
100
AcDbEntity
  8
0
100
AcDbBlockBegin
  2
*Paper_Space2
 70
     0
 10
0.0
 20
0.0
 30
0.0
  3
*Paper_Space2
  1

  0
VIEWPORT
  5
ED
330
E9
100
AcDbEntity
  8
0
100
AcDbViewport
 10
6.0
 20
4.5
 30
0.0
 40
12.696
 41
9.522
 68
     1
 69
     1
 12
6.0
 22
4.5
 13
0.0
 23
0.0
 14
0.5
 24
0.5
 15
0.5
 25
0.5
 16
0.0
 26
0.0
 36
1.0
 17
0.0
 27
0.0
 37
0.0
 42
50.0
 43
0.0
 44
0.0
 45
9.522
 50
0.0
 51
0.0
 72
   100
 90
   557152
  1

281
     0
 71
     1
 74
     0
110
0.0
120
0.0
130
0.0
111
1.0
121
0.0
131
0.0
112
0.0
122
1.0
132
0.0
 79
     0
146
0.0
170
     0
  0
ENDBLK
  5
EC
330
E9
100
AcDbEntity
  8
0
100
AcDbBlockEnd
  0
ENDSEC
  0
SECTION
  2
ENTITIES
  0
SPLINE
  5
3C
330
1F
100
AcDbEntity
  8
Predefinito
100
AcDbSpline
210
0.0
220
0.0
230
1.0
 70
    24
 71
     2
 72
     6
 73
     3
 74
     0
 42
0.0000000001
 43
0.0000000001
 40
0.0
 40
0.0
 40
0.0
 40
400.0
 40
400.0
 40
400.0
 10
789.8660390865086
 20
32.5
 30
0.0
 10
789.8660390865086
 20
232.5
 30
0.0
 10
789.8660390865086
 20
432.5
 30
0.0
  0
SPLINE
  5
3D
330
1F
100
AcDbEntity
  8
Predefinito
100
AcDbSpline
210
0.0
220
0.0
230
1.0
 70
    24
 71
     2
 72
     6
 73
     3
 74
     0
 42
0.0000000001
 43
0.0000000001
 40
0.0
 40
0.0
 40
0.0
 40
400.0
 40
400.0
 40
400.0
 10
789.3662830484651
 20
432.5
 30
0.0
 10
789.3662830484651
 20
232.5
 30
0.0
 10
789.3662830484651
 20
32.5
 30
0.0
  0
SPLINE
  5
3E
330
1F
100
AcDbEntity
  8
Predefinito
100
AcDbSpline
210
0.0
220
0.0
230
1.0
 70
    12
 71
     2
 72
     8
 73
     5
 74
     0
 42
0.0000000001
 43
0.0000000001
 40
0.0
 40
0.0
 40
0.0
 40
20.45101689477315
 40
20.45101689477315
 40
40.90203378954644
 40
40.90203378954644
 40
40.90203378954644
 10
789.3662830484651
 20
432.5
 30
0.0
 41
1.0
 10
789.3662830484652
 20
445.5195217202359
 30
0.0
 41
0.7071067811865537
 10
802.3858047687012
 20
445.5195217202361
 30
0.0
 41
1.0
 10
815.4053264889376
 20
445.5195217202363
 30
0.0
 41
0.7071067811865351
 10
815.4053264889372
 20
432.5
 30
0.0
 41
1.0
  0
SPLINE
  5
3F
330
1F
100
AcDbEntity
  8
Predefinito
100
AcDbSpline
210
0.0
220
0.0
230
1.0
 70
    12
 71
     2
 72
     8
 73
     5
 74
     0
 42
0.0000000001
 43
0.0000000001
 40
0.0
 40
0.0
 40
0.0
 40
19.66600194592081
 40
19.66600194592081
 40
39.33200389184155
 40
39.33200389184155
 40
39.33200389184155
 10
789.8660390865086
 20
432.5
 30
0.0
 41
1.0
 10
789.8660390865089
 20
445.0197656821924
 30
0.0
 41
0.7071067811865588
 10
802.3858047687011
 20
445.0197656821926
 30
0.0
 41
1.0
 10
814.9055704508937
 20
445.0197656821925
 30
0.0
 41
0.7071067811865379
 10
814.9055704508935
 20
432.5
 30
0.0
 41
1.0
  0
SPLINE
  5
40
330
1F
100
AcDbEntity
  8
Predefinito
100
AcDbSpline
210
0.0
220
0.0
230
1.0
 70
    12
 71
     2
 72
     8
 73
     5
 74
     0
 42
0.0000000001
 43
0.0000000001
 40
0.0
 40
0.0
 40
0.0
 40
19.66600194592078
 40
19.66600194592078
 40
39.3320038918415
 40
39.3320038918415
 40
39.3320038918415
 10
814.9055704508936
 20
32.5
 30
0.0
 41
1.0
 10
814.9055704508937
 20
19.9802343178074
 30
0.0
 41
0.7071067811865394
 10
802.3858047687012
 20
19.98023431780751
 30
0.0
 41
1.0
 10
789.8660390865087
 20
19.98023431780763
 30
0.0
 41
0.7071067811865541
 10
789.8660390865086
 20
32.5
 30
0.0
 41
1.0
  0
SPLINE
  5
41
330
1F
100
AcDbEntity
  8
Predefinito
100
AcDbSpline
210
0.0
220
0.0
230
1.0
 70
    12
 71
     2
 72
     8
 73
     5
 74
     0
 42
0.0000000001
 43
0.0000000001
 40
0.0
 40
0.0
 40
0.0
 40
20.45101689477318
 40
20.45101689477318
 40
40.90203378954628
 40
40.90203378954628
 40
40.90203378954628
 10
815.4053264889372
 20
32.5
 30
0.0
 41
1.0
 10
815.4053264889372
 20
19.480478279764
 30
0.0
 41
0.7071067811865527
 10
802.3858047687012
 20
19.48047827976389
 30
0.0
 41
1.0
 10
789.3662830484653
 20
19.48047827976407
 30
0.0
 41
0.7071067811865535
 10
789.3662830484651
 20
32.5
 30
0.0
 41
1.0
  0
SPLINE
  5
42
330
1F
100
AcDbEntity
  8
Predefinito
100
AcDbSpline
210
0.0
220
0.0
230
1.0
 70
    24
 71
     2
 72
     6
 73
     3
 74
     0
 42
0.0000000001
 43
0.0000000001
 40
0.0
 40
0.0
 40
0.0
 40
400.0
 40
400.0
 40
400.0
 10
814.9055704508936
 20
432.5
 30
0.0
 10
814.9055704508936
 20
232.5
 30
0.0
 10
814.9055704508936
 20
32.5
 30
0.0
  0
SPLINE
  5
43
330
1F
100
AcDbEntity
  8
Predefinito
100
AcDbSpline
210
0.0
220
0.0
230
1.0
 70
    24
 71
     2
 72
     6
 73
     3
 74
     0
 42
0.0000000001
 43
0.0000000001
 40
0.0
 40
0.0
 40
0.0
 40
400.0
 40
400.0
 40
400.0
 10
815.4053264889372
 20
32.5
 30
0.0
 10
815.4053264889372
 20
232.5
 30
0.0
 10
815.4053264889372
 20
432.5
 30
0.0
  0
SPLINE
  5
44
330
1F
100
AcDbEntity
  8
Predefinito
100
AcDbSpline
210
0.0
220
0.0
230
1.0
 70
    24
 71
     2
 72
     6
 73
     3
 74
     0
 42
0.0000000001
 43
0.0000000001
 40
0.0
 40
0.0
 40
0.0
 40
400.0
 40
400.0
 40
400.0
 10
770.1860487306577
 20
32.5
 30
0.0
 10
770.1860487306577
 20
232.5
 30
0.0
 10
770.1860487306577
 20
432.5
 30
0.0
  0
SPLINE
  5
45
330
1F
100
AcDbEntity
  8
Predefinito
100
AcDbSpline
210
0.0
220
0.0
230
1.0
 70
    24
 71
     2
 72
     6
 73
     3
 74
     0
 42
0.0000000001
 43
0.0000000001
 40
0.0
 40
0.0
 40
0.0
 40
400.0
 40
400.0
 40
400.0
 10
769.8858047687012
 20
432.5
 30
0.0
 10
769.8858047687012
 20
232.5
 30
0.0
 10
769.8858047687012
 20
32.5
 30
0.0
  0
SPLINE
  5
46
330
1F
100
AcDbEntity
  8
Predefinito
100
AcDbSpline
210
0.0
220
0.0
230
1.0
 70
    12
 71
     2
 72
     8
 73
     5
 74
     0
 42
0.0000000001
 43
0.0000000001
 40
0.0
 40
0.0
 40
0.0
 40
51.05088062083419
 40
51.05088062083419
 40
102.1017612416684
 40
102.1017612416684
 40
102.1017612416684
 10
769.8858047687012
 20
432.5
 30
0.0
 41
1.0
 10
769.8858047687012
 20
465.0000000000002
 30
0.0
 41
0.707106781186545
 10
802.3858047687012
 20
465.0
 30
0.0
 41
1.0
 10
834.8858047687013
 20
465.0000000000001
 30
0.0
 41
0.707106781186545
 10
834.8858047687012
 20
432.5
 30
0.0
 41
1.0
  0
SPLINE
  5
47
330
1F
100
AcDbEntity
  8
Predefinito
100
AcDbSpline
210
0.0
220
0.0
230
1.0
 70
    12
 71
     2
 72
     8
 73
     5
 74
     0
 42
0.0000000001
 43
0.0000000001
 40
0.0
 40
0.0
 40
0.0
 40
50.57925850825063
 40
50.57925850825063
 40
101.158517016501
 40
101.158517016501
 40
101.158517016501
 10
834.5855608067448
 20
432.5
 30
0.0
 41
1.0
 10
834.5855608067448
 20
464.6997560380436
 30
0.0
 41
0.7071067811865457
 10
802.3858047687013
 20
464.6997560380435
 30
0.0
 41
1.0
 10
770.186048730658
 20
464.6997560380432
 30
0.0
 41
0.7071067811865512
 10
770.1860487306578
 20
432.5
 30
0.0
 41
1.0
  0
SPLINE
  5
48
330
1F
100
AcDbEntity
  8
Predefinito
100
AcDbSpline
210
0.0
220
0.0
230
1.0
 70
    12
 71
     2
 72
     8
 73
     5
 74
     0
 42
0.0000000001
 43
0.0000000001
 40
0.0
 40
0.0
 40
0.0
 40
50.5792585082504
 40
50.5792585082504
 40
101.1585170165011
 40
101.1585170165011
 40
101.1585170165011
 10
770.1860487306577
 20
32.5
 30
0.0
 41
1.0
 10
770.1860487306578
 20
0.300243961956661
 30
0.0
 41
0.7071067811865501
 10
802.3858047687012
 20
0.3002439619565465
 30
0.0
 41
1.0
 10
834.5855608067451
 20
0.3002439619561402
 30
0.0
 41
0.7071067811865401
 10
834.5855608067448
 20
32.5
 30
0.0
 41
1.0
  0
SPLINE
  5
49
330
1F
100
AcDbEntity
  8
Predefinito
100
AcDbSpline
210
0.0
220
0.0
230
1.0
 70
    12
 71
     2
 72
     8
 73
     5
 74
     0
 42
0.0000000001
 43
0.0000000001
 40
0.0
 40
0.0
 40
0.0
 40
51.05088062083411
 40
51.05088062083411
 40
102.1017612416682
 40
102.1017612416682
 40
102.1017612416682
 10
834.8858047687012
 20
32.5
 30
0.0
 41
1.0
 10
834.8858047687012
 20
-0.0000000000000307
 30
0.0
 41
0.7071067811865459
 10
802.3858047687012
 20
0.0000000000000782
 30
0.0
 41
1.0
 10
769.8858047687012
 20
0.0
 30
0.0
 41
0.7071067811865475
 10
769.8858047687012
 20
32.5
 30
0.0
 41
1.0
  0
SPLINE
  5
4A
330
1F
100
AcDbEntity
  8
Predefinito
100
AcDbSpline
210
0.0
220
0.0
230
1.0
 70
    24
 71
     2
 72
     6
 73
     3
 74
     0
 42
0.0000000001
 43
0.0000000001
 40
0.0
 40
0.0
 40
0.0
 40
400.0
 40
400.0
 40
400.0
 10
834.5855608067448
 20
432.5
 30
0.0
 10
834.5855608067448
 20
232.5
 30
0.0
 10
834.5855608067446
 20
32.5
 30
0.0
  0
SPLINE
  5
4B
330
1F
100
AcDbEntity
  8
Predefinito
100
AcDbSpline
210
0.0
220
0.0
230
1.0
 70
    24
 71
     2
 72
     6
 73
     3
 74
     0
 42
0.0000000001
 43
0.0000000001
 40
0.0
 40
0.0
 40
0.0
 40
400.0
 40
400.0
 40
400.0
 10
834.8858047687012
 20
32.5
 30
0.0
 10
834.8858047687012
 20
232.5
 30
0.0
 10
834.8858047687012
 20
432.5
 30
0.0
  0
SPLINE
  5
4C
330
1F
100
AcDbEntity
  8
Predefinito
100
AcDbSpline
210
0.0
220
0.0
230
1.0
 70
    24
 71
     2
 72
     6
 73
     3
 74
     0
 42
0.0000000001
 43
0.0000000001
 40
0.0
 40
0.0
 40
0.0
 40
7.5
 40
7.5
 40
7.5
 10
834.8858047687012
 20
120.5
 30
0.0
 10
838.6358047687012
 20
120.5
 30
0.0
 10
842.3858047687012
 20
120.5
 30
0.0
  0
SPLINE
  5
4D
330
1F
100
AcDbEntity
  8
Predefinito
100
AcDbSpline
210
0.0
220
0.0
230
1.0
 70
    24
 71
     2
 72
     6
 73
     3
 74
     0
 42
0.0000000001
 43
0.0000000001
 40
0.0
 40
0.0
 40
0.0
 40
7.5
 40
7.5
 40
7.5
 10
834.8858047687012
 20
120.0
 30
0.0
 10
838.6358047687012
 20
120.0
 30
0.0
 10
842.3858047687012
 20
120.0
 30
0.0
  0
SPLINE
  5
4E
330
1F
100
AcDbEntity
  8
Predefinito
100
AcDbSpline
210
0.0
220
0.0
230
1.0
 70
    12
 71
     2
 72
     6
 73
     3
 74
     0
 42
0.0000000001
 43
0.0000000001
 40
0.0
 40
0.0
 40
0.0
 40
14.92256510455153
 40
14.92256510455153
 40
14.92256510455153
 10
842.3858047687012
 20
120.5
 30
0.0
 41
1.0
 10
851.8858047687013
 20
120.4999999999999
 30
0.0
 41
0.7071067811865369
 10
851.8858047687011
 20
130.0
 30
0.0
 41
1.0
  0
SPLINE
  5
4F
330
1F
100
AcDbEntity
  8
Predefinito
100
AcDbSpline
210
0.0
220
0.0
230
1.0
 70
    12
 71
     2
 72
     6
 73
     3
 74
     0
 42
0.0000000001
 43
0.0000000001
 40
0.0
 40
0.0
 40
0.0
 40
15.70796326794916
 40
15.70796326794916
 40
15.70796326794916
 10
852.3858047687012
 20
130.0
 30
0.0
 41
1.0
 10
852.3858047687015
 20
119.9999999999997
 30
0.0
 41
0.7071067811865345
 10
842.3858047687012
 20
119.9999999999999
 30
0.0
 41
1.0
  0
SPLINE
  5
50
330
1F
100
AcDbEntity
  8
Predefinito
100
AcDbSpline
210
0.0
220
0.0
230
1.0
 70
    24
 71
     2
 72
     6
 73
     3
 74
     0
 42
0.0000000001
 43
0.0000000001
 40
0.0
 40
0.0
 40
0.0
 40
205.0
 40
205.0
 40
205.0
 10
851.8858047687012
 20
130.0
 30
0.0
 10
851.8858047687012
 20
232.5
 30
0.0
 10
851.8858047687012
 20
335.0
 30
0.0
  0
SPLINE
  5
51
330
1F
100
AcDbEntity
  8
Predefinito
100
AcDbSpline
210
0.0
220
0.0
230
1.0
 70
    24
 71
     2
 72
     6
 73
     3
 74
     0
 42
0.0000000001
 43
0.0000000001
 40
0.0
 40
0.0
 40
0.0
 40
205.0
 40
205.0
 40
205.0
 10
852.3858047687012
 20
130.0
 30
0.0
 10
852.3858047687012
 20
232.5
 30
0.0
 10
852.3858047687012
 20
335.0
 30
0.0
  0
SPLINE
  5
52
330
1F
100
AcDbEntity
  8
Predefinito
100
AcDbSpline
210
0.0
220
0.0
230
1.0
 70
    12
 71
     2
 72
     6
 73
     3
 74
     0
 42
0.0000000001
 43
0.0000000001
 40
0.0
 40
0.0
 40
0.0
 40
14.92256510455163
 40
14.92256510455163
 40
14.92256510455163
 10
851.8858047687012
 20
335.0
 30
0.0
 41
1.0
 10
851.8858047687014
 20
344.5000000000002
 30
0.0
 41
0.7071067811865434
 10
842.3858047687012
 20
344.5000000000001
 30
0.0
 41
1.0
  0
SPLINE
  5
53
330
1F
100
AcDbEntity
  8
Predefinito
100
AcDbSpline
210
0.0
220
0.0
230
1.0
 70
    12
 71
     2
 72
     6
 73
     3
 74
     0
 42
0.0000000001
 43
0.0000000001
 40
0.0
 40
0.0
 40
0.0
 40
15.707963267949
 40
15.707963267949
 40
15.707963267949
 10
842.3858047687012
 20
345.0
 30
0.0
 41
1.0
 10
852.3858047687014
 20
345.0000000000002
 30
0.0
 41
0.7071067811865275
 10
852.3858047687011
 20
335.0
 30
0.0
 41
1.0
  0
SPLINE
  5
54
330
1F
100
AcDbEntity
  8
Predefinito
100
AcDbSpline
210
0.0
220
0.0
230
1.0
 70
    24
 71
     2
 72
     6
 73
     3
 74
     0
 42
0.0000000001
 43
0.0000000001
 40
0.0
 40
0.0
 40
0.0
 40
7.5
 40
7.5
 40
7.5
 10
842.3858047687012
 20
344.5
 30
0.0
 10
838.6358047687012
 20
344.5
 30
0.0
 10
834.8858047687012
 20
344.5
 30
0.0
  0
SPLINE
  5
55
330
1F
100
AcDbEntity
  8
Predefinito
100
AcDbSpline
210
0.0
220
0.0
230
1.0
 70
    24
 71
     2
 72
     6
 73
     3
 74
     0
 42
0.0000000001
 43
0.0000000001
 40
0.0
 40
0.0
 40
0.0
 40
7.5
 40
7.5
 40
7.5
 10
842.3858047687012
 20
345.0
 30
0.0
 10
838.6358047687012
 20
345.0
 30
0.0
 10
834.8858047687012
 20
345.0
 30
0.0
  0
SPLINE
  5
56
330
1F
100
AcDbEntity
  8
Predefinito
100
AcDbSpline
210
0.0
220
0.0
230
1.0
 70
    24
 71
     2
 72
     6
 73
     3
 74
     0
 42
0.0000000001
 43
0.0000000001
 40
0.0
 40
0.0
 40
0.0
 40
7.5
 40
7.5
 40
7.5
 10
762.3858047687012
 20
120.0
 30
0.0
 10
766.1358047687012
 20
120.0
 30
0.0
 10
769.8858047687012
 20
120.0
 30
0.0
  0
SPLINE
  5
57
330
1F
100
AcDbEntity
  8
Predefinito
100
AcDbSpline
210
0.0
220
0.0
230
1.0
 70
    24
 71
     2
 72
     6
 73
     3
 74
     0
 42
0.0000000001
 43
0.0000000001
 40
0.0
 40
0.0
 40
0.0
 40
7.5
 40
7.5
 40
7.5
 10
762.3858047687012
 20
120.5
 30
0.0
 10
766.1358047687012
 20
120.5
 30
0.0
 10
769.8858047687012
 20
120.5
 30
0.0
  0
SPLINE
  5
58
330
1F
100
AcDbEntity
  8
Predefinito
100
AcDbSpline
210
0.0
220
0.0
230
1.0
 70
    12
 71
     2
 72
     6
 73
     3
 74
     0
 42
0.0000000001
 43
0.0000000001
 40
0.0
 40
0.0
 40
0.0
 40
15.70796326794893
 40
15.70796326794893
 40
15.70796326794893
 10
762.3858047687012
 20
120.0
 30
0.0
 41
1.0
 10
752.3858047687011
 20
120.0000000000001
 30
0.0
 41
0.7071067811865566
 10
752.3858047687012
 20
130.0
 30
0.0
 41
1.0
  0
SPLINE
  5
59
330
1F
100
AcDbEntity
  8
Predefinito
100
AcDbSpline
210
0.0
220
0.0
230
1.0
 70
    12
 71
     2
 72
     6
 73
     3
 74
     0
 42
0.0000000001
 43
0.0000000001
 40
0.0
 40
0.0
 40
0.0
 40
14.92256510455138
 40
14.92256510455138
 40
14.92256510455138
 10
752.8858047687012
 20
130.0
 30
0.0
 41
1.0
 10
752.8858047687012
 20
120.5000000000002
 30
0.0
 41
0.7071067811865591
 10
762.3858047687012
 20
120.5000000000001
 30
0.0
 41
1.0
  0
SPLINE
  5
5A
330
1F
100
AcDbEntity
  8
Predefinito
100
AcDbSpline
210
0.0
220
0.0
230
1.0
 70
    24
 71
     2
 72
     6
 73
     3
 74
     0
 42
0.0000000001
 43
0.0000000001
 40
0.0
 40
0.0
 40
0.0
 40
205.0
 40
205.0
 40
205.0
 10
752.3858047687012
 20
335.0
 30
0.0
 10
752.3858047687012
 20
232.5
 30
0.0
 10
752.3858047687012
 20
130.0
 30
0.0
  0
SPLINE
  5
5B
330
1F
100
AcDbEntity
  8
Predefinito
100
AcDbSpline
210
0.0
220
0.0
230
1.0
 70
    24
 71
     2
 72
     6
 73
     3
 74
     0
 42
0.0000000001
 43
0.0000000001
 40
0.0
 40
0.0
 40
0.0
 40
205.0
 40
205.0
 40
205.0
 10
752.8858047687012
 20
335.0
 30
0.0
 10
752.8858047687012
 20
232.5
 30
0.0
 10
752.8858047687012
 20
130.0
 30
0.0
  0
SPLINE
  5
5C
330
1F
100
AcDbEntity
  8
Predefinito
100
AcDbSpline
210
0.0
220
0.0
230
1.0
 70
    12
 71
     2
 72
     6
 73
     3
 74
     0
 42
0.0000000001
 43
0.0000000001
 40
0.0
 40
0.0
 40
0.0
 40
15.70796326794891
 40
15.70796326794891
 40
15.70796326794891
 10
752.3858047687012
 20
335.0
 30
0.0
 41
1.0
 10
752.3858047687011
 20
345.0
 30
0.0
 41
0.7071067811865495
 10
762.3858047687013
 20
344.9999999999999
 30
0.0
 41
1.0
  0
SPLINE
  5
5D
330
1F
100
AcDbEntity
  8
Predefinito
100
AcDbSpline
210
0.0
220
0.0
230
1.0
 70
    12
 71
     2
 72
     6
 73
     3
 74
     0
 42
0.0000000001
 43
0.0000000001
 40
0.0
 40
0.0
 40
0.0
 40
14.92256510455147
 40
14.92256510455147
 40
14.92256510455147
 10
762.3858047687012
 20
344.5
 30
0.0
 41
1.0
 10
752.8858047687013
 20
344.4999999999999
 30
0.0
 41
0.707106781186556
 10
752.8858047687012
 20
335.0
 30
0.0
 41
1.0
  0
SPLINE
  5
5E
330
1F
100
AcDbEntity
  8
Predefinito
100
AcDbSpline
210
0.0
220
0.0
230
1.0
 70
    24
 71
     2
 72
     6
 73
     3
 74
     0
 42
0.0000000001
 43
0.0000000001
 40
0.0
 40
0.0
 40
0.0
 40
7.5
 40
7.5
 40
7.5
 10
769.8858047687012
 20
345.0
 30
0.0
 10
766.1358047687012
 20
345.0
 30
0.0
 10
762.3858047687012
 20
345.0
 30
0.0
  0
SPLINE
  5
5F
330
1F
100
AcDbEntity
  8
Predefinito
100
AcDbSpline
210
0.0
220
0.0
230
1.0
 70
    24
 71
     2
 72
     6
 73
     3
 74
     0
 42
0.0000000001
 43
0.0000000001
 40
0.0
 40
0.0
 40
0.0
 40
7.5
 40
7.5
 40
7.5
 10
769.8858047687012
 20
344.5
 30
0.0
 10
766.1358047687012
 20
344.5
 30
0.0
 10
762.3858047687012
 20
344.5
 30
0.0
  0
SPLINE
  5
60
330
1F
100
AcDbEntity
  8
Predefinito
100
AcDbSpline
210
0.0
220
0.0
230
1.0
 70
    12
 71
     2
 72
     6
 73
     3
 74
     0
 42
0.0000000001
 43
0.0000000001
 40
0.0
 40
0.0
 40
0.0
 40
0.3361788080360456
 40
0.3361788080360456
 40
0.3361788080360456
 10
789.5396674645704
 20
1116.66620299186
 30
0.0
 41
1.0
 10
789.69543166316
 20
1116.735804768701
 30
0.0
 41
0.9780076121759723
 10
789.8660390865086
 20
1116.735804768701
 30
0.0
 41
1.0
  0
SPLINE
  5
61
330
1F
100
AcDbEntity
  8
Predefinito
100
AcDbSpline
210
0.0
220
0.0
230
1.0
 70
    12
 71
     2
 72
     6
 73
     3
 74
     0
 42
0.0000000001
 43
0.0000000001
 40
0.0
 40
0.0
 40
0.0
 40
0.3361788080360871
 40
0.3361788080360871
 40
0.3361788080360871
 10
815.231942072832
 20
1116.66620299186
 30
0.0
 41
1.0
 10
815.0761778742424
 20
1116.735804768701
 30
0.0
 41
0.9780076121762045
 10
814.9055704508936
 20
1116.735804768701
 30
0.0
 41
1.0
  0
SPLINE
  5
62
330
1F
100
AcDbEntity
  8
Predefinito
100
AcDbSpline
210
0.0
220
0.0
230
1.0
 70
    24
 71
     2
 72
     6
 73
     3
 74
     0
 42
0.0000000001
 43
0.0000000001
 40
0.0
 40
0.0
 40
0.0
 40
25.03953136438497
 40
25.03953136438497
 40
25.03953136438497
 10
814.9055704508936
 20
1116.735804768701
 30
0.0
 10
802.3858047687011
 20
1116.735804768701
 30
0.0
 10
789.8660390865086
 20
1116.735804768701
 30
0.0
  0
SPLINE
  5
63
330
1F
100
AcDbEntity
  8
Predefinito
100
AcDbSpline
210
0.0
220
0.0
230
1.0
 70
    24
 71
     2
 72
     6
 73
     3
 74
     0
 42
0.0000000001
 43
0.0000000001
 40
0.0
 40
0.0
 40
0.0
 40
26.03904344047214
 40
26.03904344047214
 40
26.03904344047214
 10
815.4053264889372
 20
1116.560499816256
 30
0.0
 10
802.3858047687012
 20
1116.560499816256
 30
0.0
 10
789.3662830484651
 20
1116.560499816256
 30
0.0
  0
SPLINE
  5
64
330
1F
100
AcDbEntity
  8
Predefinito
100
AcDbSpline
210
0.0
220
0.0
230
1.0
 70
    12
 71
     2
 72
     6
 73
     3
 74
     0
 42
0.0000000001
 43
0.0000000001
 40
0.0
 40
0.0
 40
0.0
 40
0.7168443076572094
 40
0.7168443076572094
 40
0.7168443076572094
 10
769.8858047687012
 20
1100.591617314455
 30
0.0
 41
1.0
 10
769.8858047687011
 20
1100.976117192444
 30
0.0
 41
0.9013032363066982
 10
770.1860487306577
 20
1101.21631236201
 30
0.0
 41
1.0
  0
SPLINE
  5
65
330
1F
100
AcDbEntity
  8
Predefinito
100
AcDbSpline
210
0.0
220
0.0
230
1.0
 70
    12
 71
     2
 72
     6
 73
     3
 74
     0
 42
0.0000000001
 43
0.0000000001
 40
0.0
 40
0.0
 40
0.0
 40
0.7168443076572157
 40
0.7168443076572157
 40
0.7168443076572157
 10
834.8858047687012
 20
1100.591617314455
 30
0.0
 41
1.0
 10
834.8858047687012
 20
1100.976117192444
 30
0.0
 41
0.9013032363068896
 10
834.5855608067448
 20
1101.21631236201
 30
0.0
 41
1.0
  0
SPLINE
  5
66
330
1F
100
AcDbEntity
  8
Predefinito
100
AcDbSpline
210
0.0
220
0.0
230
1.0
 70
    24
 71
     2
 72
     6
 73
     3
 74
     0
 42
0.0000000001
 43
0.0000000001
 40
0.0
 40
0.0
 40
0.0
 40
64.39951207608692
 40
64.39951207608692
 40
64.39951207608692
 10
770.1860487306577
 20
1101.21631236201
 30
0.0
 10
802.3858047687012
 20
1101.21631236201
 30
0.0
 10
834.5855608067446
 20
1101.21631236201
 30
0.0
  0
SPLINE
  5
67
330
1F
100
AcDbEntity
  8
Predefinito
100
AcDbSpline
210
0.0
220
0.0
230
1.0
 70
    24
 71
     2
 72
     6
 73
     3
 74
     0
 42
0.0000000001
 43
0.0000000001
 40
0.0
 40
0.0
 40
0.0
 40
65.0
 40
65.0
 40
65.0
 10
834.8858047687012
 20
1100.591617314455
 30
0.0
 10
802.3858047687012
 20
1100.591617314455
 30
0.0
 10
769.8858047687012
 20
1100.591617314455
 30
0.0
  0
SPLINE
  5
68
330
1F
100
AcDbEntity
  8
Predefinito
100
AcDbSpline
210
0.0
220
0.0
230
1.0
 70
    24
 71
     2
 72
     6
 73
     3
 74
     0
 42
0.0000000001
 43
0.0000000001
 40
0.0
 40
0.0
 40
0.0
 40
3.855812545753906
 40
3.855812545753906
 40
3.855812545753906
 10
834.8858047687012
 20
1096.735804768701
 30
0.0
 10
834.8858047687012
 20
1098.663711041578
 30
0.0
 10
834.8858047687012
 20
1100.591617314455
 30
0.0
  0
SPLINE
  5
69
330
1F
100
AcDbEntity
  8
Predefinito
100
AcDbSpline
210
0.0
220
0.0
230
1.0
 70
    24
 71
     2
 72
     6
 73
     3
 74
     0
 42
0.0000000001
 43
0.0000000001
 40
0.0
 40
0.0
 40
0.0
 40
24.46097573920148
 40
24.46097573920148
 40
24.46097573920148
 10
834.5061394922222
 20
1101.279849413628
 30
0.0
 10
824.9557329905797
 20
1108.920174614942
 30
0.0
 10
815.4053264889372
 20
1116.560499816256
 30
0.0
  0
SPLINE
  5
6A
330
1F
100
AcDbEntity
  8
Predefinito
100
AcDbSpline
210
0.0
220
0.0
230
1.0
 70
    24
 71
     2
 72
     6
 73
     3
 74
     0
 42
0.0000000001
 43
0.0000000001
 40
0.0
 40
0.0
 40
0.0
 40
3.855812545753906
 40
3.855812545753906
 40
3.855812545753906
 10
769.8858047687012
 20
1100.591617314455
 30
0.0
 10
769.8858047687012
 20
1098.663711041578
 30
0.0
 10
769.8858047687012
 20
1096.735804768701
 30
0.0
  0
SPLINE
  5
6B
330
1F
100
AcDbEntity
  8
Predefinito
100
AcDbSpline
210
0.0
220
0.0
230
1.0
 70
    24
 71
     2
 72
     6
 73
     3
 74
     0
 42
0.0000000001
 43
0.0000000001
 40
0.0
 40
0.0
 40
0.0
 40
65.0
 40
65.0
 40
65.0
 10
769.8858047687012
 20
1096.735804768701
 30
0.0
 10
802.3858047687012
 20
1096.735804768701
 30
0.0
 10
834.8858047687012
 20
1096.735804768701
 30
0.0
  0
SPLINE
  5
6C
330
1F
100
AcDbEntity
  8
Predefinito
100
AcDbSpline
210
0.0
220
0.0
230
1.0
 70
    24
 71
     2
 72
     6
 73
     3
 74
     0
 42
0.0000000001
 43
0.0000000001
 40
0.0
 40
0.0
 40
0.0
 40
24.46097573920125
 40
24.46097573920125
 40
24.46097573920125
 10
789.3662830484651
 20
1116.560499816256
 30
0.0
 10
779.8158765468227
 20
1108.920174614942
 30
0.0
 10
770.2654700451802
 20
1101.279849413628
 30
0.0
  0
SPLINE
  5
6D
330
1F
100
AcDbEntity
  8
Predefinito
100
AcDbSpline
210
0.0
220
0.0
230
1.0
 70
    12
 71
     2
 72
     6
 73
     3
 74
     0
 42
0.0000000001
 43
0.0000000001
 40
0.0
 40
0.0
 40
0.0
 40
0.7016741237879348
 40
0.7016741237879348
 40
0.7016741237879348
 10
807.8088779032091
 20
764.7191381020342
 30
0.0
 41
1.0
 10
807.8793074244361
 20
765.135804768701
 30
0.0
 41
0.7637626158255749
 10
808.3018845518008
 20
765.1358047687012
 30
0.0
 41
1.0
  0
SPLINE
  5
6E
330
1F
100
AcDbEntity
  8
Predefinito
100
AcDbSpline
210
0.0
220
0.0
230
1.0
 70
    12
 71
     2
 72
     6
 73
     3
 74
     0
 42
0.0000000001
 43
0.0000000001
 40
0.0
 40
0.0
 40
0.0
 40
1.403348247575009
 40
1.403348247575009
 40
1.403348247575009
 10
807.3158712546176
 20
764.8024714353681
 30
0.0
 41
1.0
 10
807.4567302970723
 20
765.6358047687015
 30
0.0
 41
0.7637626158258705
 10
808.3018845518008
 20
765.6358047687013
 30
0.0
 41
1.0
  0
SPLINE
  5
6F
330
1F
100
AcDbEntity
  8
Predefinito
100
AcDbSpline
210
0.0
220
0.0
230
1.0
 70
    12
 71
     2
 72
     6
 73
     3
 74
     0
 42
0.0000000001
 43
0.0000000001
 40
0.0
 40
0.0
 40
0.0
 40
1.805470422275176
 40
1.805470422275176
 40
1.805470422275176
 10
807.2237622522698
 20
763.0196688037362
 30
0.0
 41
1.0
 10
807.6570562281009
 20
763.8209489592901
 30
0.0
 41
0.9865602811068273
 10
807.8088779032091
 20
764.7191381020342
 30
0.0
 41
1.0
  0
SPLINE
  5
70
330
1F
100
AcDbEntity
  8
Predefinito
100
AcDbSpline
210
0.0
220
0.0
230
1.0
 70
    12
 71
     2
 72
     6
 73
     3
 74
     0
 42
0.0000000001
 43
0.0000000001
 40
0.0
 40
0.0
 40
0.0
 40
1.641336747523058
 40
1.641336747523058
 40
1.641336747523058
 10
807.3158712546175
 20
764.8024714353681
 30
0.0
 41
1.0
 10
807.1778515499736
 20
763.9859358510553
 30
0.0
 41
0.9865602811068648
 10
806.7839479355819
 20
763.2574993460062
 30
0.0
 41
1.0
  0
SPLINE
  5
71
330
1F
100
AcDbEntity
  8
Predefinito
100
AcDbSpline
210
0.0
220
0.0
230
1.0
 70
    24
 71
     2
 72
     6
 73
     3
 74
     0
 42
0.0000000001
 43
0.0000000001
 40
0.0
 40
0.0
 40
0.0
 40
34.08392021690042
 40
34.08392021690042
 40
34.08392021690042
 10
808.3018845518008
 20
765.6358047687012
 30
0.0
 10
825.343844660251
 20
765.6358047687012
 30
0.0
 10
842.3858047687012
 20
765.6358047687012
 30
0.0
  0
SPLINE
  5
72
330
1F
100
AcDbEntity
  8
Predefinito
100
AcDbSpline
210
0.0
220
0.0
230
1.0
 70
    24
 71
     2
 72
     6
 73
     3
 74
     0
 42
0.0000000001
 43
0.0000000001
 40
0.0
 40
0.0
 40
0.0
 40
34.08392021690042
 40
34.08392021690042
 40
34.08392021690042
 10
808.3018845518008
 20
765.1358047687012
 30
0.0
 10
825.343844660251
 20
765.1358047687012
 30
0.0
 10
842.3858047687012
 20
765.1358047687012
 30
0.0
  0
SPLINE
  5
73
330
1F
100
AcDbEntity
  8
Predefinito
100
AcDbSpline
210
0.0
220
0.0
230
1.0
 70
    12
 71
     2
 72
     6
 73
     3
 74
     0
 42
0.0000000001
 43
0.0000000001
 40
0.0
 40
0.0
 40
0.0
 40
0.6974305408009833
 40
0.6974305408009833
 40
0.6974305408009833
 10
807.2237622522698
 20
763.0196688037362
 30
0.0
 41
1.0
 10
807.1325403741162
 20
762.6830435629396
 30
0.0
 41
0.9997802233842241
 10
807.0272875087502
 20
762.3505381973779
 30
0.0
 41
1.0
  0
SPLINE
  5
74
330
1F
100
AcDbEntity
  8
Predefinito
100
AcDbSpline
210
0.0
220
0.0
230
1.0
 70
    12
 71
     2
 72
     6
 73
     3
 74
     0
 42
0.0000000001
 43
0.0000000001
 40
0.0
 40
0.0
 40
0.0
 40
0.2826306353878179
 40
0.2826306353878179
 40
0.2826306353878179
 10
806.7839479355819
 20
763.2574993460062
 30
0.0
 41
1.0
 10
806.7182930933951
 20
763.1323167828347
 30
0.0
 41
0.9995790962602903
 10
806.6454885135573
 20
763.0111527387486
 30
0.0
 41
1.0
  0
SPLINE
  5
75
330
1F
100
AcDbEntity
  8
Predefinito
100
AcDbSpline
210
0.0
220
0.0
230
1.0
 70
    12
 71
     2
 72
     6
 73
     3
 74
     0
 42
0.0000000001
 43
0.0000000001
 40
0.0
 40
0.0
 40
0.0
 40
0.7853981633975298
 40
0.7853981633975298
 40
0.7853981633975298
 10
852.3858047687012
 20
765.1358047687012
 30
0.0
 41
1.0
 10
852.3858047687014
 20
765.6358047687015
 30
0.0
 41
0.7071067811859848
 10
851.8858047687012
 20
765.6358047687011
 30
0.0
 41
1.0
  0
SPLINE
  5
76
330
1F
100
AcDbEntity
  8
Predefinito
100
AcDbSpline
210
0.0
220
0.0
230
1.0
 70
    24
 71
     2
 72
     6
 73
     3
 74
     0
 42
0.0000000001
 43
0.0000000001
 40
0.0
 40
0.0
 40
0.0
 40
9.5
 40
9.5
 40
9.5
 10
842.3858047687012
 20
765.6358047687012
 30
0.0
 10
847.1358047687012
 20
765.6358047687012
 30
0.0
 10
851.8858047687012
 20
765.6358047687012
 30
0.0
  0
SPLINE
  5
77
330
1F
100
AcDbEntity
  8
Predefinito
100
AcDbSpline
210
0.0
220
0.0
230
1.0
 70
    24
 71
     2
 72
     6
 73
     3
 74
     0
 42
0.0000000001
 43
0.0000000001
 40
0.0
 40
0.0
 40
0.0
 40
10.0
 40
10.0
 40
10.0
 10
852.3858047687012
 20
765.1358047687012
 30
0.0
 10
847.3858047687012
 20
765.1358047687012
 30
0.0
 10
842.3858047687012
 20
765.1358047687012
 30
0.0
  0
SPLINE
  5
78
330
1F
100
AcDbEntity
  8
Predefinito
100
AcDbSpline
210
0.0
220
0.0
230
1.0
 70
    12
 71
     2
 72
     8
 73
     5
 74
     0
 42
0.0000000001
 43
0.0000000001
 40
0.0
 40
0.0
 40
0.0
 40
4.891832637981581
 40
4.891832637981581
 40
9.783665275963163
 40
9.783665275963163
 40
9.783665275963163
 10
806.5335774201753
 20
762.8429205187555
 30
0.0
 41
1.0
 10
805.0466432768179
 20
760.6353924451267
 30
0.0
 41
0.8827603938610458
 10
802.3850360231529
 20
760.6358044897339
 30
0.0
 41
1.0
 10
799.7234287694884
 20
760.6362165343412
 30
0.0
 41
0.8827603938610458
 10
798.2371781942
 20
762.8442048880235
 30
0.0
 41
1.0
  0
SPLINE
  5
79
330
1F
100
AcDbEntity
  8
Predefinito
100
AcDbSpline
210
0.0
220
0.0
230
1.0
 70
    12
 71
     2
 72
     8
 73
     5
 74
     0
 42
0.0000000001
 43
0.0000000001
 40
0.0
 40
0.0
 40
0.0
 40
5.524874409913534
 40
5.524874409913534
 40
11.04974881982718
 40
11.04974881982718
 40
11.04974881982718
 10
797.7443220286522
 20
762.3505381973779
 30
0.0
 41
1.0
 10
799.3649720282872
 20
759.8012394655223
 30
0.0
 41
0.8764961892851304
 10
802.3858047687012
 20
759.8012394655221
 30
0.0
 41
1.0
 10
805.4066375091151
 20
759.8012394655223
 30
0.0
 41
0.8764961892851197
 10
807.0272875087503
 20
762.350538197378
 30
0.0
 41
1.0
  0
SPLINE
  5
7A
330
1F
100
AcDbEntity
  8
Predefinito
100
AcDbSpline
210
0.0
220
0.0
230
1.0
 70
    12
 71
     2
 72
     6
 73
     3
 74
     0
 42
0.0000000001
 43
0.0000000001
 40
0.0
 40
0.0
 40
0.0
 40
0.6974305408011273
 40
0.6974305408011273
 40
0.6974305408011273
 10
797.7443220286522
 20
762.3505381973779
 30
0.0
 41
1.0
 10
797.6390691632859
 20
762.6830435629396
 30
0.0
 41
0.9997802233842111
 10
797.5478472851324
 20
763.0196688037362
 30
0.0
 41
1.0
  0
SPLINE
  5
7B
330
1F
100
AcDbEntity
  8
Predefinito
100
AcDbSpline
210
0.0
220
0.0
230
1.0
 70
    12
 71
     2
 72
     6
 73
     3
 74
     0
 42
0.0000000001
 43
0.0000000001
 40
0.0
 40
0.0
 40
0.0
 40
0.1763352979490063
 40
0.1763352979490063
 40
0.1763352979490063
 10
798.0724845495724
 20
763.102907631261
 30
0.0
 41
1.0
 10
798.0294817482011
 20
763.1798790330744
 30
0.0
 41
0.9999707386303311
 10
797.9876616018205
 20
763.2574993460062
 30
0.0
 41
1.0
  0
SPLINE
  5
7C
330
1F
100
AcDbEntity
  8
Predefinito
100
AcDbSpline
210
0.0
220
0.0
230
1.0
 70
    12
 71
     2
 72
     6
 73
     3
 74
     0
 42
0.0000000001
 43
0.0000000001
 40
0.0
 40
0.0
 40
0.0
 40
1.805470422275129
 40
1.805470422275129
 40
1.805470422275129
 10
796.9627316341932
 20
764.7191381020342
 30
0.0
 41
1.0
 10
797.1145533093014
 20
763.8209489592901
 30
0.0
 41
0.9865602811068397
 10
797.5478472851324
 20
763.0196688037362
 30
0.0
 41
1.0
  0
SPLINE
  5
7D
330
1F
100
AcDbEntity
  8
Predefinito
100
AcDbSpline
210
0.0
220
0.0
230
1.0
 70
    12
 71
     2
 72
     6
 73
     3
 74
     0
 42
0.0000000001
 43
0.0000000001
 40
0.0
 40
0.0
 40
0.0
 40
1.641336747523135
 40
1.641336747523135
 40
1.641336747523135
 10
797.9876616018205
 20
763.257499346006
 30
0.0
 41
1.0
 10
797.5937579874286
 20
763.9859358510553
 30
0.0
 41
0.9865602811068027
 10
797.4557382827848
 20
764.8024714353681
 30
0.0
 41
1.0
  0
SPLINE
  5
7E
330
1F
100
AcDbEntity
  8
Predefinito
100
AcDbSpline
210
0.0
220
0.0
230
1.0
 70
    12
 71
     2
 72
     6
 73
     3
 74
     0
 42
0.0000000001
 43
0.0000000001
 40
0.0
 40
0.0
 40
0.0
 40
0.7016741237878072
 40
0.7016741237878072
 40
0.7016741237878072
 10
796.4697249856016
 20
765.1358047687012
 30
0.0
 41
1.0
 10
796.8923021129659
 20
765.1358047687012
 30
0.0
 41
0.7637626158258419
 10
796.9627316341931
 20
764.7191381020342
 30
0.0
 41
1.0
  0
SPLINE
  5
7F
330
1F
100
AcDbEntity
  8
Predefinito
100
AcDbSpline
210
0.0
220
0.0
230
1.0
 70
    12
 71
     2
 72
     6
 73
     3
 74
     0
 42
0.0000000001
 43
0.0000000001
 40
0.0
 40
0.0
 40
0.0
 40
1.403348247574794
 40
1.403348247574794
 40
1.403348247574794
 10
796.4697249856016
 20
765.6358047687012
 30
0.0
 41
1.0
 10
797.3148792403298
 20
765.6358047687011
 30
0.0
 41
0.7637626158262097
 10
797.4557382827848
 20
764.8024714353681
 30
0.0
 41
1.0
  0
SPLINE
  5
80
330
1F
100
AcDbEntity
  8
Predefinito
100
AcDbSpline
210
0.0
220
0.0
230
1.0
 70
    24
 71
     2
 72
     6
 73
     3
 74
     0
 42
0.0000000001
 43
0.0000000001
 40
0.0
 40
0.0
 40
0.0
 40
34.08392021690042
 40
34.08392021690042
 40
34.08392021690042
 10
762.3858047687012
 20
765.1358047687012
 30
0.0
 10
779.4277648771514
 20
765.1358047687012
 30
0.0
 10
796.4697249856016
 20
765.1358047687012
 30
0.0
  0
SPLINE
  5
81
330
1F
100
AcDbEntity
  8
Predefinito
100
AcDbSpline
210
0.0
220
0.0
230
1.0
 70
    24
 71
     2
 72
     6
 73
     3
 74
     0
 42
0.0000000001
 43
0.0000000001
 40
0.0
 40
0.0
 40
0.0
 40
34.08392021690042
 40
34.08392021690042
 40
34.08392021690042
 10
762.3858047687012
 20
765.6358047687012
 30
0.0
 10
779.4277648771514
 20
765.6358047687012
 30
0.0
 10
796.4697249856016
 20
765.6358047687012
 30
0.0
  0
SPLINE
  5
82
330
1F
100
AcDbEntity
  8
Predefinito
100
AcDbSpline
210
0.0
220
0.0
230
1.0
 70
    12
 71
     2
 72
     6
 73
     3
 74
     0
 42
0.0000000001
 43
0.0000000001
 40
0.0
 40
0.0
 40
0.0
 40
0.7853981633974483
 40
0.7853981633974483
 40
0.7853981633974483
 10
752.3858047687012
 20
765.1358047687012
 30
0.0
 41
1.0
 10
752.3858047687012
 20
765.6358047687011
 30
0.0
 41
0.7071067811865476
 10
752.8858047687012
 20
765.6358047687012
 30
0.0
 41
1.0
  0
SPLINE
  5
83
330
1F
100
AcDbEntity
  8
Predefinito
100
AcDbSpline
210
0.0
220
0.0
230
1.0
 70
    24
 71
     2
 72
     6
 73
     3
 74
     0
 42
0.0000000001
 43
0.0000000001
 40
0.0
 40
0.0
 40
0.0
 40
10.0
 40
10.0
 40
10.0
 10
762.3858047687012
 20
765.1358047687012
 30
0.0
 10
757.3858047687012
 20
765.1358047687012
 30
0.0
 10
752.3858047687012
 20
765.1358047687012
 30
0.0
  0
SPLINE
  5
84
330
1F
100
AcDbEntity
  8
Predefinito
100
AcDbSpline
210
0.0
220
0.0
230
1.0
 70
    24
 71
     2
 72
     6
 73
     3
 74
     0
 42
0.0000000001
 43
0.0000000001
 40
0.0
 40
0.0
 40
0.0
 40
9.5
 40
9.5
 40
9.5
 10
752.8858047687012
 20
765.6358047687012
 30
0.0
 10
757.6358047687012
 20
765.6358047687012
 30
0.0
 10
762.3858047687012
 20
765.6358047687012
 30
0.0
  0
SPLINE
  5
85
330
1F
100
AcDbEntity
  8
Predefinito
100
AcDbSpline
210
0.0
220
0.0
230
1.0
 70
    12
 71
     2
 72
     6
 73
     3
 74
     0
 42
0.0000000001
 43
0.0000000001
 40
0.0
 40
0.0
 40
0.0
 40
0.7330382858369036
 40
0.7330382858369036
 40
0.7330382858369036
 10
752.3858047687012
 20
763.0196688037362
 30
0.0
 41
1.0
 10
752.3858047687013
 20
762.6358047687011
 30
0.0
 41
0.9335804264973597
 10
752.6426599432234
 20
762.3505381973779
 30
0.0
 41
1.0
  0
SPLINE
  5
86
330
1F
100
AcDbEntity
  8
Predefinito
100
AcDbSpline
210
0.0
220
0.0
230
1.0
 70
    24
 71
     2
 72
     6
 73
     3
 74
     0
 42
0.0000000001
 43
0.0000000001
 40
0.0
 40
0.0
 40
0.0
 40
10.0
 40
10.0
 40
10.0
 10
752.3858047687012
 20
763.0196688037362
 30
0.0
 10
757.3858047687012
 20
763.0196688037362
 30
0.0
 10
762.3858047687012
 20
763.0196688037362
 30
0.0
  0
SPLINE
  5
87
330
1F
100
AcDbEntity
  8
Predefinito
100
AcDbSpline
210
0.0
220
0.0
230
1.0
 70
    24
 71
     2
 72
     6
 73
     3
 74
     0
 42
0.0000000001
 43
0.0000000001
 40
0.0
 40
0.0
 40
0.0
 40
9.74314482547777
 40
9.74314482547777
 40
9.74314482547777
 10
762.3858047687012
 20
762.3505381973778
 30
0.0
 10
757.5142323559623
 20
762.3505381973778
 30
0.0
 10
752.6426599432234
 20
762.3505381973779
 30
0.0
  0
SPLINE
  5
88
330
1F
100
AcDbEntity
  8
Predefinito
100
AcDbSpline
210
0.0
220
0.0
230
1.0
 70
    24
 71
     2
 72
     6
 73
     3
 74
     0
 42
0.0000000001
 43
0.0000000001
 40
0.0
 40
0.0
 40
0.0
 40
35.35851725995099
 40
35.35851725995099
 40
35.35851725995099
 10
762.3858047687012
 20
762.3505381973778
 30
0.0
 10
780.0650633986767
 20
762.3505381973778
 30
0.0
 10
797.7443220286522
 20
762.3505381973779
 30
0.0
  0
SPLINE
  5
89
330
1F
100
AcDbEntity
  8
Predefinito
100
AcDbSpline
210
0.0
220
0.0
230
1.0
 70
    24
 71
     2
 72
     6
 73
     3
 74
     0
 42
0.0000000001
 43
0.0000000001
 40
0.0
 40
0.0
 40
0.0
 40
35.16204251643126
 40
35.16204251643126
 40
35.16204251643126
 10
797.5478472851324
 20
763.0196688037362
 30
0.0
 10
779.9668260269168
 20
763.0196688037362
 30
0.0
 10
762.3858047687012
 20
763.0196688037362
 30
0.0
  0
SPLINE
  5
8A
330
1F
100
AcDbEntity
  8
Predefinito
100
AcDbSpline
210
0.0
220
0.0
230
1.0
 70
    12
 71
     2
 72
     6
 73
     3
 74
     0
 42
0.0000000001
 43
0.0000000001
 40
0.0
 40
0.0
 40
0.0
 40
0.7330382858369359
 40
0.7330382858369359
 40
0.7330382858369359
 10
852.3858047687012
 20
763.0196688037362
 30
0.0
 41
1.0
 10
852.3858047687008
 20
762.6358047687011
 30
0.0
 41
0.9335804264973838
 10
852.1289495941788
 20
762.3505381973779
 30
0.0
 41
1.0
  0
SPLINE
  5
8B
330
1F
100
AcDbEntity
  8
Predefinito
100
AcDbSpline
210
0.0
220
0.0
230
1.0
 70
    24
 71
     2
 72
     6
 73
     3
 74
     0
 42
0.0000000001
 43
0.0000000001
 40
0.0
 40
0.0
 40
0.0
 40
9.743144825477657
 40
9.743144825477657
 40
9.743144825477657
 10
852.1289495941788
 20
762.3505381973779
 30
0.0
 10
847.25737718144
 20
762.3505381973778
 30
0.0
 10
842.3858047687012
 20
762.3505381973778
 30
0.0
  0
SPLINE
  5
8C
330
1F
100
AcDbEntity
  8
Predefinito
100
AcDbSpline
210
0.0
220
0.0
230
1.0
 70
    24
 71
     2
 72
     6
 73
     3
 74
     0
 42
0.0000000001
 43
0.0000000001
 40
0.0
 40
0.0
 40
0.0
 40
10.0
 40
10.0
 40
10.0
 10
842.3858047687012
 20
763.0196688037362
 30
0.0
 10
847.3858047687012
 20
763.0196688037362
 30
0.0
 10
852.3858047687012
 20
763.0196688037362
 30
0.0
  0
SPLINE
  5
8D
330
1F
100
AcDbEntity
  8
Predefinito
100
AcDbSpline
210
0.0
220
0.0
230
1.0
 70
    24
 71
     2
 72
     6
 73
     3
 74
     0
 42
0.0000000001
 43
0.0000000001
 40
0.0
 40
0.0
 40
0.0
 40
35.16204251643137
 40
35.16204251643137
 40
35.16204251643137
 10
842.3858047687012
 20
763.0196688037362
 30
0.0
 10
824.8047835104855
 20
763.0196688037362
 30
0.0
 10
807.2237622522698
 20
763.0196688037362
 30
0.0
  0
SPLINE
  5
8E
330
1F
100
AcDbEntity
  8
Predefinito
100
AcDbSpline
210
0.0
220
0.0
230
1.0
 70
    24
 71
     2
 72
     6
 73
     3
 74
     0
 42
0.0000000001
 43
0.0000000001
 40
0.0
 40
0.0
 40
0.0
 40
35.35851725995099
 40
35.35851725995099
 40
35.35851725995099
 10
807.0272875087502
 20
762.350538197378
 30
0.0
 10
824.7065461387257
 20
762.3505381973779
 30
0.0
 10
842.3858047687012
 20
762.3505381973778
 30
0.0
  0
SPLINE
  5
8F
330
1F
100
AcDbEntity
  8
Predefinito
100
AcDbSpline
210
0.0
220
0.0
230
1.0
 70
    24
 71
     2
 72
     6
 73
     3
 74
     0
 42
0.0000000001
 43
0.0000000001
 40
0.0
 40
0.0
 40
0.0
 40
11.72683053142235
 40
11.72683053142235
 40
11.72683053142235
 10
752.6426599432234
 20
762.3505381973779
 30
0.0
 10
756.5660505553026
 20
757.9931714830395
 30
0.0
 10
760.4894411673818
 20
753.6358047687012
 30
0.0
  0
SPLINE
  5
90
330
1F
100
AcDbEntity
  8
Predefinito
100
AcDbSpline
210
0.0
220
0.0
230
1.0
 70
    24
 71
     2
 72
     6
 73
     3
 74
     0
 42
0.0000000001
 43
0.0000000001
 40
0.0
 40
0.0
 40
0.0
 40
1.817278698636073
 40
1.817278698636073
 40
1.817278698636073
 10
760.5685260700651
 20
753.6358047687012
 30
0.0
 10
761.4771654193831
 20
753.6358047687011
 30
0.0
 10
762.3858047687012
 20
753.6358047687011
 30
0.0
  0
SPLINE
  5
91
330
1F
100
AcDbEntity
  8
Predefinito
100
AcDbSpline
210
0.0
220
0.0
230
1.0
 70
    24
 71
     2
 72
     6
 73
     3
 74
     0
 42
0.0000000001
 43
0.0000000001
 40
0.0
 40
0.0
 40
0.0
 40
11.72683053142227
 40
11.72683053142227
 40
11.72683053142227
 10
844.2821683700206
 20
753.6358047687012
 30
0.0
 10
848.2055589820998
 20
757.9931714830395
 30
0.0
 10
852.1289495941788
 20
762.3505381973779
 30
0.0
  0
SPLINE
  5
92
330
1F
100
AcDbEntity
  8
Predefinito
100
AcDbSpline
210
0.0
220
0.0
230
1.0
 70
    24
 71
     2
 72
     6
 73
     3
 74
     0
 42
0.0000000001
 43
0.0000000001
 40
0.0
 40
0.0
 40
0.0
 40
80.0
 40
80.0
 40
80.0
 10
762.3858047687012
 20
753.6358047687011
 30
0.0
 10
802.3858047687012
 20
753.6358047687011
 30
0.0
 10
842.3858047687012
 20
753.6358047687011
 30
0.0
  0
SPLINE
  5
93
330
1F
100
AcDbEntity
  8
Predefinito
100
AcDbSpline
210
0.0
220
0.0
230
1.0
 70
    24
 71
     2
 72
     6
 73
     3
 74
     0
 42
0.0000000001
 43
0.0000000001
 40
0.0
 40
0.0
 40
0.0
 40
1.896363601319422
 40
1.896363601319422
 40
1.896363601319422
 10
842.3858047687012
 20
753.6358047687011
 30
0.0
 10
843.3339865693608
 20
753.6358047687011
 30
0.0
 10
844.2821683700206
 20
753.6358047687012
 30
0.0
  0
SPLINE
  5
94
330
1F
100
AcDbEntity
  8
Predefinito
100
AcDbSpline
210
0.0
220
0.0
230
1.0
 70
    24
 71
     2
 72
     6
 73
     3
 74
     0
 42
0.0000000001
 43
0.0000000001
 40
0.0
 40
0.0
 40
0.0
 40
2.116135964964997
 40
2.116135964964997
 40
2.116135964964997
 10
852.3858047687012
 20
763.0196688037362
 30
0.0
 10
852.3858047687012
 20
764.0777367862187
 30
0.0
 10
852.3858047687012
 20
765.1358047687012
 30
0.0
  0
SPLINE
  5
95
330
1F
100
AcDbEntity
  8
Predefinito
100
AcDbSpline
210
0.0
220
0.0
230
1.0
 70
    24
 71
     2
 72
     6
 73
     3
 74
     0
 42
0.0000000001
 43
0.0000000001
 40
0.0
 40
0.0
 40
0.0
 40
2.116135964964997
 40
2.116135964964997
 40
2.116135964964997
 10
752.3858047687012
 20
765.1358047687012
 30
0.0
 10
752.3858047687012
 20
764.0777367862187
 30
0.0
 10
752.3858047687012
 20
763.0196688037362
 30
0.0
  0
SPLINE
  5
96
330
1F
100
AcDbEntity
  8
Predefinito
100
AcDbSpline
210
0.0
220
0.0
230
1.0
 70
    12
 71
     2
 72
     6
 73
     3
 74
     0
 42
0.0000000001
 43
0.0000000001
 40
0.0
 40
0.0
 40
0.0
 40
0.5082754407085217
 40
0.5082754407085217
 40
0.5082754407085217
 10
807.3599926158709
 20
765.1284042749401
 30
0.0
 41
1.0
 10
807.385804768701
 20
765.3814479721701
 30
0.0
 41
0.9987085584478683
 10
807.3858047687012
 20
765.6358047687012
 30
0.0
 41
1.0
  0
SPLINE
  5
97
330
1F
100
AcDbEntity
  8
Predefinito
100
AcDbSpline
210
0.0
220
0.0
230
1.0
 70
    12
 71
     2
 72
     6
 73
     3
 74
     0
 42
0.0000000001
 43
0.0000000001
 40
0.0
 40
0.0
 40
0.0
 40
0.5082754407085291
 40
0.5082754407085291
 40
0.5082754407085291
 10
797.3858047687012
 20
765.6358047687012
 30
0.0
 41
1.0
 10
797.3858047687013
 20
765.3814479721701
 30
0.0
 41
0.9987085584478221
 10
797.4116169215315
 20
765.1284042749401
 30
0.0
 41
1.0
  0
SPLINE
  5
98
330
1F
100
AcDbEntity
  8
Predefinito
100
AcDbSpline
210
0.0
220
0.0
230
1.0
 70
    24
 71
     2
 72
     6
 73
     3
 74
     0
 42
0.0000000001
 43
0.0000000001
 40
0.0
 40
0.0
 40
0.0
 40
0.7499999999998863
 40
0.7499999999998863
 40
0.7499999999998863
 10
842.5858047687012
 20
752.8858047687012
 30
0.0
 10
842.5858047687012
 20
753.2608047687011
 30
0.0
 10
842.5858047687012
 20
753.6358047687011
 30
0.0
  0
SPLINE
  5
99
330
1F
100
AcDbEntity
  8
Predefinito
100
AcDbSpline
210
0.0
220
0.0
230
1.0
 70
    24
 71
     2
 72
     6
 73
     3
 74
     0
 42
0.0000000001
 43
0.0000000001
 40
0.0
 40
0.0
 40
0.0
 40
0.7499999999998863
 40
0.7499999999998863
 40
0.7499999999998863
 10
762.1858047687011
 20
753.6358047687011
 30
0.0
 10
762.1858047687011
 20
753.2608047687011
 30
0.0
 10
762.1858047687011
 20
752.8858047687012
 30
0.0
  0
SPLINE
  5
9A
330
1F
100
AcDbEntity
  8
Predefinito
100
AcDbSpline
210
0.0
220
0.0
230
1.0
 70
    24
 71
     2
 72
     6
 73
     3
 74
     0
 42
0.0000000001
 43
0.0000000001
 40
0.0
 40
0.0
 40
0.0
 40
0.5
 40
0.5
 40
0.5
 10
842.5858047687012
 20
752.3858047687012
 30
0.0
 10
842.5858047687012
 20
752.6358047687012
 30
0.0
 10
842.5858047687012
 20
752.8858047687012
 30
0.0
  0
SPLINE
  5
9B
330
1F
100
AcDbEntity
  8
Predefinito
100
AcDbSpline
210
0.0
220
0.0
230
1.0
 70
    24
 71
     2
 72
     6
 73
     3
 74
     0
 42
0.0000000001
 43
0.0000000001
 40
0.0
 40
0.0
 40
0.0
 40
0.5
 40
0.5
 40
0.5
 10
762.1858047687011
 20
752.8858047687012
 30
0.0
 10
762.1858047687011
 20
752.6358047687012
 30
0.0
 10
762.1858047687011
 20
752.3858047687012
 30
0.0
  0
SPLINE
  5
9C
330
1F
100
AcDbEntity
  8
Predefinito
100
AcDbSpline
210
0.0
220
0.0
230
1.0
 70
    24
 71
     2
 72
     6
 73
     3
 74
     0
 42
0.0000000001
 43
0.0000000001
 40
0.0
 40
0.0
 40
0.0
 40
76.40000000000009
 40
76.40000000000009
 40
76.40000000000009
 10
764.1858047687011
 20
752.8858047687012
 30
0.0
 10
802.3858047687012
 20
752.8858047687012
 30
0.0
 10
840.5858047687012
 20
752.8858047687012
 30
0.0
  0
SPLINE
  5
9D
330
1F
100
AcDbEntity
  8
Predefinito
100
AcDbSpline
210
0.0
220
0.0
230
1.0
 70
    24
 71
     2
 72
     6
 73
     3
 74
     0
 42
0.0000000001
 43
0.0000000001
 40
0.0
 40
0.0
 40
0.0
 40
76.40000000000009
 40
76.40000000000009
 40
76.40000000000009
 10
840.5858047687012
 20
752.3858047687012
 30
0.0
 10
802.3858047687012
 20
752.3858047687012
 30
0.0
 10
764.1858047687011
 20
752.3858047687012
 30
0.0
  0
SPLINE
  5
9E
330
1F
100
AcDbEntity
  8
Predefinito
100
AcDbSpline
210
0.0
220
0.0
230
1.0
 70
    24
 71
     2
 72
     6
 73
     3
 74
     0
 42
0.0000000001
 43
0.0000000001
 40
0.0
 40
0.0
 40
0.0
 40
2.0
 40
2.0
 40
2.0
 10
762.1858047687011
 20
752.8858047687012
 30
0.0
 10
763.1858047687011
 20
752.8858047687012
 30
0.0
 10
764.1858047687011
 20
752.8858047687012
 30
0.0
  0
SPLINE
  5
9F
330
1F
100
AcDbEntity
  8
Predefinito
100
AcDbSpline
210
0.0
220
0.0
230
1.0
 70
    24
 71
     2
 72
     6
 73
     3
 74
     0
 42
0.0000000001
 43
0.0000000001
 40
0.0
 40
0.0
 40
0.0
 40
2.000000000000114
 40
2.000000000000114
 40
2.000000000000114
 10
840.5858047687012
 20
752.8858047687012
 30
0.0
 10
841.5858047687013
 20
752.8858047687012
 30
0.0
 10
842.5858047687013
 20
752.8858047687012
 30
0.0
  0
SPLINE
  5
A0
330
1F
100
AcDbEntity
  8
Predefinito
100
AcDbSpline
210
0.0
220
0.0
230
1.0
 70
    24
 71
     2
 72
     6
 73
     3
 74
     0
 42
0.0000000001
 43
0.0000000001
 40
0.0
 40
0.0
 40
0.0
 40
2.0
 40
2.0
 40
2.0
 10
840.5858047687012
 20
752.3858047687012
 30
0.0
 10
841.5858047687012
 20
752.3858047687012
 30
0.0
 10
842.5858047687012
 20
752.3858047687012
 30
0.0
  0
SPLINE
  5
A1
330
1F
100
AcDbEntity
  8
Predefinito
100
AcDbSpline
210
0.0
220
0.0
230
1.0
 70
    24
 71
     2
 72
     6
 73
     3
 74
     0
 42
0.0000000001
 43
0.0000000001
 40
0.0
 40
0.0
 40
0.0
 40
2.0
 40
2.0
 40
2.0
 10
762.1858047687011
 20
752.3858047687012
 30
0.0
 10
763.1858047687011
 20
752.3858047687012
 30
0.0
 10
764.1858047687011
 20
752.3858047687012
 30
0.0
  0
SPLINE
  5
A2
330
1F
100
AcDbEntity
  8
Predefinito
100
AcDbSpline
210
0.0
220
0.0
230
1.0
 70
    12
 71
     2
 72
     6
 73
     3
 74
     0
 42
0.0000000001
 43
0.0000000001
 40
0.0
 40
0.0
 40
0.0
 40
0.1763929481307863
 40
0.1763929481307863
 40
0.1763929481307863
 10
798.0743870472849
 20
763.1039079089928
 30
0.0
 41
1.0
 10
798.1190269830568
 20
763.0278326157418
 30
0.0
 41
0.9998499957219128
 10
798.1662750050236
 20
762.9533490703828
 30
0.0
 41
1.0
  0
SPLINE
  5
A3
330
1F
100
AcDbEntity
  8
Predefinito
100
AcDbSpline
210
0.0
220
0.0
230
1.0
 70
    24
 71
     2
 72
     6
 73
     3
 74
     0
 42
0.0000000001
 43
0.0000000001
 40
0.0
 40
0.0
 40
0.0
 40
311.1000000000003
 40
311.1000000000003
 40
311.1000000000003
 10
807.3858047687012
 20
1096.735804768701
 30
0.0
 10
807.3858047687012
 20
941.1858047687012
 30
0.0
 10
807.3858047687012
 20
785.6358047687012
 30
0.0
  0
SPLINE
  5
A4
330
1F
100
AcDbEntity
  8
Predefinito
100
AcDbSpline
210
0.0
220
0.0
230
1.0
 70
    24
 71
     2
 72
     6
 73
     3
 74
     0
 42
0.0000000001
 43
0.0000000001
 40
0.0
 40
0.0
 40
0.0
 40
311.1000000000003
 40
311.1000000000003
 40
311.1000000000003
 10
797.3858047687012
 20
785.6358047687012
 30
0.0
 10
797.3858047687012
 20
941.1858047687012
 30
0.0
 10
797.3858047687012
 20
1096.735804768701
 30
0.0
  0
SPLINE
  5
A5
330
1F
100
AcDbEntity
  8
Predefinito
100
AcDbSpline
210
0.0
220
0.0
230
1.0
 70
    24
 71
     2
 72
     6
 73
     3
 74
     0
 42
0.0000000001
 43
0.0000000001
 40
0.0
 40
0.0
 40
0.0
 40
19.99999995019834
 40
19.99999995019834
 40
19.99999995019834
 10
797.3858047687012
 20
765.6358048185028
 30
0.0
 10
797.3858047687012
 20
775.635804793602
 30
0.0
 10
797.3858047687012
 20
785.6358047687012
 30
0.0
  0
SPLINE
  5
A6
330
1F
100
AcDbEntity
  8
Predefinito
100
AcDbSpline
210
0.0
220
0.0
230
1.0
 70
    24
 71
     2
 72
     6
 73
     3
 74
     0
 42
0.0000000001
 43
0.0000000001
 40
0.0
 40
0.0
 40
0.0
 40
19.99999995019209
 40
19.99999995019209
 40
19.99999995019209
 10
807.3858047687012
 20
785.6358047687012
 30
0.0
 10
807.3858047687012
 20
775.6358047936051
 30
0.0
 10
807.3858047687012
 20
765.6358048185091
 30
0.0
  0
SPLINE
  5
A7
330
1F
100
AcDbEntity
  8
Predefinito
100
AcDbSpline
210
0.0
220
0.0
230
1.0
 70
    12
 71
     2
 72
     8
 73
     5
 74
     0
 42
0.0000000001
 43
0.0000000001
 40
0.0
 40
0.0
 40
0.0
 40
0.0526651551749637
 40
0.0526651551749637
 40
20.50368204994804
 40
20.50368204994804
 40
20.50368204994804
 10
445.4668565650611
 20
1116.560500144958
 30
0.0
 41
1.0
 10
445.4931891426486
 20
1116.560500144958
 30
0.0
 41
1.0
 10
445.5195217202361
 20
1116.560500144958
 30
0.0
 41
1.0
 10
445.519521720236
 20
1116.560499816256
 30
0.0
 41
0.7071067811865476
 10
432.5
 20
1116.560499816256
 30
0.0
 41
1.0
  0
SPLINE
  5
A8
330
1F
100
AcDbEntity
  8
Predefinito
100
AcDbSpline
210
0.0
220
0.0
230
1.0
 70
    28
 71
     2
 72
     8
 73
     5
 74
     0
 42
0.0000000001
 43
0.0000000001
 40
-20.89512706754083
 40
-20.89512706754083
 40
-20.89512706754083
 40
-19.66600194592078
 40
-19.66600194592078
 40
0.0
 40
0.0
 40
0.0
 10
444.9691220858627
 20
1116.735804768701
 30
0.0
 41
0.9656765759202985
 10
445.0197656821925
 20
1116.735804768701
 30
0.0
 41
0.9816941738241592
 10
445.0197656821925
 20
1116.735804768701
 30
0.0
 41
1.0
 10
445.0197656821925
 20
1116.735804768701
 30
0.0
 41
0.7071067811865476
 10
432.5
 20
1116.735804768701
 30
0.0
 41
1.0
  0
SPLINE
  5
A9
330
1F
100
AcDbEntity
  8
Predefinito
100
AcDbSpline
210
0.0
220
0.0
230
1.0
 70
    24
 71
     2
 72
     6
 73
     3
 74
     0
 42
0.0000000001
 43
0.0000000001
 40
0.0
 40
0.0
 40
0.0
 40
12.46912208586267
 40
12.46912208586267
 40
12.46912208586267
 10
32.5
 20
1116.735804768701
 30
0.0
 10
26.26543895706866
 20
1116.735804768701
 30
0.0
 10
20.03087791413733
 20
1116.735804768701
 30
0.0
  0
SPLINE
  5
AA
330
1F
100
AcDbEntity
  8
Predefinito
100
AcDbSpline
210
0.0
220
0.0
230
1.0
 70
    24
 71
     2
 72
     6
 73
     3
 74
     0
 42
0.0000000001
 43
0.0000000001
 40
0.0
 40
0.0
 40
0.0
 40
12.96685656506108
 40
12.96685656506108
 40
12.96685656506108
 10
32.5
 20
1116.560499816256
 30
0.0
 10
26.01657171746946
 20
1116.560499816256
 30
0.0
 10
19.53314343493892
 20
1116.560499816256
 30
0.0
  0
SPLINE
  5
AB
330
1F
100
AcDbEntity
  8
Predefinito
100
AcDbSpline
210
0.0
220
0.0
230
1.0
 70
    24
 71
     2
 72
     6
 73
     3
 74
     0
 42
0.0000000001
 43
0.0000000001
 40
0.0
 40
0.0
 40
0.0
 40
400.0
 40
400.0
 40
400.0
 10
432.5
 20
1116.735804768701
 30
0.0
 10
232.5
 20
1116.735804768701
 30
0.0
 10
32.5
 20
1116.735804768701
 30
0.0
  0
SPLINE
  5
AC
330
1F
100
AcDbEntity
  8
Predefinito
100
AcDbSpline
210
0.0
220
0.0
230
1.0
 70
    24
 71
     2
 72
     6
 73
     3
 74
     0
 42
0.0000000001
 43
0.0000000001
 40
0.0
 40
0.0
 40
0.0
 40
400.0
 40
400.0
 40
400.0
 10
32.5
 20
1116.560499816256
 30
0.0
 10
232.5
 20
1116.560499816256
 30
0.0
 10
432.5
 20
1116.560499816256
 30
0.0
  0
SPLINE
  5
AD
330
1F
100
AcDbEntity
  8
Predefinito
100
AcDbSpline
210
0.0
220
0.0
230
1.0
 70
    24
 71
     2
 72
     6
 73
     3
 74
     0
 42
0.0000000001
 43
0.0000000001
 40
0.0
 40
0.0
 40
0.0
 40
32.5
 40
32.5
 40
32.5
 10
465.0
 20
1100.591617314455
 30
0.0
 10
448.75
 20
1100.591617314455
 30
0.0
 10
432.5
 20
1100.591617314455
 30
0.0
  0
SPLINE
  5
AE
330
1F
100
AcDbEntity
  8
Predefinito
100
AcDbSpline
210
0.0
220
0.0
230
1.0
 70
    24
 71
     2
 72
     6
 73
     3
 74
     0
 42
0.0000000001
 43
0.0000000001
 40
0.0
 40
0.0
 40
0.0
 40
32.19975603804352
 40
32.19975603804352
 40
32.19975603804352
 10
432.5
 20
1101.21631236201
 30
0.0
 10
448.5998780190217
 20
1101.21631236201
 30
0.0
 10
464.6997560380435
 20
1101.21631236201
 30
0.0
  0
SPLINE
  5
AF
330
1F
100
AcDbEntity
  8
Predefinito
100
AcDbSpline
210
0.0
220
0.0
230
1.0
 70
    24
 71
     2
 72
     6
 73
     3
 74
     0
 42
0.0000000001
 43
0.0000000001
 40
0.0
 40
0.0
 40
0.0
 40
32.19975603804352
 40
32.19975603804352
 40
32.19975603804352
 10
0.3002439619564825
 20
1101.21631236201
 30
0.0
 10
16.40012198097824
 20
1101.21631236201
 30
0.0
 10
32.5
 20
1101.21631236201
 30
0.0
  0
SPLINE
  5
B0
330
1F
100
AcDbEntity
  8
Predefinito
100
AcDbSpline
210
0.0
220
0.0
230
1.0
 70
    24
 71
     2
 72
     6
 73
     3
 74
     0
 42
0.0000000001
 43
0.0000000001
 40
0.0
 40
0.0
 40
0.0
 40
32.5
 40
32.5
 40
32.5
 10
32.5
 20
1100.591617314455
 30
0.0
 10
16.25
 20
1100.591617314455
 30
0.0
 10
0.0
 20
1100.591617314455
 30
0.0
  0
SPLINE
  5
B1
330
1F
100
AcDbEntity
  8
Predefinito
100
AcDbSpline
210
0.0
220
0.0
230
1.0
 70
    24
 71
     2
 72
     6
 73
     3
 74
     0
 42
0.0000000001
 43
0.0000000001
 40
0.0
 40
0.0
 40
0.0
 40
400.0
 40
400.0
 40
400.0
 10
432.5
 20
1101.21631236201
 30
0.0
 10
232.5
 20
1101.21631236201
 30
0.0
 10
32.5
 20
1101.21631236201
 30
0.0
  0
SPLINE
  5
B2
330
1F
100
AcDbEntity
  8
Predefinito
100
AcDbSpline
210
0.0
220
0.0
230
1.0
 70
    24
 71
     2
 72
     6
 73
     3
 74
     0
 42
0.0000000001
 43
0.0000000001
 40
0.0
 40
0.0
 40
0.0
 40
400.0
 40
400.0
 40
400.0
 10
32.5
 20
1100.591617314455
 30
0.0
 10
232.5
 20
1100.591617314455
 30
0.0
 10
432.5
 20
1100.591617314455
 30
0.0
  0
SPLINE
  5
B3
330
1F
100
AcDbEntity
  8
Predefinito
100
AcDbSpline
210
0.0
220
0.0
230
1.0
 70
    24
 71
     2
 72
     6
 73
     3
 74
     0
 42
0.0000000001
 43
0.0000000001
 40
0.0
 40
0.0
 40
0.0
 40
400.0
 40
400.0
 40
400.0
 10
32.5
 20
1096.735804768701
 30
0.0
 10
232.5
 20
1096.735804768701
 30
0.0
 10
432.5
 20
1096.735804768701
 30
0.0
  0
SPLINE
  5
B4
330
1F
100
AcDbEntity
  8
Predefinito
100
AcDbSpline
210
0.0
220
0.0
230
1.0
 70
    24
 71
     2
 72
     6
 73
     3
 74
     0
 42
0.0000000001
 43
0.0000000001
 40
0.0
 40
0.0
 40
0.0
 40
32.5
 40
32.5
 40
32.5
 10
432.5
 20
1096.735804768701
 30
0.0
 10
448.75
 20
1096.735804768701
 30
0.0
 10
465.0
 20
1096.735804768701
 30
0.0
  0
SPLINE
  5
B5
330
1F
100
AcDbEntity
  8
Predefinito
100
AcDbSpline
210
0.0
220
0.0
230
1.0
 70
    24
 71
     2
 72
     6
 73
     3
 74
     0
 42
0.0000000001
 43
0.0000000001
 40
0.0
 40
0.0
 40
0.0
 40
32.5
 40
32.5
 40
32.5
 10
0.0
 20
1096.735804768701
 30
0.0
 10
16.25
 20
1096.735804768701
 30
0.0
 10
32.5
 20
1096.735804768701
 30
0.0
  0
SPLINE
  5
B6
330
1F
100
AcDbEntity
  8
Predefinito
100
AcDbSpline
210
0.0
220
0.0
230
1.0
 70
    12
 71
     2
 72
     6
 73
     3
 74
     0
 42
0.0000000001
 43
0.0000000001
 40
0.0
 40
0.0
 40
0.0
 40
0.7853981633975113
 40
0.7853981633975113
 40
0.7853981633975113
 10
120.5
 20
765.6358047687012
 30
0.0
 41
1.0
 10
119.9999999999999
 20
765.6358047687013
 30
0.0
 41
0.7071067811863767
 10
120.0
 20
765.1358047687012
 30
0.0
 41
1.0
  0
SPLINE
  5
B7
330
1F
100
AcDbEntity
  8
Predefinito
100
AcDbSpline
210
0.0
220
0.0
230
1.0
 70
    24
 71
     2
 72
     6
 73
     3
 74
     0
 42
0.0000000001
 43
0.0000000001
 40
0.0
 40
0.0
 40
0.0
 40
9.5
 40
9.5
 40
9.5
 10
120.5
 20
765.6358047687012
 30
0.0
 10
125.25
 20
765.6358047687012
 30
0.0
 10
130.0
 20
765.6358047687012
 30
0.0
  0
SPLINE
  5
B8
330
1F
100
AcDbEntity
  8
Predefinito
100
AcDbSpline
210
0.0
220
0.0
230
1.0
 70
    24
 71
     2
 72
     6
 73
     3
 74
     0
 42
0.0000000001
 43
0.0000000001
 40
0.0
 40
0.0
 40
0.0
 40
10.0
 40
10.0
 40
10.0
 10
130.0
 20
765.1358047687012
 30
0.0
 10
125.0
 20
765.1358047687012
 30
0.0
 10
120.0
 20
765.1358047687012
 30
0.0
  0
SPLINE
  5
B9
330
1F
100
AcDbEntity
  8
Predefinito
100
AcDbSpline
210
0.0
220
0.0
230
1.0
 70
    24
 71
     2
 72
     6
 73
     3
 74
     0
 42
0.0000000001
 43
0.0000000001
 40
0.0
 40
0.0
 40
0.0
 40
205.0
 40
205.0
 40
205.0
 10
130.0
 20
765.6358047687012
 30
0.0
 10
232.5
 20
765.6358047687012
 30
0.0
 10
335.0
 20
765.6358047687012
 30
0.0
  0
SPLINE
  5
BA
330
1F
100
AcDbEntity
  8
Predefinito
100
AcDbSpline
210
0.0
220
0.0
230
1.0
 70
    24
 71
     2
 72
     6
 73
     3
 74
     0
 42
0.0000000001
 43
0.0000000001
 40
0.0
 40
0.0
 40
0.0
 40
205.0
 40
205.0
 40
205.0
 10
130.0
 20
765.1358047687012
 30
0.0
 10
232.5
 20
765.1358047687012
 30
0.0
 10
335.0
 20
765.1358047687012
 30
0.0
  0
SPLINE
  5
BB
330
1F
100
AcDbEntity
  8
Predefinito
100
AcDbSpline
210
0.0
220
0.0
230
1.0
 70
    12
 71
     2
 72
     6
 73
     3
 74
     0
 42
0.0000000001
 43
0.0000000001
 40
0.0
 40
0.0
 40
0.0
 40
0.7853981633975459
 40
0.7853981633975459
 40
0.7853981633975459
 10
344.5
 20
765.6358047687012
 30
0.0
 41
1.0
 10
345.0000000000002
 20
765.6358047687013
 30
0.0
 41
0.7071067811862259
 10
345.0
 20
765.1358047687012
 30
0.0
 41
1.0
  0
SPLINE
  5
BC
330
1F
100
AcDbEntity
  8
Predefinito
100
AcDbSpline
210
0.0
220
0.0
230
1.0
 70
    24
 71
     2
 72
     6
 73
     3
 74
     0
 42
0.0000000001
 43
0.0000000001
 40
0.0
 40
0.0
 40
0.0
 40
9.5
 40
9.5
 40
9.5
 10
335.0
 20
765.6358047687012
 30
0.0
 10
339.75
 20
765.6358047687012
 30
0.0
 10
344.5
 20
765.6358047687012
 30
0.0
  0
SPLINE
  5
BD
330
1F
100
AcDbEntity
  8
Predefinito
100
AcDbSpline
210
0.0
220
0.0
230
1.0
 70
    24
 71
     2
 72
     6
 73
     3
 74
     0
 42
0.0000000001
 43
0.0000000001
 40
0.0
 40
0.0
 40
0.0
 40
10.0
 40
10.0
 40
10.0
 10
345.0
 20
765.1358047687012
 30
0.0
 10
340.0
 20
765.1358047687012
 30
0.0
 10
335.0
 20
765.1358047687012
 30
0.0
  0
SPLINE
  5
BE
330
1F
100
AcDbEntity
  8
Predefinito
100
AcDbSpline
210
0.0
220
0.0
230
1.0
 70
    12
 71
     2
 72
     6
 73
     3
 74
     0
 42
0.0000000001
 43
0.0000000001
 40
0.0
 40
0.0
 40
0.0
 40
0.7330382858371026
 40
0.7330382858371026
 40
0.7330382858371026
 10
344.7431448254776
 20
762.3505381973778
 30
0.0
 41
1.0
 10
345.0000000000001
 20
762.6358047687011
 30
0.0
 41
0.9335804264971925
 10
344.9999999999999
 20
763.0196688037362
 30
0.0
 41
1.0
  0
SPLINE
  5
BF
330
1F
100
AcDbEntity
  8
Predefinito
100
AcDbSpline
210
0.0
220
0.0
230
1.0
 70
    24
 71
     2
 72
     6
 73
     3
 74
     0
 42
0.0000000001
 43
0.0000000001
 40
0.0
 40
0.0
 40
0.0
 40
9.7431448254776
 40
9.7431448254776
 40
9.7431448254776
 10
344.7431448254776
 20
762.3505381973778
 30
0.0
 10
339.8715724127388
 20
762.3505381973778
 30
0.0
 10
335.0
 20
762.3505381973779
 30
0.0
  0
SPLINE
  5
C0
330
1F
100
AcDbEntity
  8
Predefinito
100
AcDbSpline
210
0.0
220
0.0
230
1.0
 70
    24
 71
     2
 72
     6
 73
     3
 74
     0
 42
0.0000000001
 43
0.0000000001
 40
0.0
 40
0.0
 40
0.0
 40
10.0
 40
10.0
 40
10.0
 10
345.0
 20
763.0196688037362
 30
0.0
 10
340.0
 20
763.0196688037362
 30
0.0
 10
335.0
 20
763.0196688037362
 30
0.0
  0
SPLINE
  5
C1
330
1F
100
AcDbEntity
  8
Predefinito
100
AcDbSpline
210
0.0
220
0.0
230
1.0
 70
    24
 71
     2
 72
     6
 73
     3
 74
     0
 42
0.0000000001
 43
0.0000000001
 40
0.0
 40
0.0
 40
0.0
 40
205.0
 40
205.0
 40
205.0
 10
130.0
 20
762.3505381973779
 30
0.0
 10
232.5
 20
762.3505381973779
 30
0.0
 10
335.0
 20
762.3505381973779
 30
0.0
  0
SPLINE
  5
C2
330
1F
100
AcDbEntity
  8
Predefinito
100
AcDbSpline
210
0.0
220
0.0
230
1.0
 70
    24
 71
     2
 72
     6
 73
     3
 74
     0
 42
0.0000000001
 43
0.0000000001
 40
0.0
 40
0.0
 40
0.0
 40
205.0
 40
205.0
 40
205.0
 10
335.0
 20
763.0196688037362
 30
0.0
 10
232.5
 20
763.0196688037362
 30
0.0
 10
130.0
 20
763.0196688037362
 30
0.0
  0
SPLINE
  5
C3
330
1F
100
AcDbEntity
  8
Predefinito
100
AcDbSpline
210
0.0
220
0.0
230
1.0
 70
    12
 71
     2
 72
     6
 73
     3
 74
     0
 42
0.0000000001
 43
0.0000000001
 40
0.0
 40
0.0
 40
0.0
 40
0.7330382858371178
 40
0.7330382858371178
 40
0.7330382858371178
 10
120.0
 20
763.0196688037362
 30
0.0
 41
1.0
 10
120.0
 20
762.6358047687011
 30
0.0
 41
0.9335804264971944
 10
120.2568551745224
 20
762.3505381973778
 30
0.0
 41
1.0
  0
SPLINE
  5
C4
330
1F
100
AcDbEntity
  8
Predefinito
100
AcDbSpline
210
0.0
220
0.0
230
1.0
 70
    24
 71
     2
 72
     6
 73
     3
 74
     0
 42
0.0000000001
 43
0.0000000001
 40
0.0
 40
0.0
 40
0.0
 40
9.743144825477245
 40
9.743144825477245
 40
9.743144825477245
 10
130.0
 20
762.3505381973779
 30
0.0
 10
125.1284275872614
 20
762.3505381973779
 30
0.0
 10
120.2568551745228
 20
762.3505381973779
 30
0.0
  0
SPLINE
  5
C5
330
1F
100
AcDbEntity
  8
Predefinito
100
AcDbSpline
210
0.0
220
0.0
230
1.0
 70
    24
 71
     2
 72
     6
 73
     3
 74
     0
 42
0.0000000001
 43
0.0000000001
 40
0.0
 40
0.0
 40
0.0
 40
10.0
 40
10.0
 40
10.0
 10
120.0
 20
763.0196688037362
 30
0.0
 10
125.0
 20
763.0196688037362
 30
0.0
 10
130.0
 20
763.0196688037362
 30
0.0
  0
SPLINE
  5
C6
330
1F
100
AcDbEntity
  8
Predefinito
100
AcDbSpline
210
0.0
220
0.0
230
1.0
 70
    24
 71
     2
 72
     6
 73
     3
 74
     0
 42
0.0000000001
 43
0.0000000001
 40
0.0
 40
0.0
 40
0.0
 40
11.72683053142235
 40
11.72683053142235
 40
11.72683053142235
 10
336.8963636013193
 20
753.6358047687011
 30
0.0
 10
340.8197542133984
 20
757.9931714830394
 30
0.0
 10
344.7431448254776
 20
762.3505381973778
 30
0.0
  0
SPLINE
  5
C7
330
1F
100
AcDbEntity
  8
Predefinito
100
AcDbSpline
210
0.0
220
0.0
230
1.0
 70
    24
 71
     2
 72
     6
 73
     3
 74
     0
 42
0.0000000001
 43
0.0000000001
 40
0.0
 40
0.0
 40
0.0
 40
1.896363601319251
 40
1.896363601319251
 40
1.896363601319251
 10
335.0
 20
753.6358047687012
 30
0.0
 10
335.9481818006597
 20
753.6358047687011
 30
0.0
 10
336.8963636013193
 20
753.6358047687011
 30
0.0
  0
SPLINE
  5
C8
330
1F
100
AcDbEntity
  8
Predefinito
100
AcDbSpline
210
0.0
220
0.0
230
1.0
 70
    24
 71
     2
 72
     6
 73
     3
 74
     0
 42
0.0000000001
 43
0.0000000001
 40
0.0
 40
0.0
 40
0.0
 40
205.0
 40
205.0
 40
205.0
 10
130.0
 20
753.6358047687012
 30
0.0
 10
232.5
 20
753.6358047687012
 30
0.0
 10
335.0
 20
753.6358047687012
 30
0.0
  0
SPLINE
  5
C9
330
1F
100
AcDbEntity
  8
Predefinito
100
AcDbSpline
210
0.0
220
0.0
230
1.0
 70
    24
 71
     2
 72
     6
 73
     3
 74
     0
 42
0.0000000001
 43
0.0000000001
 40
0.0
 40
0.0
 40
0.0
 40
11.72683053142235
 40
11.72683053142235
 40
11.72683053142235
 10
120.2568551745224
 20
762.3505381973778
 30
0.0
 10
124.1802457866016
 20
757.9931714830394
 30
0.0
 10
128.1036363986807
 20
753.6358047687011
 30
0.0
  0
SPLINE
  5
CA
330
1F
100
AcDbEntity
  8
Predefinito
100
AcDbSpline
210
0.0
220
0.0
230
1.0
 70
    24
 71
     2
 72
     6
 73
     3
 74
     0
 42
0.0000000001
 43
0.0000000001
 40
0.0
 40
0.0
 40
0.0
 40
1.896363601319251
 40
1.896363601319251
 40
1.896363601319251
 10
128.1036363986807
 20
753.6358047687011
 30
0.0
 10
129.0518181993404
 20
753.6358047687011
 30
0.0
 10
130.0
 20
753.6358047687012
 30
0.0
  0
SPLINE
  5
CB
330
1F
100
AcDbEntity
  8
Predefinito
100
AcDbSpline
210
0.0
220
0.0
230
1.0
 70
    24
 71
     2
 72
     6
 73
     3
 74
     0
 42
0.0000000001
 43
0.0000000001
 40
0.0
 40
0.0
 40
0.0
 40
2.116135964964997
 40
2.116135964964997
 40
2.116135964964997
 10
120.0
 20
765.1358047687012
 30
0.0
 10
120.0
 20
764.0777367862187
 30
0.0
 10
120.0
 20
763.0196688037362
 30
0.0
  0
SPLINE
  5
CC
330
1F
100
AcDbEntity
  8
Predefinito
100
AcDbSpline
210
0.0
220
0.0
230
1.0
 70
    24
 71
     2
 72
     6
 73
     3
 74
     0
 42
0.0000000001
 43
0.0000000001
 40
0.0
 40
0.0
 40
0.0
 40
2.116135964964997
 40
2.116135964964997
 40
2.116135964964997
 10
345.0
 20
763.0196688037362
 30
0.0
 10
345.0
 20
764.0777367862187
 30
0.0
 10
345.0
 20
765.1358047687012
 30
0.0
  0
SPLINE
  5
CD
330
1F
100
AcDbEntity
  8
Predefinito
100
AcDbSpline
210
0.0
220
0.0
230
1.0
 70
    24
 71
     2
 72
     6
 73
     3
 74
     0
 42
0.0000000001
 43
0.0000000001
 40
0.0
 40
0.0
 40
0.0
 40
311.1
 40
311.1
 40
311.1
 10
157.4999999999999
 20
785.6358047687012
 30
0.0
 10
157.4999999999999
 20
941.1858047687012
 30
0.0
 10
157.4999999999999
 20
1096.735804768701
 30
0.0
  0
SPLINE
  5
CE
330
1F
100
AcDbEntity
  8
Predefinito
100
AcDbSpline
210
0.0
220
0.0
230
1.0
 70
    12
 71
     2
 72
     6
 73
     3
 74
     0
 42
0.0000000001
 43
0.0000000001
 40
0.0
 40
0.0
 40
0.0
 40
23.18238043160731
 40
23.18238043160731
 40
23.18238043160731
 10
157.4999999852535
 20
765.635804779761
 30
0.0
 41
1.0
 10
147.4999999999999
 20
773.1358047802217
 30
0.0
 41
0.8944271911647842
 10
147.4999999999999
 20
785.6358047687012
 30
0.0
 41
1.0
  0
SPLINE
  5
CF
330
1F
100
AcDbEntity
  8
Predefinito
100
AcDbSpline
210
0.0
220
0.0
230
1.0
 70
    24
 71
     2
 72
     6
 73
     3
 74
     0
 42
0.0000000001
 43
0.0000000001
 40
0.0
 40
0.0
 40
0.0
 40
120.0
 40
120.0
 40
120.0
 10
172.5
 20
770.6358047687012
 30
0.0
 10
232.5
 20
770.6358047687012
 30
0.0
 10
292.5
 20
770.6358047687012
 30
0.0
  0
SPLINE
  5
D0
330
1F
100
AcDbEntity
  8
Predefinito
100
AcDbSpline
210
0.0
220
0.0
230
1.0
 70
    24
 71
     2
 72
     6
 73
     3
 74
     0
 42
0.0000000001
 43
0.0000000001
 40
0.0
 40
0.0
 40
0.0
 40
311.1
 40
311.1
 40
311.1
 10
317.5000000000001
 20
785.6358047687012
 30
0.0
 10
317.5000000000001
 20
941.1858047687012
 30
0.0
 10
317.5000000000001
 20
1096.735804768701
 30
0.0
  0
SPLINE
  5
D1
330
1F
100
AcDbEntity
  8
Predefinito
100
AcDbSpline
210
0.0
220
0.0
230
1.0
 70
    12
 71
     2
 72
     6
 73
     3
 74
     0
 42
0.0000000001
 43
0.0000000001
 40
0.0
 40
0.0
 40
0.0
 40
23.18238045004024
 40
23.18238045004024
 40
23.18238045004024
 10
317.5000000000001
 20
785.6358047687012
 30
0.0
 41
1.0
 10
317.5000000000001
 20
773.1358047687012
 30
0.0
 41
0.8944271909999151
 10
307.5000000000001
 20
765.6358047687013
 30
0.0
 41
1.0
  0
SPLINE
  5
D2
330
1F
100
AcDbEntity
  8
Predefinito
100
AcDbSpline
210
0.0
220
0.0
230
1.0
 70
    24
 71
     2
 72
     6
 73
     3
 74
     0
 42
0.0000000001
 43
0.0000000001
 40
0.0
 40
0.0
 40
0.0
 40
201.4
 40
201.4
 40
201.4
 10
333.200000000001
 20
752.8858047687012
 30
0.0
 10
232.500000000001
 20
752.8858047687012
 30
0.0
 10
131.800000000001
 20
752.8858047687012
 30
0.0
  0
SPLINE
  5
D3
330
1F
100
AcDbEntity
  8
Predefinito
100
AcDbSpline
210
0.0
220
0.0
230
1.0
 70
    24
 71
     2
 72
     6
 73
     3
 74
     0
 42
0.0000000001
 43
0.0000000001
 40
0.0
 40
0.0
 40
0.0
 40
0.75
 40
0.75
 40
0.75
 10
335.200000000001
 20
752.8858047687012
 30
0.0
 10
335.200000000001
 20
753.2608047687012
 30
0.0
 10
335.200000000001
 20
753.6358047687012
 30
0.0
  0
SPLINE
  5
D4
330
1F
100
AcDbEntity
  8
Predefinito
100
AcDbSpline
210
0.0
220
0.0
230
1.0
 70
    24
 71
     2
 72
     6
 73
     3
 74
     0
 42
0.0000000001
 43
0.0000000001
 40
0.0
 40
0.0
 40
0.0
 40
0.75
 40
0.75
 40
0.75
 10
129.800000000001
 20
753.6358047687012
 30
0.0
 10
129.800000000001
 20
753.2608047687012
 30
0.0
 10
129.800000000001
 20
752.8858047687012
 30
0.0
  0
SPLINE
  5
D5
330
1F
100
AcDbEntity
  8
Predefinito
100
AcDbSpline
210
0.0
220
0.0
230
1.0
 70
    24
 71
     2
 72
     6
 73
     3
 74
     0
 42
0.0000000001
 43
0.0000000001
 40
0.0
 40
0.0
 40
0.0
 40
2.0
 40
2.0
 40
2.0
 10
129.800000000001
 20
752.8858047687012
 30
0.0
 10
130.800000000001
 20
752.8858047687012
 30
0.0
 10
131.800000000001
 20
752.8858047687012
 30
0.0
  0
SPLINE
  5
D6
330
1F
100
AcDbEntity
  8
Predefinito
100
AcDbSpline
210
0.0
220
0.0
230
1.0
 70
    24
 71
     2
 72
     6
 73
     3
 74
     0
 42
0.0000000001
 43
0.0000000001
 40
0.0
 40
0.0
 40
0.0
 40
2.0
 40
2.0
 40
2.0
 10
333.200000000001
 20
752.8858047687012
 30
0.0
 10
334.200000000001
 20
752.8858047687012
 30
0.0
 10
335.200000000001
 20
752.8858047687012
 30
0.0
  0
SPLINE
  5
D7
330
1F
100
AcDbEntity
  8
Predefinito
100
AcDbSpline
210
0.0
220
0.0
230
1.0
 70
    24
 71
     2
 72
     6
 73
     3
 74
     0
 42
0.0000000001
 43
0.0000000001
 40
0.0
 40
0.0
 40
0.0
 40
201.4
 40
201.4
 40
201.4
 10
333.2
 20
752.3858047687012
 30
0.0
 10
232.5
 20
752.3858047687012
 30
0.0
 10
131.8
 20
752.3858047687012
 30
0.0
  0
SPLINE
  5
D8
330
1F
100
AcDbEntity
  8
Predefinito
100
AcDbSpline
210
0.0
220
0.0
230
1.0
 70
    24
 71
     2
 72
     6
 73
     3
 74
     0
 42
0.0000000001
 43
0.0000000001
 40
0.0
 40
0.0
 40
0.0
 40
0.5
 40
0.5
 40
0.5
 10
335.2
 20
752.3858047687012
 30
0.0
 10
335.2
 20
752.6358047687012
 30
0.0
 10
335.2
 20
752.8858047687012
 30
0.0
  0
SPLINE
  5
D9
330
1F
100
AcDbEntity
  8
Predefinito
100
AcDbSpline
210
0.0
220
0.0
230
1.0
 70
    24
 71
     2
 72
     6
 73
     3
 74
     0
 42
0.0000000001
 43
0.0000000001
 40
0.0
 40
0.0
 40
0.0
 40
0.5
 40
0.5
 40
0.5
 10
129.8
 20
752.8858047687012
 30
0.0
 10
129.8
 20
752.6358047687012
 30
0.0
 10
129.8
 20
752.3858047687012
 30
0.0
  0
SPLINE
  5
DA
330
1F
100
AcDbEntity
  8
Predefinito
100
AcDbSpline
210
0.0
220
0.0
230
1.0
 70
    24
 71
     2
 72
     6
 73
     3
 74
     0
 42
0.0000000001
 43
0.0000000001
 40
0.0
 40
0.0
 40
0.0
 40
2.0
 40
2.0
 40
2.0
 10
129.8
 20
752.3858047687012
 30
0.0
 10
130.8
 20
752.3858047687012
 30
0.0
 10
131.8
 20
752.3858047687012
 30
0.0
  0
SPLINE
  5
DB
330
1F
100
AcDbEntity
  8
Predefinito
100
AcDbSpline
210
0.0
220
0.0
230
1.0
 70
    24
 71
     2
 72
     6
 73
     3
 74
     0
 42
0.0000000001
 43
0.0000000001
 40
0.0
 40
0.0
 40
0.0
 40
2.0
 40
2.0
 40
2.0
 10
333.2
 20
752.3858047687012
 30
0.0
 10
334.2
 20
752.3858047687012
 30
0.0
 10
335.2
 20
752.3858047687012
 30
0.0
  0
SPLINE
  5
DC
330
1F
100
AcDbEntity
  8
Predefinito
100
AcDbSpline
210
0.0
220
0.0
230
1.0
 70
    12
 71
     2
 72
     6
 73
     3
 74
     0
 42
0.0000000001
 43
0.0000000001
 40
0.0
 40
0.0
 40
0.0
 40
0.3807402903514455
 40
0.3807402903514455
 40
0.3807402903514455
 10
445.019766612682
 20
1116.735804768701
 30
0.0
 41
1.0
 10
445.2137571410545
 20
1116.735324605756
 30
0.0
 41
0.9722352103427628
 10
445.3862838503396
 20
1116.646627986666
 30
0.0
 41
1.0
  0
SPLINE
  5
DD
330
1F
100
AcDbEntity
  8
Predefinito
100
AcDbSpline
210
0.0
220
0.0
230
1.0
 70
    12
 71
     2
 72
     6
 73
     3
 74
     0
 42
0.0000000001
 43
0.0000000001
 40
0.0
 40
0.0
 40
0.0
 40
0.0394161103558581
 40
0.0394161103558581
 40
0.0394161103558581
 10
445.4526690326777
 20
1116.608444366926
 30
0.0
 41
1.0
 10
445.469265603562
 20
1116.597808462791
 30
0.0
 41
0.9996888876714812
 10
445.4853111172451
 20
1116.586358130372
 30
0.0
 41
1.0
  0
SPLINE
  5
DE
330
1F
100
AcDbEntity
  8
Predefinito
100
AcDbSpline
210
0.0
220
0.0
230
1.0
 70
    12
 71
     2
 72
     6
 73
     3
 74
     0
 42
0.0000000001
 43
0.0000000001
 40
0.0
 40
0.0
 40
0.0
 40
0.3807402903474927
 40
0.3807402903474927
 40
0.3807402903474927
 10
19.61371614966357
 20
1116.646627986666
 30
0.0
 41
1.0
 10
19.78624285894846
 20
1116.73532460575
 30
0.0
 41
0.9722352103498894
 10
19.98023338731792
 20
1116.735804768701
 30
0.0
 41
1.0
  0
SPLINE
  5
DF
330
1F
100
AcDbEntity
  8
Predefinito
100
AcDbSpline
210
0.0
220
0.0
230
1.0
 70
    12
 71
     2
 72
     6
 73
     3
 74
     0
 42
0.0000000001
 43
0.0000000001
 40
0.0
 40
0.0
 40
0.0
 40
0.7160964626074088
 40
0.7160964626074088
 40
0.7160964626074088
 10
464.6997560380435
 20
1101.21631236201
 30
0.0
 41
1.0
 10
464.997336374456
 20
1100.974836987823
 30
0.0
 41
0.9042923356341207
 10
465.0000000000001
 20
1100.591617314455
 30
0.0
 41
1.0
  0
SPLINE
  5
E0
330
1F
100
AcDbEntity
  8
Predefinito
100
AcDbSpline
210
0.0
220
0.0
230
1.0
 70
    12
 71
     2
 72
     6
 73
     3
 74
     0
 42
0.0000000001
 43
0.0000000001
 40
0.0
 40
0.0
 40
0.0
 40
0.7160264374656518
 40
0.7160264374656518
 40
0.7160264374656518
 10
-0.0000000000000001
 20
1100.591617314455
 30
0.0
 41
1.0
 10
0.0029144828008793
 20
1100.974716419593
 30
0.0
 41
0.9045726070247267
 10
0.3002439619565874
 20
1101.21631236201
 30
0.0
 41
1.0
  0
SPLINE
  5
E1
330
1F
100
AcDbEntity
  8
Predefinito
100
AcDbSpline
210
0.0
220
0.0
230
1.0
 70
    24
 71
     2
 72
     6
 73
     3
 74
     0
 42
0.0000000001
 43
0.0000000001
 40
0.0
 40
0.0
 40
0.0
 40
3.855812545753906
 40
3.855812545753906
 40
3.855812545753906
 10
465.0
 20
1100.591617314455
 30
0.0
 10
465.0
 20
1098.663711041578
 30
0.0
 10
465.0
 20
1096.735804768701
 30
0.0
  0
SPLINE
  5
E2
330
1F
100
AcDbEntity
  8
Predefinito
100
AcDbSpline
210
0.0
220
0.0
230
1.0
 70
    24
 71
     2
 72
     6
 73
     3
 74
     0
 42
0.0000000001
 43
0.0000000001
 40
0.0
 40
0.0
 40
0.0
 40
24.46097573920111
 40
24.46097573920111
 40
24.46097573920111
 10
445.5195217202361
 20
1116.560499816256
 30
0.0
 10
455.0699282218785
 20
1108.920174614942
 30
0.0
 10
464.620334723521
 20
1101.279849413628
 30
0.0
  0
SPLINE
  5
E3
330
1F
100
AcDbEntity
  8
Predefinito
100
AcDbSpline
210
0.0
220
0.0
230
1.0
 70
    24
 71
     2
 72
     6
 73
     3
 74
     0
 42
0.0000000001
 43
0.0000000001
 40
0.0
 40
0.0
 40
0.0
 40
3.855812545753906
 40
3.855812545753906
 40
3.855812545753906
 10
0.0
 20
1096.735804768701
 30
0.0
 10
0.0
 20
1098.663711041578
 30
0.0
 10
0.0
 20
1100.591617314455
 30
0.0
  0
SPLINE
  5
E4
330
1F
100
AcDbEntity
  8
Predefinito
100
AcDbSpline
210
0.0
220
0.0
230
1.0
 70
    24
 71
     2
 72
     6
 73
     3
 74
     0
 42
0.0000000001
 43
0.0000000001
 40
0.0
 40
0.0
 40
0.0
 40
24.46097573920147
 40
24.46097573920147
 40
24.46097573920147
 10
0.3796652764789716
 20
1101.279849413628
 30
0.0
 10
9.930071778121464
 20
1108.920174614942
 30
0.0
 10
19.48047827976396
 20
1116.560499816256
 30
0.0
  0
SPLINE
  5
E5
330
1F
100
AcDbEntity
  8
Predefinito
100
AcDbSpline
210
0.0
220
0.0
230
1.0
 70
    24
 71
     2
 72
     6
 73
     3
 74
     0
 42
0.0000000001
 43
0.0000000001
 40
0.0
 40
0.0
 40
0.0
 40
311.1000000000001
 40
311.1000000000001
 40
311.1000000000001
 10
147.4999999999999
 20
785.6358047687013
 30
0.0
 10
147.4999999999999
 20
941.1858047687014
 30
0.0
 10
147.4999999999999
 20
1096.735804768701
 30
0.0
  0
SPLINE
  5
E6
330
1F
100
AcDbEntity
  8
Predefinito
100
AcDbSpline
210
0.0
220
0.0
230
1.0
 70
    12
 71
     2
 72
     6
 73
     3
 74
     0
 42
0.0000000001
 43
0.0000000001
 40
0.0
 40
0.0
 40
0.0
 40
23.56193716538047
 40
23.56193716538047
 40
23.56193716538047
 10
157.5
 20
785.6358047687012
 30
0.0
 41
1.0
 10
157.5000180253381
 20
770.6358227940392
 30
0.0
 41
0.7071076309096436
 10
172.5
 20
770.6358047687013
 30
0.0
 41
1.0
  0
SPLINE
  5
E7
330
1F
100
AcDbEntity
  8
Predefinito
100
AcDbSpline
210
0.0
220
0.0
230
1.0
 70
    24
 71
     2
 72
     6
 73
     3
 74
     0
 42
0.0000000001
 43
0.0000000001
 40
0.0
 40
0.0
 40
0.0
 40
311.1000000000001
 40
311.1000000000001
 40
311.1000000000001
 10
307.5000000000001
 20
785.6358047687013
 30
0.0
 10
307.5000000000001
 20
941.1858047687014
 30
0.0
 10
307.5000000000001
 20
1096.735804768701
 30
0.0
  0
SPLINE
  5
E8
330
1F
100
AcDbEntity
  8
Predefinito
100
AcDbSpline
210
0.0
220
0.0
230
1.0
 70
    12
 71
     2
 72
     6
 73
     3
 74
     0
 42
0.0000000001
 43
0.0000000001
 40
0.0
 40
0.0
 40
0.0
 40
23.56193716538062
 40
23.56193716538062
 40
23.56193716538062
 10
292.5
 20
770.6358047687012
 30
0.0
 41
1.0
 10
307.4999819746621
 20
770.6358227940387
 30
0.0
 41
0.7071076309096316
 10
307.4999999999999
 20
785.6358047687011
 30
0.0
 41
1.0
  0
VIEWPORT
  5
F2
330
EE
100
AcDbEntity
 67
     1
  8
0
100
AcDbViewport
 10
6.0
 20
4.5
 30
0.0
 40
12.696
 41
9.522
 68
     1
 69
     1
 12
6.0
 22
4.5
 13
0.0
 23
0.0
 14
0.5
 24
0.5
 15
0.5
 25
0.5
 16
0.0
 26
0.0
 36
1.0
 17
0.0
 27
0.0
 37
0.0
 42
50.0
 43
0.0
 44
0.0
 45
9.522
 50
0.0
 51
0.0
 72
   100
 90
   557152
  1

281
     0
 71
     1
 74
     0
110
0.0
120
0.0
130
0.0
111
1.0
121
0.0
131
0.0
112
0.0
122
1.0
132
0.0
 79
     0
146
0.0
170
     0
  0
ENDSEC
  0
SECTION
  2
OBJECTS
  0
DICTIONARY
  5
C
330
0
100
AcDbDictionary
281
     1
  3
ACAD_GROUP
350
D
  3
ACAD_LAYOUT
350
1A
  3
ACAD_MLEADERSTYLE
350
118
  3
ACAD_MLINESTYLE
350
17
  3
ACAD_PLOTSETTINGS
350
19
  3
ACAD_PLOTSTYLENAME
350
E
  3
ACAD_SCALELIST
350
F3
  3
ACAD_TABLESTYLE
350
117
  3
ACAD_VISUALSTYLE
350
2A
  3
AcDbVariableDictionary
350
115
  0
DICTIONARY
  5
D
102
{ACAD_REACTORS
330
C
102
}
330
C
100
AcDbDictionary
281
     1
  0
DICTIONARY
  5
1A
102
{ACAD_REACTORS
330
C
102
}
330
C
100
AcDbDictionary
281
     1
  3
Layout1
350
EA
  3
Layout2
350
EF
  3
Model
350
22
  0
DICTIONARY
  5
118
102
{ACAD_REACTORS
330
C
102
}
330
C
100
AcDbDictionary
281
     1
  0
DICTIONARY
  5
17
102
{ACAD_REACTORS
330
C
102
}
330
C
100
AcDbDictionary
281
     1
  3
Standard
350
18
  0
DICTIONARY
  5
19
102
{ACAD_REACTORS
330
C
102
}
330
C
100
AcDbDictionary
281
     1
  0
ACDBDICTIONARYWDFLT
  5
E
102
{ACAD_REACTORS
330
C
102
}
330
C
100
AcDbDictionary
281
     1
  3
Normal
350
F
100
AcDbDictionaryWithDefault
340
F
  0
DICTIONARY
  5
F3
102
{ACAD_REACTORS
330
C
102
}
330
C
100
AcDbDictionary
281
     1
  3
A0
350
F4
  3
A1
350
F5
  3
A2
350
F6
  3
A3
350
F7
  3
A4
350
F8
  3
A5
350
F9
  3
A6
350
FA
  3
A7
350
FB
  3
A8
350
FC
  3
A9
350
FD
  3
B0
350
FE
  3
B1
350
FF
  3
B2
350
100
  3
B3
350
101
  3
B4
350
102
  3
B5
350
103
  3
B6
350
104
  3
B7
350
105
  3
B8
350
106
  3
B9
350
107
  3
C0
350
108
  3
C1
350
109
  3
C2
350
10A
  3
C3
350
10B
  3
C4
350
10C
  3
C5
350
10D
  3
C6
350
10E
  3
C7
350
10F
  3
C8
350
110
  3
C9
350
111
  3
D0
350
112
  3
D1
350
113
  3
D2
350
114
  0
DICTIONARY
  5
117
102
{ACAD_REACTORS
330
C
102
}
330
C
100
AcDbDictionary
281
     1
  0
DICTIONARY
  5
2A
102
{ACAD_REACTORS
330
C
102
}
330
C
100
AcDbDictionary
281
     1
  3
2dWireframe
350
2F
  3
3D Hidden
350
31
  3
3dWireframe
350
30
  3
Basic
350
32
  3
Brighten
350
36
  3
ColorChange
350
3A
  3
Conceptual
350
34
  3
Dim
350
35
  3
Facepattern
350
39
  3
Flat
350
2B
  3
FlatWithEdges
350
2C
  3
Gouraud
350
2D
  3
GouraudWithEdges
350
2E
  3
Linepattern
350
38
  3
Realistic
350
33
  3
Thicken
350
37
  0
DICTIONARY
  5
115
102
{ACAD_REACTORS
330
C
102
}
330
C
100
AcDbDictionary
281
     1
  3
CANNOSCALE
350
116
  0
LAYOUT
  5
EA
102
{ACAD_REACTORS
330
1A
102
}
330
1A
100
AcDbPlotSettings
  1

  2
none_device
  4
Letter_(8.50_x_11.00_Inches)
  6

 40
6.35
 41
6.35
 42
6.35000508
 43
6.35000508
 44
215.9
 45
279.4
 46
0.0
 47
0.0
 48
0.0
 49
0.0
140
0.0
141
0.0
142
1.0
143
1.0
 70
   688
 72
     0
 73
     1
 74
     5
  7

 75
    16
 76
     0
 77
     2
 78
   300
147
1.0
148
0.0
149
0.0
100
AcDbLayout
  1
Layout1
 70
     1
 71
     1
 10
0.0
 20
0.0
 11
0.0
 21
0.0
 12
0.0
 22
0.0
 32
0.0
 14
0.0
 24
0.0
 34
0.0
 15
0.0
 25
0.0
 35
0.0
146
0.0
 13
0.0
 23
0.0
 33
0.0
 16
1.0
 26
0.0
 36
0.0
 17
0.0
 27
1.0
 37
0.0
 76
     0
330
E9
331
ED
  0
LAYOUT
  5
EF
102
{ACAD_REACTORS
330
1A
102
}
330
1A
100
AcDbPlotSettings
  1

  2
none_device
  4
Letter_(8.50_x_11.00_Inches)
  6

 40
6.35
 41
6.35
 42
6.35000508
 43
6.35000508
 44
215.9
 45
279.4
 46
0.0
 47
0.0
 48
0.0
 49
0.0
140
0.0
141
0.0
142
1.0
143
1.0
 70
   688
 72
     0
 73
     1
 74
     5
  7

 75
    16
 76
     0
 77
     2
 78
   300
147
1.0
148
0.0
149
0.0
100
AcDbLayout
  1
Layout2
 70
     1
 71
     2
 10
0.0
 20
0.0
 11
0.0
 21
0.0
 12
0.0
 22
0.0
 32
0.0
 14
0.0
 24
0.0
 34
0.0
 15
0.0
 25
0.0
 35
0.0
146
0.0
 13
0.0
 23
0.0
 33
0.0
 16
1.0
 26
0.0
 36
0.0
 17
0.0
 27
1.0
 37
0.0
 76
     0
330
EE
331
F2
  0
LAYOUT
  5
22
102
{ACAD_REACTORS
330
1A
102
}
330
1A
100
AcDbPlotSettings
  1

  2
none_device
  4

  6

 40
0.0
 41
0.0
 42
0.0
 43
0.0
 44
0.0
 45
0.0
 46
0.0
 47
0.0
 48
0.0
 49
0.0
140
0.0
141
0.0
142
1.0
143
1.0
 70
  1712
 72
     0
 73
     0
 74
     0
  7

 75
     0
 76
     0
 77
     2
 78
   300
147
1.0
148
0.0
149
0.0
100
AcDbLayout
  1
Model
 70
     1
 71
     0
 10
0.0
 20
0.0
 11
12.0
 21
9.0
 12
0.0
 22
0.0
 32
0.0
 14
-0.0000000000000001
 24
0.0000000000000782
 34
0.0
 15
852.3858047687012
 25
1116.735804768701
 35
0.0
146
0.0
 13
0.0
 23
0.0
 33
0.0
 16
1.0
 26
0.0
 36
0.0
 17
0.0
 27
1.0
 37
0.0
 76
     0
330
1F
331
29
  0
MLINESTYLE
  5
18
102
{ACAD_REACTORS
330
17
102
}
330
17
100
AcDbMlineStyle
  2
Standard
 70
     0
  3

 62
   256
 51
90.0
 52
90.0
 71
     2
 49
0.5
 62
   256
  6
BYLAYER
 49
-0.5
 62
   256
  6
BYLAYER
  0
ACDBPLACEHOLDER
  5
F
102
{ACAD_REACTORS
330
E
102
}
330
E
  0
SCALE
  5
F4
102
{ACAD_REACTORS
330
F3
102
}
330
F3
100
AcDbScale
 70
     0
300
1:1
140
1.0
141
1.0
290
     1
  0
SCALE
  5
F5
102
{ACAD_REACTORS
330
F3
102
}
330
F3
100
AcDbScale
 70
     0
300
1:2
140
1.0
141
2.0
290
     0
  0
SCALE
  5
F6
102
{ACAD_REACTORS
330
F3
102
}
330
F3
100
AcDbScale
 70
     0
300
1:4
140
1.0
141
4.0
290
     0
  0
SCALE
  5
F7
102
{ACAD_REACTORS
330
F3
102
}
330
F3
100
AcDbScale
 70
     0
300
1:5
140
1.0
141
5.0
290
     0
  0
SCALE
  5
F8
102
{ACAD_REACTORS
330
F3
102
}
330
F3
100
AcDbScale
 70
     0
300
1:8
140
1.0
141
8.0
290
     0
  0
SCALE
  5
F9
102
{ACAD_REACTORS
330
F3
102
}
330
F3
100
AcDbScale
 70
     0
300
1:10
140
1.0
141
10.0
290
     0
  0
SCALE
  5
FA
102
{ACAD_REACTORS
330
F3
102
}
330
F3
100
AcDbScale
 70
     0
300
1:16
140
1.0
141
16.0
290
     0
  0
SCALE
  5
FB
102
{ACAD_REACTORS
330
F3
102
}
330
F3
100
AcDbScale
 70
     0
300
1:20
140
1.0
141
20.0
290
     0
  0
SCALE
  5
FC
102
{ACAD_REACTORS
330
F3
102
}
330
F3
100
AcDbScale
 70
     0
300
1:30
140
1.0
141
30.0
290
     0
  0
SCALE
  5
FD
102
{ACAD_REACTORS
330
F3
102
}
330
F3
100
AcDbScale
 70
     0
300
1:40
140
1.0
141
40.0
290
     0
  0
SCALE
  5
FE
102
{ACAD_REACTORS
330
F3
102
}
330
F3
100
AcDbScale
 70
     0
300
1:50
140
1.0
141
50.0
290
     0
  0
SCALE
  5
FF
102
{ACAD_REACTORS
330
F3
102
}
330
F3
100
AcDbScale
 70
     0
300
1:100
140
1.0
141
100.0
290
     0
  0
SCALE
  5
100
102
{ACAD_REACTORS
330
F3
102
}
330
F3
100
AcDbScale
 70
     0
300
2:1
140
2.0
141
1.0
290
     0
  0
SCALE
  5
101
102
{ACAD_REACTORS
330
F3
102
}
330
F3
100
AcDbScale
 70
     0
300
4:1
140
4.0
141
1.0
290
     0
  0
SCALE
  5
102
102
{ACAD_REACTORS
330
F3
102
}
330
F3
100
AcDbScale
 70
     0
300
8:1
140
8.0
141
1.0
290
     0
  0
SCALE
  5
103
102
{ACAD_REACTORS
330
F3
102
}
330
F3
100
AcDbScale
 70
     0
300
10:1
140
10.0
141
1.0
290
     0
  0
SCALE
  5
104
102
{ACAD_REACTORS
330
F3
102
}
330
F3
100
AcDbScale
 70
     0
300
100:1
140
100.0
141
1.0
290
     0
  0
SCALE
  5
105
102
{ACAD_REACTORS
330
F3
102
}
330
F3
100
AcDbScale
 70
     0
300
1/128" = 1'-0"
140
0.0078125
141
12.0
290
     0
  0
SCALE
  5
106
102
{ACAD_REACTORS
330
F3
102
}
330
F3
100
AcDbScale
 70
     0
300
1/64" = 1'-0"
140
0.015625
141
12.0
290
     0
  0
SCALE
  5
107
102
{ACAD_REACTORS
330
F3
102
}
330
F3
100
AcDbScale
 70
     0
300
1/32" = 1'-0"
140
0.03125
141
12.0
290
     0
  0
SCALE
  5
108
102
{ACAD_REACTORS
330
F3
102
}
330
F3
100
AcDbScale
 70
     0
300
1/16" = 1'-0"
140
0.0625
141
12.0
290
     0
  0
SCALE
  5
109
102
{ACAD_REACTORS
330
F3
102
}
330
F3
100
AcDbScale
 70
     0
300
3/32" = 1'-0"
140
0.09375
141
12.0
290
     0
  0
SCALE
  5
10A
102
{ACAD_REACTORS
330
F3
102
}
330
F3
100
AcDbScale
 70
     0
300
1/8" = 1'-0"
140
0.125
141
12.0
290
     0
  0
SCALE
  5
10B
102
{ACAD_REACTORS
330
F3
102
}
330
F3
100
AcDbScale
 70
     0
300
3/16" = 1'-0"
140
0.1875
141
12.0
290
     0
  0
SCALE
  5
10C
102
{ACAD_REACTORS
330
F3
102
}
330
F3
100
AcDbScale
 70
     0
300
1/4" = 1'-0"
140
0.25
141
12.0
290
     0
  0
SCALE
  5
10D
102
{ACAD_REACTORS
330
F3
102
}
330
F3
100
AcDbScale
 70
     0
300
3/8" = 1'-0"
140
0.375
141
12.0
290
     0
  0
SCALE
  5
10E
102
{ACAD_REACTORS
330
F3
102
}
330
F3
100
AcDbScale
 70
     0
300
1/2" = 1'-0"
140
0.5
141
12.0
290
     0
  0
SCALE
  5
10F
102
{ACAD_REACTORS
330
F3
102
}
330
F3
100
AcDbScale
 70
     0
300
3/4" = 1'-0"
140
0.75
141
12.0
290
     0
  0
SCALE
  5
110
102
{ACAD_REACTORS
330
F3
102
}
330
F3
100
AcDbScale
 70
     0
300
1" = 1'-0"
140
1.0
141
12.0
290
     0
  0
SCALE
  5
111
102
{ACAD_REACTORS
330
F3
102
}
330
F3
100
AcDbScale
 70
     0
300
1-1/2" = 1'-0"
140
1.5
141
12.0
290
     0
  0
SCALE
  5
112
102
{ACAD_REACTORS
330
F3
102
}
330
F3
100
AcDbScale
 70
     0
300
3" = 1'-0"
140
3.0
141
12.0
290
     0
  0
SCALE
  5
113
102
{ACAD_REACTORS
330
F3
102
}
330
F3
100
AcDbScale
 70
     0
300
6" = 1'-0"
140
6.0
141
12.0
290
     0
  0
SCALE
  5
114
102
{ACAD_REACTORS
330
F3
102
}
330
F3
100
AcDbScale
 70
     0
300
1'-0" = 1'-0"
140
12.0
141
12.0
290
     0
  0
VISUALSTYLE
  5
2F
102
{ACAD_REACTORS
330
2A
102
}
330
2A
100
AcDbVisualStyle
  2
2dWireframe
 70
     4
 71
     0
 72
     2
 73
     0
 90
        0
 40
-0.6
 41
-30.0
 62
     5
 63
     7
421
 16777215
 74
     1
 91
        4
 64
     7
 65
   257
 75
     1
175
     1
 42
1.0
 92
        0
 66
   257
 43
1.0
 76
     1
 77
     6
 78
     2
 67
     7
 79
     5
170
     0
171
     0
290
     0
174
     0
 93
        1
 44
0.0
173
     0
291
     0
 45
0.0
1001
ACAD
1000
AcDbSavedByObjectVersion
1070
     0
  0
VISUALSTYLE
  5
31
102
{ACAD_REACTORS
330
2A
102
}
330
2A
100
AcDbVisualStyle
  2
3D Hidden
 70
     6
 71
     1
 72
     2
 73
     2
 90
        0
 40
-0.6
 41
-30.0
 62
     5
 63
     7
421
 16777215
 74
     2
 91
        2
 64
     7
 65
   257
 75
     2
175
     1
 42
40.0
 92
        0
 66
   257
 43
1.0
 76
     1
 77
     6
 78
     2
 67
     7
 79
     3
170
     0
171
     0
290
     0
174
     0
 93
        1
 44
0.0
173
     0
291
     0
 45
0.0
1001
ACAD
1000
AcDbSavedByObjectVersion
1070
     0
  0
VISUALSTYLE
  5
30
102
{ACAD_REACTORS
330
2A
102
}
330
2A
100
AcDbVisualStyle
  2
3dWireframe
 70
     5
 71
     0
 72
     2
 73
     0
 90
        0
 40
-0.6
 41
-30.0
 62
     5
 63
     7
421
 16777215
 74
     1
 91
        4
 64
     7
 65
   257
 75
     1
175
     1
 42
1.0
 92
        0
 66
   257
 43
1.0
 76
     1
 77
     6
 78
     2
 67
     7
 79
     5
170
     0
171
     0
290
     0
174
     0
 93
        1
 44
0.0
173
     0
291
     0
 45
0.0
1001
ACAD
1000
AcDbSavedByObjectVersion
1070
     0
  0
VISUALSTYLE
  5
32
102
{ACAD_REACTORS
330
2A
102
}
330
2A
100
AcDbVisualStyle
  2
Basic
 70
     7
 71
     1
 72
     0
 73
     1
 90
        0
 40
-0.6
 41
-30.0
 62
     5
 63
     7
421
 16777215
 74
     0
 91
        4
 64
     7
 65
   257
 75
     1
175
     1
 42
1.0
 92
        8
 66
     7
 43
1.0
 76
     1
 77
     6
 78
     2
 67
     7
 79
     5
170
     0
171
     0
290
     0
174
     0
 93
        1
 44
0.0
173
     0
291
     1
 45
0.0
1001
ACAD
1000
AcDbSavedByObjectVersion
1070
     0
  0
VISUALSTYLE
  5
36
102
{ACAD_REACTORS
330
2A
102
}
330
2A
100
AcDbVisualStyle
  2
Brighten
 70
    12
 71
     2
 72
     2
 73
     0
 90
        0
 40
-0.6
 41
-30.0
 62
     5
 63
     7
421
 16777215
 74
     1
 91
        4
 64
     7
 65
   257
 75
     1
175
     1
 42
1.0
 92
        8
 66
     7
 43
1.0
 76
     1
 77
     6
 78
     2
 67
     7
 79
     5
170
     0
171
     0
290
     0
174
     0
 93
        1
 44
50.0
173
     0
291
     1
 45
0.0
1001
ACAD
1000
AcDbSavedByObjectVersion
1070
     0
  0
VISUALSTYLE
  5
3A
102
{ACAD_REACTORS
330
2A
102
}
330
2A
100
AcDbVisualStyle
  2
ColorChange
 70
    16
 71
     2
 72
     2
 73
     3
 90
        0
 40
-0.6
 41
-30.0
 62
     5
 63
     8
421
  8421504
 74
     1
 91
        4
 64
     7
 65
   257
 75
     1
175
     1
 42
1.0
 92
        8
 66
     8
424
  8421504
 43
1.0
 76
     1
 77
     6
 78
     2
 67
     7
 79
     5
170
     0
171
     0
290
     0
174
     0
 93
        1
 44
0.0
173
     0
291
     1
 45
0.0
1001
ACAD
1000
AcDbSavedByObjectVersion
1070
     0
  0
VISUALSTYLE
  5
34
102
{ACAD_REACTORS
330
2A
102
}
330
2A
100
AcDbVisualStyle
  2
Conceptual
 70
     9
 71
     3
 72
     2
 73
     0
 90
        0
 40
-0.6
 41
-30.0
 62
     5
 63
     7
421
 16777215
 74
     2
 91
        2
 64
     7
 65
   257
 75
     1
175
     1
 42
40.0
 92
        8
 66
     7
 43
1.0
 76
     1
 77
     6
 78
     2
 67
     7
 79
     3
170
     0
171
     0
290
     0
174
     0
 93
        1
 44
0.0
173
     0
291
     0
 45
0.0
1001
ACAD
1000
AcDbSavedByObjectVersion
1070
     0
  0
VISUALSTYLE
  5
35
102
{ACAD_REACTORS
330
2A
102
}
330
2A
100
AcDbVisualStyle
  2
Dim
 70
    11
 71
     2
 72
     2
 73
     0
 90
        0
 40
-0.6
 41
-30.0
 62
     5
 63
     7
421
 16777215
 74
     1
 91
        4
 64
     7
 65
   257
 75
     1
175
     1
 42
1.0
 92
        8
 66
     7
 43
1.0
 76
     1
 77
     6
 78
     2
 67
     7
 79
     5
170
     0
171
     0
290
     0
174
     0
 93
        1
 44
-50.0
173
     0
291
     1
 45
0.0
1001
ACAD
1000
AcDbSavedByObjectVersion
1070
     0
  0
VISUALSTYLE
  5
39
102
{ACAD_REACTORS
330
2A
102
}
330
2A
100
AcDbVisualStyle
  2
Facepattern
 70
    15
 71
     2
 72
     2
 73
     0
 90
        0
 40
-0.6
 41
-30.0
 62
     5
 63
     7
421
 16777215
 74
     1
 91
        4
 64
     7
 65
   257
 75
     1
175
     1
 42
1.0
 92
        8
 66
     7
 43
1.0
 76
     1
 77
     6
 78
     2
 67
     7
 79
     5
170
     0
171
     0
290
     0
174
     0
 93
        1
 44
0.0
173
     0
291
     1
 45
0.0
1001
ACAD
1000
AcDbSavedByObjectVersion
1070
     0
  0
VISUALSTYLE
  5
2B
102
{ACAD_REACTORS
330
2A
102
}
330
2A
100
AcDbVisualStyle
  2
Flat
 70
     0
 71
     2
 72
     1
 73
     1
 90
        2
 40
-0.6
 41
30.0
 62
     5
 63
     7
421
 16777215
 74
     0
 91
        4
 64
     7
 65
   257
 75
     1
175
     1
 42
1.0
 92
        8
 66
     7
 43
1.0
 76
     1
 77
     6
 78
     2
 67
     7
 79
     5
170
     0
171
     0
290
     0
174
     0
 93
       13
 44
0.0
173
     0
291
     1
 45
0.0
1001
ACAD
1000
AcDbSavedByObjectVersion
1070
     0
  0
VISUALSTYLE
  5
2C
102
{ACAD_REACTORS
330
2A
102
}
330
2A
100
AcDbVisualStyle
  2
FlatWithEdges
 70
     1
 71
     2
 72
     1
 73
     1
 90
        2
 40
-0.6
 41
30.0
 62
     5
 63
     7
421
 16777215
 74
     1
 91
        4
 64
     7
 65
   257
 75
     1
175
     1
 42
1.0
 92
        0
 66
   257
 43
1.0
 76
     1
 77
     6
 78
     2
 67
     7
 79
     5
170
     0
171
     0
290
     0
174
     0
 93
       13
 44
0.0
173
     0
291
     1
 45
0.0
1001
ACAD
1000
AcDbSavedByObjectVersion
1070
     0
  0
VISUALSTYLE
  5
2D
102
{ACAD_REACTORS
330
2A
102
}
330
2A
100
AcDbVisualStyle
  2
Gouraud
 70
     2
 71
     2
 72
     2
 73
     1
 90
        2
 40
-0.6
 41
30.0
 62
     5
 63
     7
421
 16777215
 74
     0
 91
        4
 64
     7
 65
   257
 75
     1
175
     1
 42
1.0
 92
        0
 66
     7
 43
1.0
 76
     1
 77
     6
 78
     2
 67
     7
 79
     5
170
     0
171
     0
290
     0
174
     0
 93
       13
 44
0.0
173
     0
291
     1
 45
0.0
1001
ACAD
1000
AcDbSavedByObjectVersion
1070
     0
  0
VISUALSTYLE
  5
2E
102
{ACAD_REACTORS
330
2A
102
}
330
2A
100
AcDbVisualStyle
  2
GouraudWithEdges
 70
     3
 71
     2
 72
     2
 73
     1
 90
        2
 40
-0.6
 41
30.0
 62
     5
 63
     7
421
 16777215
 74
     1
 91
        4
 64
     7
 65
   257
 75
     1
175
     1
 42
1.0
 92
        0
 66
   257
 43
1.0
 76
     1
 77
     6
 78
     2
 67
     7
 79
     5
170
     0
171
     0
290
     0
174
     0
 93
       13
 44
0.0
173
     0
291
     1
 45
0.0
1001
ACAD
1000
AcDbSavedByObjectVersion
1070
     0
  0
VISUALSTYLE
  5
38
102
{ACAD_REACTORS
330
2A
102
}
330
2A
100
AcDbVisualStyle
  2
Linepattern
 70
    14
 71
     2
 72
     2
 73
     0
 90
        0
 40
-0.6
 41
-30.0
 62
     5
 63
     7
421
 16777215
 74
     1
 91
        4
 64
     7
 65
   257
 75
     7
175
     7
 42
1.0
 92
        8
 66
     7
 43
1.0
 76
     1
 77
     6
 78
     2
 67
     7
 79
     5
170
     0
171
     0
290
     0
174
     0
 93
        1
 44
0.0
173
     0
291
     1
 45
0.0
1001
ACAD
1000
AcDbSavedByObjectVersion
1070
     0
  0
VISUALSTYLE
  5
33
102
{ACAD_REACTORS
330
2A
102
}
330
2A
100
AcDbVisualStyle
  2
Realistic
 70
     8
 71
     2
 72
     2
 73
     0
 90
        0
 40
-0.6
 41
-30.0
 62
     5
 63
     7
421
 16777215
 74
     1
 91
        0
 64
     7
 65
   257
 75
     1
175
     1
 42
1.0
 92
        8
 66
     8
424
  7895160
 43
1.0
 76
     1
 77
     6
 78
     2
 67
     7
 79
     5
170
     0
171
     0
290
     0
174
     0
 93
       13
 44
0.0
173
     0
291
     0
 45
0.0
1001
ACAD
1000
AcDbSavedByObjectVersion
1070
     0
  0
VISUALSTYLE
  5
37
102
{ACAD_REACTORS
330
2A
102
}
330
2A
100
AcDbVisualStyle
  2
Thicken
 70
    13
 71
     2
 72
     2
 73
     0
 90
        0
 40
-0.6
 41
-30.0
 62
     5
 63
     7
421
 16777215
 74
     1
 91
        4
 64
     7
 65
   257
 75
     1
175
     1
 42
1.0
 92
       12
 66
     7
 43
1.0
 76
     1
 77
     6
 78
     2
 67
     7
 79
     5
170
     0
171
     0
290
     0
174
     0
 93
        1
 44
0.0
173
     0
291
     1
 45
0.0
1001
ACAD
1000
AcDbSavedByObjectVersion
1070
     0
  0
DICTIONARYVAR
  5
116
102
{ACAD_REACTORS
330
115
102
}
330
115
100
DictionaryVariables
280
     0
  1
1:1
  0
ENDSEC
  0
EOF
