  0
SECTION
  2
HEADER
  9
$ACADVER
  1
AC1015
  9
$ACADMAINTVER
 70
    20
  9
$DWGCODEPAGE
  3
ANSI_1252
  9
$INSBASE
 10
0.0
 20
0.0
 30
0.0
  9
$EXTMIN
 10
-461.2783124909623
 20
-367.0432236305736
 30
0.0
  9
$EXTMAX
 10
759.0732292433923
 20
543.370778623648
 30
0.0
  9
$LIMMIN
 10
0.0
 20
0.0
  9
$LIMMAX
 10
0.0
 20
0.0
  9
$ORTHOMODE
 70
     0
  9
$REGENMODE
 70
     1
  9
$FILLMODE
 70
     1
  9
$QTEXTMODE
 70
     0
  9
$MIRRTEXT
 70
     1
  9
$LTSCALE
 40
1.0
  9
$ATTMODE
 70
     1
  9
$TEXTSIZE
 40
0.0
  9
$TRACEWID
 40
0.05
  9
$TEXTSTYLE
  7
STANDARD
  9
$CLAYER
  8
0
  9
$CELTYPE
  6
CONTINUOUS
  9
$CECOLOR
 62
   256
  9
$CELTSCALE
 40
1.0
  9
$DISPSILH
 70
     0
  9
$DIMSCALE
 40
1.0
  9
$DIMASZ
 40
6.0
  9
$DIMEXO
 40
1.0
  9
$DIMDLI
 40
0.38
  9
$DIMRND
 40
0.0
  9
$DIMDLE
 40
1.0
  9
$DIMEXE
 40
0.18
  9
$DIMTP
 40
0.0
  9
$DIMTM
 40
0.0
  9
$DIMTXT
 40
3.5
  9
$DIMCEN
 40
0.09
  9
$DIMTSZ
 40
0.0
  9
$DIMTOL
 70
     0
  9
$DIMLIM
 70
     0
  9
$DIMTIH
 70
     1
  9
$DIMTOH
 70
     1
  9
$DIMSE1
 70
     0
  9
$DIMSE2
 70
     0
  9
$DIMTAD
 70
     1
  9
$DIMZIN
 70
     0
  9
$DIMBLK
  1

  9
$DIMASO
 70
     1
  9
$DIMSHO
 70
     1
  9
$DIMPOST
  1

  9
$DIMAPOST
  1

  9
$DIMALT
 70
     0
  9
$DIMALTD
 70
     2
  9
$DIMALTF
 40
0.0394
  9
$DIMLFAC
 40
1.0
  9
$DIMTOFL
 70
     0
  9
$DIMTVP
 40
0.0
  9
$DIMTIX
 70
     0
  9
$DIMSOXD
 70
     0
  9
$DIMSAH
 70
     0
  9
$DIMBLK1
  1

  9
$DIMBLK2
  1

  9
$DIMSTYLE
  2
STANDARD
  9
$DIMCLRD
 70
     0
  9
$DIMCLRE
 70
     0
  9
$DIMCLRT
 70
     0
  9
$DIMTFAC
 40
1.0
  9
$DIMGAP
 40
1.0
  9
$DIMJUST
 70
     0
  9
$DIMSD1
 70
     0
  9
$DIMSD2
 70
     0
  9
$DIMTOLJ
 70
     1
  9
$DIMTZIN
 70
     0
  9
$DIMALTZ
 70
     0
  9
$DIMALTTZ
 70
     0
  9
$DIMUPT
 70
     0
  9
$DIMDEC
 70
     4
  9
$DIMTDEC
 70
     4
  9
$DIMALTU
 70
     2
  9
$DIMALTTD
 70
     2
  9
$DIMTXSTY
  7
STANDARD
  9
$DIMAUNIT
 70
     0
  9
$DIMADEC
 70
     0
  9
$DIMALTRND
 40
0.0
  9
$DIMAZIN
 70
     0
  9
$DIMDSEP
 70
    46
  9
$DIMATFIT
 70
     3
  9
$DIMFRAC
 70
     0
  9
$DIMLDRBLK
  1

  9
$DIMLUNIT
 70
     2
  9
$DIMLWD
 70
    -2
  9
$DIMLWE
 70
    -2
  9
$DIMTMOVE
 70
     0
  9
$LUNITS
 70
     2
  9
$LUPREC
 70
     2
  9
$SKETCHINC
 40
0.1
  9
$FILLETRAD
 40
0.0
  9
$AUNITS
 70
     0
  9
$AUPREC
 70
     2
  9
$MENU
  1
acad
  9
$ELEVATION
 40
0.0
  9
$PELEVATION
 40
0.0
  9
$THICKNESS
 40
0.0
  9
$LIMCHECK
 70
     0
  9
$CHAMFERA
 40
0.0
  9
$CHAMFERB
 40
0.0
  9
$CHAMFERC
 40
0.0
  9
$CHAMFERD
 40
0.0
  9
$SKPOLY
 70
     0
  9
$TDCREATE
 40
2444972.041666667
  9
$TDUCREATE
 40
2444972.000000000
  9
$TDUPDATE
 40
2453768.877879769
  9
$TDUUPDATE
 40
2453768.836213102
  9
$TDINDWG
 40
0.0006778125
  9
$TDUSRTIMER
 40
0.0006778125
  9
$USRTIMER
 70
     1
  9
$ANGBASE
 50
0.0
  9
$ANGDIR
 70
     0
  9
$PDMODE
 70
     0
  9
$PDSIZE
 40
-1.0
  9
$PLINEWID
 40
0.0
  9
$SPLFRAME
 70
     0
  9
$SPLINETYPE
 70
     6
  9
$SPLINESEGS
 70
     8
  9
$HANDSEED
  5
253
  9
$SURFTAB1
 70
     6
  9
$SURFTAB2
 70
     6
  9
$SURFTYPE
 70
     6
  9
$SURFU
 70
     6
  9
$SURFV
 70
     6
  9
$UCSBASE
  2

  9
$UCSNAME
  2

  9
$UCSORG
 10
0.0
 20
0.0
 30
0.0
  9
$UCSXDIR
 10
1.0
 20
0.0
 30
0.0
  9
$UCSYDIR
 10
0.0
 20
1.0
 30
0.0
  9
$UCSORTHOREF
  2

  9
$UCSORTHOVIEW
 70
     1
  9
$UCSORGTOP
 10
0.0
 20
0.0
 30
0.0
  9
$UCSORGBOTTOM
 10
0.0
 20
0.0
 30
0.0
  9
$UCSORGLEFT
 10
0.0
 20
0.0
 30
0.0
  9
$UCSORGRIGHT
 10
0.0
 20
0.0
 30
0.0
  9
$UCSORGFRONT
 10
0.0
 20
0.0
 30
0.0
  9
$UCSORGBACK
 10
0.0
 20
0.0
 30
0.0
  9
$PUCSBASE
  2

  9
$PUCSNAME
  2

  9
$PUCSORG
 10
0.0
 20
0.0
 30
0.0
  9
$PUCSXDIR
 10
1.0
 20
0.0
 30
0.0
  9
$PUCSYDIR
 10
0.0
 20
1.0
 30
0.0
  9
$PUCSORTHOREF
  2

  9
$PUCSORTHOVIEW
 70
     0
  9
$PUCSORGTOP
 10
0.0
 20
0.0
 30
0.0
  9
$PUCSORGBOTTOM
 10
0.0
 20
0.0
 30
0.0
  9
$PUCSORGLEFT
 10
0.0
 20
0.0
 30
0.0
  9
$PUCSORGRIGHT
 10
0.0
 20
0.0
 30
0.0
  9
$PUCSORGFRONT
 10
0.0
 20
0.0
 30
0.0
  9
$PUCSORGBACK
 10
0.0
 20
0.0
 30
0.0
  9
$USERI1
 70
     0
  9
$USERI2
 70
     0
  9
$USERI3
 70
     0
  9
$USERI4
 70
     0
  9
$USERI5
 70
     0
  9
$USERR1
 40
0.0
  9
$USERR2
 40
0.0
  9
$USERR3
 40
0.0
  9
$USERR4
 40
0.0
  9
$USERR5
 40
0.0
  9
$WORLDVIEW
 70
     1
  9
$SHADEDGE
 70
     3
  9
$SHADEDIF
 70
    70
  9
$TILEMODE
 70
     1
  9
$MAXACTVP
 70
    16
  9
$PINSBASE
 10
0.0
 20
0.0
 30
0.0
  9
$PLIMCHECK
 70
     0
  9
$PEXTMIN
 10
1.000000000000000E+20
 20
1.000000000000000E+20
 30
1.000000000000000E+20
  9
$PEXTMAX
 10
-1.000000000000000E+20
 20
-1.000000000000000E+20
 30
-1.000000000000000E+20
  9
$PLIMMIN
 10
0.0
 20
0.0
  9
$PLIMMAX
 10
12.0
 20
9.0
  9
$UNITMODE
 70
     0
  9
$VISRETAIN
 70
     0
  9
$PLINEGEN
 70
     1
  9
$PSLTSCALE
 70
     1
  9
$TREEDEPTH
 70
  3020
  9
$CMLSTYLE
  2
STANDARD
  9
$CMLJUST
 70
     0
  9
$CMLSCALE
 40
1.0
  9
$PROXYGRAPHICS
 70
     0
  9
$MEASUREMENT
 70
     0
  9
$CELWEIGHT
370
    -1
  9
$ENDCAPS
280
     0
  9
$JOINSTYLE
280
     0
  9
$LWDISPLAY
290
     0
  9
$INSUNITS
 70
     0
  9
$HYPERLINKBASE
  1

  9
$STYLESHEET
  1

  9
$XEDIT
290
     1
  9
$CEPSNTYPE
380
     0
  9
$PSTYLEMODE
290
     1
  9
$FINGERPRINTGUID
  2
{35480E9E-D359-4CEA-B4AB-D9528E15F178}
  9
$VERSIONGUID
  2
{9070685F-86A7-467F-8BC0-1FD06D07F0E5}
  9
$EXTNAMES
290
     1
  9
$PSVPSCALE
 40
0.0
  9
$OLESTARTUP
290
     0
  0
ENDSEC
  0
SECTION
  2
CLASSES
  0
CLASS
  1
IMAGE
  2
AcDbRasterImage
  3
ISM
 90
    32895
280
     0
281
     1
  0
CLASS
  1
DICTIONARYVAR
  2
AcDbDictionaryVar
  3
ObjectDBX Classes
 90
        0
280
     0
281
     0
  0
CLASS
  1
RASTERVARIABLES
  2
AcDbRasterVariables
  3
ISM
 90
    32768
280
     0
281
     0
  0
CLASS
  1
IMAGEDEF
  2
AcDbRasterImageDef
  3
ISM
 90
    32768
280
     0
281
     0
  0
CLASS
  1
IMAGEDEF_REACTOR
  2
AcDbRasterImageDefReactor
  3
ISM
 90
    32769
280
     0
281
     0
  0
CLASS
  1
IDBUFFER
  2
AcDbIdBuffer
  3
ObjectDBX Classes
 90
    32768
280
     0
281
     0
  0
CLASS
  1
SPATIAL_FILTER
  2
AcDbSpatialFilter
  3
ObjectDBX Classes
 90
    32768
280
     0
281
     0
  0
CLASS
  1
SORTENTSTABLE
  2
AcDbSortentsTable
  3
ObjectDBX Classes
 90
    32768
280
     0
281
     0
  0
CLASS
  1
LAYER_INDEX
  2
AcDbLayerIndex
  3
ObjectDBX Classes
 90
    32768
280
     0
281
     0
  0
CLASS
  1
SPATIAL_INDEX
  2
AcDbSpatialIndex
  3
ObjectDBX Classes
 90
    32768
280
     0
281
     0
  0
CLASS
  1
OBJECT_PTR
  2
CAseDLPNTableRecord
  3
ASE-LPNTableRecord
 90
    32769
280
     0
281
     0
  0
CLASS
  1
LAYOUT
  2
AcDbLayout
  3
ObjectDBX Classes
 90
        0
280
     0
281
     0
  0
CLASS
  1
PLOTSETTINGS
  2
AcDbPlotSettings
  3
ObjectDBX Classes
 90
    32768
280
     0
281
     0
  0
CLASS
  1
ACDBDICTIONARYWDFLT
  2
AcDbDictionaryWithDefault
  3
ObjectDBX Classes
 90
        0
280
     0
281
     0
  0
CLASS
  1
ACDBPLACEHOLDER
  2
AcDbPlaceHolder
  3
ObjectDBX Classes
 90
        0
280
     0
281
     0
  0
CLASS
  1
VBA_PROJECT
  2
AcDbVbaProject
  3
acad
 90
    32768
280
     0
281
     0
  0
CLASS
  1
WIPEOUT
  2
AcDbWipeout
  3
"WipeOut|Product Desc: Object Enabler for WipeOut entity^I^I^I^I^I^I|Company: Autodesk, Inc.^I^I^I^I^I^I|WEB Address: www.autodesk.com"
 90
    32895
280
     0
281
     1
  0
CLASS
  1
WIPEOUTVARIABLES
  2
AcDbWipeoutVariables
  3
"WipeOut|Product Desc:     WipeOut Dbx Application|Company:          Autodesk, Inc.|WEB Address:      www.autodesk.com"
 90
    32768
280
     0
281
     0
  0
CLASS
  1
RTEXT
  2
RText
  3
RText|AutoCAD Express Tool|expresstools@autodesk.com
 90
    32768
280
     0
281
     1
  0
CLASS
  1
ARCALIGNEDTEXT
  2
AcDbArcAlignedText
  3
ATEXT|AutoCAD Express Tool|expresstools@autodesk.com
 90
    32768
280
     0
281
     1
  0
ENDSEC
  0
SECTION
  2
TABLES
  0
TABLE
  2
VPORT
  5
7
330
0
100
AcDbSymbolTable
 70
     2
  0
VPORT
  5
24B
330
7
100
AcDbSymbolTableRecord
100
AcDbViewportTableRecord
  2
*Active
 70
     0
 10
0.0
 20
0.0
 11
1.0
 21
1.0
 12
198.1958883201508
 22
87.95229214779686
 13
0.0
 23
0.0
 14
1.0
 24
1.0
 15
0.0
 25
0.0
 16
0.0
 26
0.0
 36
1.0
 17
0.0
 27
0.0
 37
0.0
 40
917.2861182738932
 41
1.569570871261378
 42
50.0
 43
0.0
 44
0.0
 50
0.0
 51
0.0
 71
     0
 72
  2000
 73
     1
 74
     1
 75
     0
 76
     0
 77
     0
 78
     0
281
     0
 65
     1
110
0.0
120
0.0
130
0.0
111
1.0
121
0.0
131
0.0
112
0.0
122
1.0
132
0.0
 79
     1
146
0.0
  0
ENDTAB
  0
TABLE
  2
LTYPE
  5
4
330
0
100
AcDbSymbolTable
 70
     6
  0
LTYPE
  5
11
330
4
100
AcDbSymbolTableRecord
100
AcDbLinetypeTableRecord
  2
BYBLOCK
 70
     0
  3

 72
    65
 73
     0
 40
0.0
  0
LTYPE
  5
12
330
4
100
AcDbSymbolTableRecord
100
AcDbLinetypeTableRecord
  2
BYLAYER
 70
     0
  3

 72
    65
 73
     0
 40
0.0
  0
LTYPE
  5
13
330
4
100
AcDbSymbolTableRecord
100
AcDbLinetypeTableRecord
  2
CONTINUOUS
 70
     0
  3
Solid line
 72
    65
 73
     0
 40
0.0
  0
LTYPE
  5
1E
330
4
100
AcDbSymbolTableRecord
100
AcDbLinetypeTableRecord
  2
HIDDEN
 70
     0
  3
Hidden __ __ __ __ __ __ __ __ __ __ __ __ __ __
 72
    65
 73
     2
 40
1.905
 49
1.27
 74
     0
 49
-0.635
 74
     0
  0
LTYPE
  5
1F
330
4
100
AcDbSymbolTableRecord
100
AcDbLinetypeTableRecord
  2
PHANTOM
 70
     0
  3
Phantom ______  __  __  ______  __  __  ______
 72
    65
 73
     6
 40
12.7
 49
6.349999999999999
 74
     0
 49
-1.27
 74
     0
 49
1.27
 74
     0
 49
-1.27
 74
     0
 49
1.27
 74
     0
 49
-1.27
 74
     0
  0
LTYPE
  5
20
330
4
100
AcDbSymbolTableRecord
100
AcDbLinetypeTableRecord
  2
CENTER
 70
     0
  3
Center ____ _ ____ _ ____ _ ____ _ ____ _ ____
 72
    65
 73
     4
 40
10.16
 49
6.349999999999999
 74
     0
 49
-1.27
 74
     0
 49
1.27
 74
     0
 49
-1.27
 74
     0
  0
LTYPE
  5
21
330
4
100
AcDbSymbolTableRecord
100
AcDbLinetypeTableRecord
  2
CENTERX2
 70
     0
  3
Center (2x) ________  __  ________  __  _____
 72
    65
 73
     4
 40
20.32
 49
12.7
 74
     0
 49
-2.54
 74
     0
 49
2.54
 74
     0
 49
-2.54
 74
     0
  0
LTYPE
  5
22
330
4
100
AcDbSymbolTableRecord
100
AcDbLinetypeTableRecord
  2
DOT2
 70
     0
  3
Dot (.5x) ........................................
 72
    65
 73
     2
 40
0.635
 49
0.0
 74
     0
 49
-0.635
 74
     0
  0
ENDTAB
  0
TABLE
  2
LAYER
  5
2
330
0
100
AcDbSymbolTable
 70
     2
  0
LAYER
  5
14
330
2
100
AcDbSymbolTableRecord
100
AcDbLayerTableRecord
  2
0
 70
     0
 62
     7
  6
CONTINUOUS
370
    -3
390
230
  0
LAYER
  5
26
330
2
100
AcDbSymbolTableRecord
100
AcDbLayerTableRecord
  2
DEFPOINTS
 70
     0
 62
     7
  6
CONTINUOUS
290
     0
370
    -3
390
230
  0
ENDTAB
  0
TABLE
  2
STYLE
  5
3
330
0
100
AcDbSymbolTable
 70
     1
  0
STYLE
  5
17
330
3
100
AcDbSymbolTableRecord
100
AcDbTextStyleTableRecord
  2
STANDARD
 70
     0
 40
0.0
 41
1.0
 50
0.0
 71
     0
 42
0.0
  3
Century Gothic
  4

  0
ENDTAB
  0
TABLE
  2
VIEW
  5
5
330
0
100
AcDbSymbolTable
 70
     0
  0
ENDTAB
  0
TABLE
  2
UCS
  5
6
330
0
100
AcDbSymbolTable
 70
     0
  0
ENDTAB
  0
TABLE
  2
APPID
  5
8
330
0
100
AcDbSymbolTable
 70
     2
  0
APPID
  5
16
330
8
100
AcDbSymbolTableRecord
100
AcDbRegAppTableRecord
  2
ACAD
 70
     0
  0
APPID
  5
23B
330
8
100
AcDbSymbolTableRecord
100
AcDbRegAppTableRecord
  2
DCO15
 70
     0
  0
ENDTAB
  0
TABLE
  2
DIMSTYLE
  5
9
330
0
100
AcDbSymbolTable
 70
     1
100
AcDbDimStyleTable
 71
     0
  0
DIMSTYLE
105
18
330
9
100
AcDbSymbolTableRecord
100
AcDbDimStyleTableRecord
  2
STANDARD
 70
     0
289
     0
340
17
  0
ENDTAB
  0
TABLE
  2
BLOCK_RECORD
  5
1
330
0
100
AcDbSymbolTable
 70
     0
  0
BLOCK_RECORD
  5
A
330
1
100
AcDbSymbolTableRecord
100
AcDbBlockTableRecord
  2
*MODEL_SPACE
340
235
  0
BLOCK_RECORD
  5
B
330
1
100
AcDbSymbolTableRecord
100
AcDbBlockTableRecord
  2
*PAPER_SPACE
340
236
  0
ENDTAB
  0
ENDSEC
  0
SECTION
  2
BLOCKS
  0
BLOCK
  5
D
330
A
100
AcDbEntity
  8
0
100
AcDbBlockBegin
  2
*MODEL_SPACE
 70
     0
 10
0.0
 20
0.0
 30
0.0
  3
*MODEL_SPACE
  1

  0
ENDBLK
  5
E
330
A
100
AcDbEntity
  8
0
100
AcDbBlockEnd
  0
BLOCK
  5
F
330
B
100
AcDbEntity
 67
     1
  8
0
100
AcDbBlockBegin
  2
*PAPER_SPACE
 70
     0
 10
0.0
 20
0.0
 30
0.0
  3
*PAPER_SPACE
  1

  0
ENDBLK
  5
10
330
B
100
AcDbEntity
 67
     1
  8
0
100
AcDbBlockEnd
  0
ENDSEC
  0
SECTION
  2
ENTITIES
  0
LINE
  5
27
330
A
100
AcDbEntity
  8
0
  6
Continuous
 62
     7
100
AcDbLine
 10
361.4752492107958
 20
-87.19332401839889
 30
0.0
 11
361.4752492107958
 21
-11.19332401839887
 31
0.0
  0
LINE
  5
28
330
A
100
AcDbEntity
  8
0
  6
Continuous
 62
     7
100
AcDbLine
 10
248.9752492107957
 20
-11.19332401839887
 30
0.0
 11
248.9752492107957
 21
-87.19332401839889
 31
0.0
  0
LINE
  5
29
330
A
100
AcDbEntity
  8
0
  6
Continuous
 62
     7
100
AcDbLine
 10
265.3699101514686
 20
-87.19332401839889
 30
0.0
 11
265.3699101514686
 21
-89.69332401839889
 31
0.0
  0
LINE
  5
2A
330
A
100
AcDbEntity
  8
0
  6
Continuous
 62
     7
100
AcDbLine
 10
274.3699101514685
 20
-89.69332401839889
 30
0.0
 11
274.3699101514685
 21
-87.19332401839889
 31
0.0
  0
LINE
  5
2B
330
A
100
AcDbEntity
  8
0
  6
Continuous
 62
     7
100
AcDbLine
 10
336.0805882701234
 20
-87.19332401839889
 30
0.0
 11
336.0805882701234
 21
-89.69332401839889
 31
0.0
  0
LINE
  5
2C
330
A
100
AcDbEntity
  8
0
  6
Continuous
 62
     7
100
AcDbLine
 10
345.0805882701234
 20
-89.69332401839889
 30
0.0
 11
345.0805882701234
 21
-87.19332401839889
 31
0.0
  0
LINE
  5
2D
330
A
100
AcDbEntity
  8
0
  6
Continuous
 62
     7
100
AcDbLine
 10
315.2252492107958
 20
-87.19332401839889
 30
0.0
 11
315.2252492107958
 21
178.8066759816011
 31
0.0
  0
CIRCLE
  5
2E
330
A
100
AcDbEntity
  8
0
  6
Continuous
 62
     7
100
AcDbCircle
 10
305.2252492107958
 20
178.8066759816011
 30
0.0
 40
2.0
  0
LINE
  5
2F
330
A
100
AcDbEntity
  8
0
  6
Continuous
 62
     7
100
AcDbLine
 10
295.2252492107957
 20
178.8066759816011
 30
0.0
 11
295.2252492107957
 21
-87.19332401839889
 31
0.0
  0
ARC
  5
30
330
A
100
AcDbEntity
  8
0
  6
Continuous
 62
     7
100
AcDbCircle
 10
305.2252492107958
 20
178.8066759816011
 30
0.0
 40
10.00000000000005
100
AcDbArc
 50
0.0
 51
180.0000000000004
  0
LINE
  5
31
330
A
100
AcDbEntity
  8
0
  6
Continuous
 62
     7
100
AcDbLine
 10
295.2252492107957
 20
-87.19332401839889
 30
0.0
 11
315.2252492107958
 21
-87.19332401839889
 31
0.0
  0
LINE
  5
32
330
A
100
AcDbEntity
  8
0
  6
Continuous
 62
     7
100
AcDbLine
 10
315.7252492107958
 20
-11.19332401839887
 30
0.0
 11
361.4752492107958
 21
-11.19332401839887
 31
0.0
  0
LINE
  5
33
330
A
100
AcDbEntity
  8
0
  6
Continuous
 62
     7
100
AcDbLine
 10
315.7252492107958
 20
-11.19332401839887
 30
0.0
 11
315.7252492107958
 21
-87.19332401839889
 31
0.0
  0
LINE
  5
34
330
A
100
AcDbEntity
  8
0
  6
Continuous
 62
     7
100
AcDbLine
 10
315.7252492107958
 20
-87.19332401839889
 30
0.0
 11
361.4752492107958
 21
-87.19332401839889
 31
0.0
  0
LINE
  5
35
330
A
100
AcDbEntity
  8
0
  6
Continuous
 62
     7
100
AcDbLine
 10
294.7252492107957
 20
-11.19332401839887
 30
0.0
 11
294.7252492107957
 21
-87.19332401839889
 31
0.0
  0
LINE
  5
36
330
A
100
AcDbEntity
  8
0
  6
Continuous
 62
     7
100
AcDbLine
 10
248.9752492107957
 20
-11.19332401839887
 30
0.0
 11
294.7252492107957
 21
-11.19332401839887
 31
0.0
  0
LINE
  5
37
330
A
100
AcDbEntity
  8
0
  6
Continuous
 62
     7
100
AcDbLine
 10
248.9752492107957
 20
-87.19332401839889
 30
0.0
 11
294.7252492107957
 21
-87.19332401839889
 31
0.0
  0
LINE
  5
38
330
A
100
AcDbEntity
  8
0
  6
Continuous
 62
     7
100
AcDbLine
 10
294.7252492107957
 20
-11.19332401839887
 30
0.0
 11
295.2252492107957
 21
-11.19332401839887
 31
0.0
  0
LINE
  5
39
330
A
100
AcDbEntity
  8
0
  6
Continuous
 62
     7
100
AcDbLine
 10
294.7252492107957
 20
-87.19332401839889
 30
0.0
 11
295.2252492107957
 21
-87.19332401839889
 31
0.0
  0
LINE
  5
3A
330
A
100
AcDbEntity
  8
0
  6
Continuous
 62
     7
100
AcDbLine
 10
315.2252492107958
 20
-11.19332401839887
 30
0.0
 11
315.7252492107958
 21
-11.19332401839887
 31
0.0
  0
LINE
  5
3B
330
A
100
AcDbEntity
  8
0
  6
Continuous
 62
     7
100
AcDbLine
 10
315.2252492107958
 20
-87.19332401839889
 30
0.0
 11
315.7252492107958
 21
-87.19332401839889
 31
0.0
  0
LINE
  5
3C
330
A
100
AcDbEntity
  8
0
  6
Continuous
 62
     7
100
AcDbLine
 10
274.3699101514685
 20
-89.69332401839889
 30
0.0
 11
265.3699101514686
 21
-89.69332401839889
 31
0.0
  0
LINE
  5
3D
330
A
100
AcDbEntity
  8
0
  6
Continuous
 62
     7
100
AcDbLine
 10
345.0805882701234
 20
-89.69332401839889
 30
0.0
 11
336.0805882701234
 21
-89.69332401839889
 31
0.0
  0
CIRCLE
  5
3E
330
A
100
AcDbEntity
  8
0
  6
Continuous
 62
     7
100
AcDbCircle
 10
57.7378757955025
 20
426.2940493968931
 30
0.0
 40
2.0
  0
ARC
  5
3F
330
A
100
AcDbEntity
  8
0
  6
Continuous
 62
     7
100
AcDbCircle
 10
403.541726945902
 20
95.33944065141314
 30
0.0
 40
2.000000000000046
100
AcDbArc
 50
44.99999999999856
 51
134.9999999999945
  0
LINE
  5
40
330
A
100
AcDbEntity
  8
0
  6
Continuous
 62
     7
100
AcDbLine
 10
415.3098361861903
 20
86.39975853587106
 30
0.0
 11
404.9559405082751
 21
96.75365421378623
 31
0.0
  0
ARC
  5
41
330
A
100
AcDbEntity
  8
0
  6
Continuous
 62
     7
100
AcDbCircle
 10
416.7240497485634
 20
87.81397209824417
 30
0.0
 40
1.999999999999985
100
AcDbArc
 50
225.0000000000023
 51
320.6608296790743
  0
ARC
  5
42
330
A
100
AcDbEntity
  8
0
  6
Continuous
 62
     7
100
AcDbCircle
 10
303.0332181891175
 20
180.9987070032794
 30
0.0
 40
148.9999999999999
100
AcDbArc
 50
320.6608296790747
 51
332.1396680587503
  0
ARC
  5
43
330
A
100
AcDbEntity
  8
0
  6
Continuous
 62
     7
100
AcDbCircle
 10
436.530715166314
 20
110.4337135516861
 30
0.0
 40
2.000000000000057
100
AcDbArc
 50
45.00000000000348
 51
152.1396680587498
  0
LINE
  5
44
330
A
100
AcDbEntity
  8
0
  6
Continuous
 62
     7
100
AcDbLine
 10
444.954960102564
 20
104.8378957401823
 30
0.0
 11
437.944928728687
 21
111.8479271140591
 31
0.0
  0
ARC
  5
45
330
A
100
AcDbEntity
  8
0
  6
Continuous
 62
     7
100
AcDbCircle
 10
443.5407465401909
 20
103.4236821778092
 30
0.0
 40
1.999999999999965
100
AcDbArc
 50
331.0966553368905
 51
45.00000000000086
  0
ARC
  5
46
330
A
100
AcDbEntity
  8
0
  6
Continuous
 62
     7
100
AcDbCircle
 10
303.0332181891175
 20
180.9987070032794
 30
0.0
 40
162.5
100
AcDbArc
 50
298.9033446631109
 51
331.096655336891
  0
ARC
  5
47
330
A
100
AcDbEntity
  8
0
  6
Continuous
 62
     7
100
AcDbCircle
 10
380.6082430145882
 20
40.49117865220628
 30
0.0
 40
1.999999999999974
100
AcDbArc
 50
225.0000000000019
 51
298.9033446631124
  0
LINE
  5
48
330
A
100
AcDbEntity
  8
0
  6
Continuous
 62
     7
100
AcDbLine
 10
372.1839980783382
 20
46.08699646370998
 30
0.0
 11
379.1940294522152
 21
39.07696508983319
 31
0.0
  0
ARC
  5
49
330
A
100
AcDbEntity
  8
0
  6
Continuous
 62
     7
100
AcDbCircle
 10
373.5982116407112
 20
47.50121002608304
 30
0.0
 40
1.999999999999967
100
AcDbArc
 50
117.8603319412492
 51
225.000000000004
  0
ARC
  5
4A
330
A
100
AcDbEntity
  8
0
  6
Continuous
 62
     7
100
AcDbCircle
 10
303.0332181891175
 20
180.9987070032794
 30
0.0
 40
149.0
100
AcDbArc
 50
297.8603319412515
 51
309.3391703209271
  0
ARC
  5
4B
330
A
100
AcDbEntity
  8
0
  6
Continuous
 62
     7
100
AcDbCircle
 10
396.2179530941531
 20
67.30787544383376
 30
0.0
 40
2.000000000000317
100
AcDbArc
 50
309.3391703209169
 51
44.99999999999942
  0
LINE
  5
4C
330
A
100
AcDbEntity
  8
0
  6
Continuous
 62
     7
100
AcDbLine
 10
387.2782709786114
 20
79.07598468412245
 30
0.0
 11
397.6321666565265
 21
68.72208900620707
 31
0.0
  0
ARC
  5
4D
330
A
100
AcDbEntity
  8
0
  6
Continuous
 62
     7
100
AcDbCircle
 10
388.6924845409841
 20
80.49019824649514
 30
0.0
 40
1.999999999999724
100
AcDbArc
 50
135.0000000000037
 51
225.0000000000109
  0
LINE
  5
4E
330
A
100
AcDbEntity
  8
0
  6
Continuous
 62
     7
100
AcDbLine
 10
389.3995913221707
 20
84.02573215242789
 30
0.0
 11
387.2782709786111
 21
81.90441180886795
 31
0.0
  0
ARC
  5
4F
330
A
100
AcDbEntity
  8
0
  6
Continuous
 62
     7
100
AcDbCircle
 10
57.7378757955025
 20
426.2940493968931
 30
0.0
 40
7.500000000000346
100
AcDbArc
 50
45.00000000000087
 51
225.0000000000011
  0
LINE
  5
50
330
A
100
AcDbEntity
  8
0
  6
Continuous
 62
     7
100
AcDbLine
 10
63.04117665440177
 20
431.5973502557926
 30
0.0
 11
305.8514783362278
 21
188.7870485739676
 31
0.0
  0
LINE
  5
51
330
A
100
AcDbEntity
  8
0
  6
Continuous
 62
     7
100
AcDbLine
 10
315.2056218031623
 20
179.4329051070332
 30
0.0
 11
400.0061930399693
 21
94.63233387022659
 31
0.0
  0
LINE
  5
52
330
A
100
AcDbEntity
  8
0
  6
Continuous
 62
     7
100
AcDbLine
 10
402.1275133835289
 20
96.75365421378627
 30
0.0
 11
400.0061930399693
 21
94.63233387022659
 31
0.0
  0
LINE
  5
53
330
A
100
AcDbEntity
  8
0
  6
Continuous
 62
     7
100
AcDbLine
 10
389.3995913221707
 20
84.02573215242789
 30
0.0
 11
315.2252492107958
 21
158.2000742638024
 31
0.0
  0
LINE
  5
54
330
A
100
AcDbEntity
  8
0
  6
Continuous
 62
     7
100
AcDbLine
 10
295.2252492107957
 20
178.2000742638024
 30
0.0
 11
52.43457493660319
 21
420.9907485379939
 31
0.0
  0
CIRCLE
  5
55
330
A
100
AcDbEntity
  8
0
  6
Continuous
 62
     7
100
AcDbCircle
 10
57.7378757955025
 20
426.2940493968931
 30
0.0
 40
2.0
  0
CIRCLE
  5
56
330
A
100
AcDbEntity
  8
0
  6
Continuous
 62
     7
100
AcDbCircle
 10
-380.9150931302308
 20
221.7468107143955
 30
0.0
 40
2.0
  0
LINE
  5
57
330
A
100
AcDbEntity
  8
0
  6
Continuous
 62
     7
100
AcDbLine
 10
212.115555909509
 20
509.3153230718826
 30
0.0
 11
223.5709921641782
 21
514.6570807249414
 31
0.0
  0
ARC
  5
58
330
A
100
AcDbEntity
  8
0
  6
Continuous
 62
     7
100
AcDbCircle
 10
222.7257556406967
 20
516.4696962990147
 30
0.0
 40
2.000000000000056
100
AcDbArc
 50
295.0000000000033
 51
28.43981276751435
  0
ARC
  5
59
330
A
100
AcDbEntity
  8
0
  6
Continuous
 62
     7
100
AcDbCircle
 10
46.86218235106275
 20
421.2226302560047
 30
0.0
 40
202.0
100
AcDbArc
 50
28.43981276751545
 51
35.3069505354687
  0
ARC
  5
5A
330
A
100
AcDbEntity
  8
0
  6
Continuous
 62
     7
100
AcDbCircle
 10
213.3399491530623
 20
539.1257818704507
 30
0.0
 40
2.00000000000005
100
AcDbArc
 50
115.0000000000008
 51
215.3069505354689
  0
LINE
  5
5B
330
A
100
AcDbEntity
  8
0
  6
Continuous
 62
     7
100
AcDbLine
 10
212.4947126295809
 20
540.938397444524
 30
0.0
 11
216.1782313844166
 21
542.6560504488616
 31
0.0
  0
ARC
  5
5C
330
A
100
AcDbEntity
  8
0
  6
Continuous
 62
     7
100
AcDbCircle
 10
217.0234679078979
 20
540.8434348747882
 30
0.0
 40
2.000000000000023
100
AcDbArc
 50
35.10663711209393
 51
114.9999999999976
  0
ARC
  5
5D
330
A
100
AcDbEntity
  8
0
  6
Continuous
 62
     7
100
AcDbCircle
 10
46.86218235106275
 20
421.2226302560047
 30
0.0
 40
210.0
100
AcDbArc
 50
14.89336288790486
 51
35.10663711209551
  0
ARC
  5
5E
330
A
100
AcDbEntity
  8
0
  6
Continuous
 62
     7
100
AcDbCircle
 10
247.8746010149693
 20
474.6829664211128
 30
0.0
 40
1.999999999999975
100
AcDbArc
 50
295.0000000000009
 51
14.89336288790699
  0
LINE
  5
5F
330
A
100
AcDbEntity
  8
0
  6
Continuous
 62
     7
100
AcDbLine
 10
248.7198375384507
 20
472.8703508470395
 30
0.0
 11
245.036318783615
 21
471.1526978427021
 31
0.0
  0
ARC
  5
60
330
A
100
AcDbEntity
  8
0
  6
Continuous
 62
     7
100
AcDbCircle
 10
244.1910822601336
 20
472.9653134167754
 30
0.0
 40
2.00000000000005
100
AcDbArc
 50
194.6930494645429
 51
295.0000000000017
  0
ARC
  5
61
330
A
100
AcDbEntity
  8
0
  6
Continuous
 62
     7
100
AcDbCircle
 10
46.86218235106275
 20
421.2226302560047
 30
0.0
 40
202.0
100
AcDbArc
 50
14.6930494645317
 51
21.56018723248503
  0
ARC
  5
62
330
A
100
AcDbEntity
  8
0
  6
Continuous
 62
     7
100
AcDbCircle
 10
232.8685939224736
 20
494.7183094101352
 30
0.0
 40
2.000000000000099
100
AcDbArc
 50
21.56018723248443
 51
114.9999999999993
  0
LINE
  5
63
330
A
100
AcDbEntity
  8
0
  6
Continuous
 62
     7
100
AcDbLine
 10
232.0233573989922
 20
496.5309249842085
 30
0.0
 11
220.567921144323
 21
491.1891673311497
 31
0.0
  0
LINE
  5
64
330
A
100
AcDbEntity
  8
0
  6
Continuous
 62
     7
100
AcDbLine
 10
220.567921144323
 20
491.1891673311497
 30
0.0
 11
218.8774480973603
 21
494.8143984792961
 31
0.0
  0
LINE
  5
65
330
A
100
AcDbEntity
  8
0
  6
Continuous
 62
     7
100
AcDbLine
 10
218.8774480973603
 20
494.8143984792961
 30
0.0
 11
69.48634422623388
 21
425.1521826839605
 31
0.0
  0
LINE
  5
66
330
A
100
AcDbEntity
  8
0
  6
Continuous
 62
     7
100
AcDbLine
 10
55.01925519643973
 20
418.4060682781574
 30
0.0
 11
-378.3793835597867
 21
216.3089639921756
 31
0.0
  0
ARC
  5
67
330
A
100
AcDbEntity
  8
0
  6
Continuous
 62
     7
100
AcDbCircle
 10
-380.9150931302308
 20
221.7468107143955
 30
0.0
 40
5.999999999999948
100
AcDbArc
 50
115.0000000000011
 51
295.0000000000002
  0
LINE
  5
68
330
A
100
AcDbEntity
  8
0
  6
Continuous
 62
     7
100
AcDbLine
 10
-383.4508027006751
 20
227.1846574366153
 30
0.0
 11
51.12378118339288
 21
429.8301139412797
 31
0.0
  0
LINE
  5
69
330
A
100
AcDbEntity
  8
0
  6
Continuous
 62
     7
100
AcDbLine
 10
59.28055126672354
 20
433.6336782969464
 30
0.0
 11
213.8060289564718
 21
505.690091923736
 31
0.0
  0
LINE
  5
6A
330
A
100
AcDbEntity
  8
0
  6
Continuous
 62
     7
100
AcDbLine
 10
213.8060289564718
 20
505.690091923736
 30
0.0
 11
212.115555909509
 21
509.3153230718826
 31
0.0
  0
ARC
  5
6B
330
A
100
AcDbEntity
  8
0
  6
Continuous
 62
     7
100
AcDbCircle
 10
-460.0008795678577
 20
202.7468107143954
 30
0.0
 40
1.000000000000028
100
AcDbArc
 50
134.9999999999988
 51
270.0000000000008
  0
LINE
  5
6C
330
A
100
AcDbEntity
  8
0
  6
Continuous
 62
     7
100
AcDbLine
 10
-331.0080885675301
 20
251.6390966513344
 30
0.0
 11
-322.7790541609092
 21
259.8681310579552
 31
0.0
  0
ARC
  5
6D
330
A
100
AcDbEntity
  8
0
  6
Continuous
 62
     7
100
AcDbCircle
 10
-429.344025318365
 20
227.7468107143955
 30
0.0
 40
5.00000000000004
100
AcDbArc
 50
90.0
 51
135.0
  0
ARC
  5
6E
330
A
100
AcDbEntity
  8
0
  6
Continuous
 62
     7
100
AcDbCircle
 10
-320.6577338173496
 20
257.7468107143955
 30
0.0
 40
3.000000000000064
100
AcDbArc
 50
2.227486628149708
 51
135.0000000000007
  0
LINE
  5
6F
330
A
100
AcDbEntity
  8
0
  6
Continuous
 62
     7
100
AcDbLine
 10
-429.344025318365
 20
232.7468107143955
 30
0.0
 11
-371.5227265035407
 21
232.7468107143955
 31
0.0
  0
LINE
  5
70
330
A
100
AcDbEntity
  8
0
  6
Continuous
 62
     7
100
AcDbLine
 10
-339.9181914123117
 20
234.2437124323143
 30
0.0
 11
-372.4150931302309
 21
201.7468107143955
 31
0.0
  0
LINE
  5
71
330
A
100
AcDbEntity
  8
0
  6
Continuous
 62
     7
100
AcDbLine
 10
-372.4150931302309
 20
201.7468107143955
 30
0.0
 11
-372.8293066926041
 21
202.7468107143954
 31
0.0
  0
LINE
  5
72
330
A
100
AcDbEntity
  8
0
  6
Continuous
 62
     7
100
AcDbLine
 10
-372.4150931302309
 20
201.7468107143955
 30
0.0
 11
-460.0008795678577
 21
201.7468107143955
 31
0.0
  0
LINE
  5
73
330
A
100
AcDbEntity
  8
0
  6
Continuous
 62
     7
100
AcDbLine
 10
-460.7079863490443
 20
203.453917495582
 30
0.0
 11
-432.8795592242977
 21
231.2823446203283
 31
0.0
  0
LINE
  5
74
330
A
100
AcDbEntity
  8
0
  6
PHANTOM
 62
     7
100
AcDbLine
 10
-460.0008795678577
 20
202.7468107143954
 30
0.0
 11
-460.7079863490443
 21
203.453917495582
 31
0.0
  0
LINE
  5
75
330
A
100
AcDbEntity
  8
0
  6
PHANTOM
 62
     7
100
AcDbLine
 10
-460.0008795678577
 20
201.7468107143955
 30
0.0
 11
-460.0008795678577
 21
202.7468107143954
 31
0.0
  0
LINE
  5
76
330
A
100
AcDbEntity
  8
0
  6
PHANTOM
 62
     7
100
AcDbLine
 10
-322.7790541609092
 20
259.8681310579552
 30
0.0
 11
-322.0719473797227
 21
259.1610242767686
 31
0.0
  0
LINE
  5
77
330
A
100
AcDbEntity
  8
0
  6
PHANTOM
 62
     7
100
AcDbLine
 10
-322.0719473797227
 20
259.1610242767686
 30
0.0
 11
-328.3582218718901
 21
252.8747497846012
 31
0.0
  0
ARC
  5
78
330
A
100
AcDbEntity
  8
0
  6
PHANTOM
 62
     7
100
AcDbCircle
 10
-320.6577338173496
 20
257.7468107143955
 30
0.0
 40
2.000000000000075
100
AcDbArc
 50
349.5065458676462
 51
134.9999999999983
  0
LINE
  5
79
330
A
100
AcDbEntity
  8
0
  6
PHANTOM
 62
     7
100
AcDbLine
 10
-372.8293066926041
 20
202.7468107143954
 30
0.0
 11
-342.5680581079516
 21
233.0080592990475
 31
0.0
  0
LINE
  5
7A
330
A
100
AcDbEntity
  8
0
  6
PHANTOM
 62
     7
100
AcDbLine
 10
-460.0008795678577
 20
202.7468107143954
 30
0.0
 11
-372.8293066926041
 21
202.7468107143954
 31
0.0
  0
LINE
  5
7B
330
A
100
AcDbEntity
  8
0
  6
PHANTOM
 62
     7
100
AcDbLine
 10
-432.1724524431111
 20
230.5752378391417
 30
0.0
 11
-460.0008795678577
 21
202.7468107143954
 31
0.0
  0
ARC
  5
7C
330
A
100
AcDbEntity
  8
0
  6
PHANTOM
 62
     7
100
AcDbCircle
 10
-429.344025318365
 20
227.7468107143955
 30
0.0
 40
4.0
100
AcDbArc
 50
90.0
 51
134.9999999999993
  0
LINE
  5
7D
330
A
100
AcDbEntity
  8
0
  6
PHANTOM
 62
     7
100
AcDbLine
 10
-373.6672334240501
 20
231.7468107143955
 30
0.0
 11
-429.344025318365
 21
231.7468107143955
 31
0.0
  0
LINE
  5
7E
330
A
100
AcDbEntity
  8
0
  6
PHANTOM
 62
     7
100
AcDbLine
 10
-432.1724524431111
 20
230.5752378391417
 30
0.0
 11
-432.8795592242977
 21
231.2823446203283
 31
0.0
  0
LINE
  5
7F
330
A
100
AcDbEntity
  8
0
  6
PHANTOM
 62
     7
100
AcDbLine
 10
-429.344025318365
 20
231.7468107143955
 30
0.0
 11
-429.344025318365
 21
232.7468107143955
 31
0.0
  0
LINE
  5
80
330
A
100
AcDbEntity
  8
0
  6
Continuous
 62
     7
100
AcDbLine
 10
50.23787579550219
 20
-259.9388505791953
 30
0.0
 11
50.23787579550219
 21
-263.9388505791954
 31
0.0
  0
LINE
  5
81
330
A
100
AcDbEntity
  8
0
  6
Continuous
 62
     7
100
AcDbLine
 10
50.23787579550219
 20
-358.9388505791954
 30
0.0
 11
50.23787579550219
 21
-362.9388505791954
 31
0.0
  0
LINE
  5
82
330
A
100
AcDbEntity
  8
0
  6
Continuous
 62
     7
100
AcDbLine
 10
307.2252492107958
 20
-358.9388505791945
 30
0.0
 11
307.2252492107958
 21
-263.9388505791945
 31
0.0
  0
LINE
  5
83
330
A
100
AcDbEntity
  8
0
  6
Continuous
 62
     7
100
AcDbLine
 10
303.2252492107958
 20
-263.9388505791945
 30
0.0
 11
303.2252492107958
 21
-358.9388505791945
 31
0.0
  0
LINE
  5
84
330
A
100
AcDbEntity
  8
0
  6
Continuous
 62
     7
100
AcDbLine
 10
445.5407465401909
 20
-362.9388505791943
 30
0.0
 11
445.5407465401909
 21
-259.9388505791942
 31
0.0
  0
LINE
  5
85
330
A
100
AcDbEntity
  8
0
  6
Continuous
 62
     7
100
AcDbLine
 10
386.6924845409844
 20
-263.9388505791942
 30
0.0
 11
386.6924845409844
 21
-358.9388505791943
 31
0.0
  0
LINE
  5
86
330
A
100
AcDbEntity
  8
0
  6
Continuous
 62
     7
100
AcDbLine
 10
371.5982116407113
 20
-263.9388505791944
 30
0.0
 11
371.5982116407113
 21
-358.9388505791943
 31
0.0
  0
LINE
  5
87
330
A
100
AcDbEntity
  8
0
  6
Continuous
 62
     7
100
AcDbLine
 10
211.3399491530623
 20
-263.9388505791957
 30
0.0
 11
211.3399491530623
 21
-358.9388505791958
 31
0.0
  0
LINE
  5
88
330
A
100
AcDbEntity
  8
0
  6
Continuous
 62
     7
100
AcDbLine
 10
249.8746010149693
 20
-358.9388505791955
 30
0.0
 11
249.8746010149693
 21
-263.9388505791955
 31
0.0
  0
LINE
  5
89
330
A
100
AcDbEntity
  8
0
  6
Continuous
 62
     7
100
AcDbLine
 10
59.73787579550251
 20
-354.9388505791954
 30
0.0
 11
59.73787579550251
 21
-267.9388505791954
 31
0.0
  0
LINE
  5
8A
330
A
100
AcDbEntity
  8
0
  6
Continuous
 62
     7
100
AcDbLine
 10
55.7378757955025
 20
-267.9388505791954
 30
0.0
 11
55.7378757955025
 21
-354.9388505791954
 31
0.0
  0
LINE
  5
8B
330
A
100
AcDbEntity
  8
0
  6
Continuous
 62
     7
100
AcDbLine
 10
-386.9150931302307
 20
-263.9388505791946
 30
0.0
 11
-386.9150931302307
 21
-267.9388505791946
 31
0.0
  0
LINE
  5
8C
330
A
100
AcDbEntity
  8
0
  6
Continuous
 62
     7
100
AcDbLine
 10
-386.9150931302307
 20
-354.9388505791946
 30
0.0
 11
-386.9150931302307
 21
-358.9388505791947
 31
0.0
  0
LINE
  5
8D
330
A
100
AcDbEntity
  8
0
  6
Continuous
 62
     7
100
AcDbLine
 10
-317.6577338173495
 20
-353.9388505791947
 30
0.0
 11
-317.6577338173495
 21
-268.9388505791947
 31
0.0
  0
ARC
  5
8E
330
A
100
AcDbEntity
  8
0
  6
Continuous
 62
     7
100
AcDbCircle
 10
-318.6577338173496
 20
-268.9388505791948
 30
0.0
 40
1.0
100
AcDbArc
 50
0.0
 51
90.0
  0
ARC
  5
8F
330
A
100
AcDbEntity
  8
0
  6
Continuous
 62
     7
100
AcDbCircle
 10
-318.6577338173496
 20
-353.9388505791948
 30
0.0
 40
1.0
100
AcDbArc
 50
270.0000000000008
 51
0.0
  0
ARC
  5
90
330
A
100
AcDbEntity
  8
0
  6
Continuous
 62
     7
100
AcDbCircle
 10
-460.0008795678577
 20
-268.9388505791946
 30
0.0
 40
1.0
100
AcDbArc
 50
90.0
 51
180.0000000000004
  0
LINE
  5
91
330
A
100
AcDbEntity
  8
0
  6
Continuous
 62
     7
100
AcDbLine
 10
-461.0008795678577
 20
-268.9388505791946
 30
0.0
 11
-461.0008795678577
 21
-353.9388505791946
 31
0.0
  0
ARC
  5
92
330
A
100
AcDbEntity
  8
0
  6
Continuous
 62
     7
100
AcDbCircle
 10
-460.0008795678577
 20
-353.9388505791946
 30
0.0
 40
1.0
100
AcDbArc
 50
180.0000000000004
 51
270.0000000000008
  0
LINE
  5
93
330
A
100
AcDbEntity
  8
0
  6
Continuous
 62
     7
100
AcDbLine
 10
295.2252492107957
 20
-255.9388505791945
 30
0.0
 11
295.2252492107957
 21
-259.9388505791945
 31
0.0
  0
LINE
  5
94
330
A
100
AcDbEntity
  8
0
  6
Continuous
 62
     7
100
AcDbLine
 10
295.2252492107957
 20
-255.9388505791945
 30
0.0
 11
315.2252492107958
 21
-255.9388505791945
 31
0.0
  0
LINE
  5
95
330
A
100
AcDbEntity
  8
0
  6
Continuous
 62
     7
100
AcDbLine
 10
315.2252492107958
 20
-255.9388505791945
 30
0.0
 11
315.2252492107958
 21
-259.9388505791945
 31
0.0
  0
LINE
  5
96
330
A
100
AcDbEntity
  8
0
  6
Continuous
 62
     7
100
AcDbLine
 10
315.2252492107958
 20
-366.9388505791945
 30
0.0
 11
315.2252492107958
 21
-362.9388505791945
 31
0.0
  0
LINE
  5
97
330
A
100
AcDbEntity
  8
0
  6
Continuous
 62
     7
100
AcDbLine
 10
295.2252492107957
 20
-366.9388505791945
 30
0.0
 11
295.2252492107957
 21
-362.9388505791945
 31
0.0
  0
LINE
  5
98
330
A
100
AcDbEntity
  8
0
  6
Continuous
 62
     7
100
AcDbLine
 10
315.2252492107958
 20
-366.9388505791945
 30
0.0
 11
295.2252492107957
 21
-366.9388505791945
 31
0.0
  0
LINE
  5
99
330
A
100
AcDbEntity
  8
0
  6
Continuous
 62
     7
100
AcDbLine
 10
315.7252492107958
 20
-362.9388505791939
 30
0.0
 11
315.7252492107958
 21
-366.7001616385598
 31
0.0
  0
LINE
  5
9A
330
A
100
AcDbEntity
  8
0
  6
Continuous
 62
     7
100
AcDbLine
 10
294.7252492107957
 20
-366.7001616385598
 30
0.0
 11
294.7252492107958
 21
-362.9388505791939
 31
0.0
  0
ARC
  5
9B
330
A
100
AcDbEntity
  8
0
  6
Continuous
 62
     7
100
AcDbCircle
 10
305.2252492107958
 20
-311.4388505791938
 30
0.0
 40
56.25000000000001
100
AcDbArc
 50
100.7583182289953
 51
113.715253111509
  0
ARC
  5
9C
330
A
100
AcDbEntity
  8
0
  6
Continuous
 62
     7
100
AcDbCircle
 10
305.2252492107958
 20
-311.4388505791938
 30
0.0
 40
56.25000000000004
100
AcDbArc
 50
122.3875385330941
 51
169.7406105082962
  0
ARC
  5
9D
330
A
100
AcDbEntity
  8
0
  6
Continuous
 62
     7
100
AcDbCircle
 10
305.2252492107958
 20
-311.4388505791938
 30
0.0
 40
56.25000000000002
100
AcDbArc
 50
190.2593894917044
 51
237.6124614669098
  0
ARC
  5
9E
330
A
100
AcDbEntity
  8
0
  6
Continuous
 62
     7
100
AcDbCircle
 10
305.2252492107958
 20
-311.4388505791938
 30
0.0
 40
56.25000000000001
100
AcDbArc
 50
246.2847468884959
 51
259.2416817710055
  0
LINE
  5
9F
330
A
100
AcDbEntity
  8
0
  6
Continuous
 62
     7
100
AcDbLine
 10
294.7252492107957
 20
-259.9388505791939
 30
0.0
 11
294.7252492107957
 21
-256.1775395198279
 31
0.0
  0
LINE
  5
A0
330
A
100
AcDbEntity
  8
0
  6
Continuous
 62
     7
100
AcDbLine
 10
315.7252492107958
 20
-256.1775395198279
 30
0.0
 11
315.7252492107958
 21
-259.9388505791939
 31
0.0
  0
ARC
  5
A1
330
A
100
AcDbEntity
  8
0
  6
Continuous
 62
     7
100
AcDbCircle
 10
305.2252492107958
 20
-311.4388505791938
 30
0.0
 40
56.25
100
AcDbArc
 50
280.758318228996
 51
293.7152531115061
  0
ARC
  5
A2
330
A
100
AcDbEntity
  8
0
  6
Continuous
 62
     7
100
AcDbCircle
 10
305.2252492107958
 20
-311.4388505791938
 30
0.0
 40
56.25000000000002
100
AcDbArc
 50
302.3875385330921
 51
57.61246146690638
  0
ARC
  5
A3
330
A
100
AcDbEntity
  8
0
  6
Continuous
 62
     7
100
AcDbCircle
 10
305.2252492107958
 20
-311.4388505791938
 30
0.0
 40
56.25000000000001
100
AcDbArc
 50
66.28474688849149
 51
79.24168177100476
  0
LINE
  5
A4
330
A
100
AcDbEntity
  8
0
  6
Continuous
 62
     7
100
AcDbLine
 10
63.04117665440177
 20
-259.9388505791954
 30
0.0
 11
50.23787579550219
 21
-259.9388505791953
 31
0.0
  0
LINE
  5
A5
330
A
100
AcDbEntity
  8
0
  6
Continuous
 62
     7
100
AcDbLine
 10
50.23787579550219
 20
-362.9388505791954
 30
0.0
 11
63.04117665440177
 21
-362.9388505791954
 31
0.0
  0
LINE
  5
A6
330
A
100
AcDbEntity
  8
0
  6
Continuous
 62
     7
100
AcDbLine
 10
400.0061930399693
 20
-259.9388505791942
 30
0.0
 11
400.0061930399693
 21
-263.9388505791942
 31
0.0
  0
LINE
  5
A7
330
A
100
AcDbEntity
  8
0
  6
Continuous
 62
     7
100
AcDbLine
 10
400.0061930399693
 20
-263.9388505791942
 30
0.0
 11
249.8746010149693
 21
-263.9388505791955
 31
0.0
  0
LINE
  5
A8
330
A
100
AcDbEntity
  8
0
  6
Continuous
 62
     7
100
AcDbLine
 10
400.0061930399693
 20
-259.9388505791942
 30
0.0
 11
315.2056218031623
 21
-259.9388505791945
 31
0.0
  0
LINE
  5
A9
330
A
100
AcDbEntity
  8
0
  6
Continuous
 62
     7
100
AcDbLine
 10
305.8514783362278
 20
-259.9388505791945
 30
0.0
 11
63.04117665440177
 21
-259.9388505791954
 31
0.0
  0
LINE
  5
AA
330
A
100
AcDbEntity
  8
0
  6
Continuous
 62
     7
100
AcDbLine
 10
400.0061930399693
 20
-358.9388505791943
 30
0.0
 11
400.0061930399693
 21
-362.9388505791943
 31
0.0
  0
LINE
  5
AB
330
A
100
AcDbEntity
  8
0
  6
Continuous
 62
     7
100
AcDbLine
 10
63.04117665440177
 20
-362.9388505791954
 30
0.0
 11
305.8514783362278
 21
-362.9388505791945
 31
0.0
  0
LINE
  5
AC
330
A
100
AcDbEntity
  8
0
  6
Continuous
 62
     7
100
AcDbLine
 10
315.2056218031623
 20
-362.9388505791945
 30
0.0
 11
400.0061930399693
 21
-362.9388505791943
 31
0.0
  0
LINE
  5
AD
330
A
100
AcDbEntity
  8
0
  6
Continuous
 62
     7
100
AcDbLine
 10
249.8746010149693
 20
-358.9388505791955
 30
0.0
 11
400.0061930399693
 21
-358.9388505791943
 31
0.0
  0
LINE
  5
AE
330
A
100
AcDbEntity
  8
0
  6
Continuous
 62
     7
100
AcDbLine
 10
437.944928728687
 20
-362.9388505791943
 30
0.0
 11
434.762536398404
 21
-362.9388505791943
 31
0.0
  0
LINE
  5
AF
330
A
100
AcDbEntity
  8
0
  6
Continuous
 62
     7
100
AcDbLine
 10
434.7625363984041
 20
-259.9388505791943
 30
0.0
 11
437.944928728687
 21
-259.9388505791943
 31
0.0
  0
LINE
  5
B0
330
A
100
AcDbEntity
  8
0
  6
Continuous
 62
     7
100
AcDbLine
 10
444.954960102564
 20
-362.9388505791943
 30
0.0
 11
437.944928728687
 21
-362.9388505791943
 31
0.0
  0
LINE
  5
B1
330
A
100
AcDbEntity
  8
0
  6
Continuous
 62
     7
100
AcDbLine
 10
437.944928728687
 20
-259.9388505791943
 30
0.0
 11
444.954960102564
 21
-259.9388505791942
 31
0.0
  0
LINE
  5
B2
330
A
100
AcDbEntity
  8
0
  6
Continuous
 62
     7
100
AcDbLine
 10
434.762536398404
 20
-362.9388505791943
 30
0.0
 11
418.2708637833858
 21
-362.9388505791942
 31
0.0
  0
LINE
  5
B3
330
A
100
AcDbEntity
  8
0
  6
Continuous
 62
     7
100
AcDbLine
 10
418.2708637833858
 20
-259.9388505791942
 30
0.0
 11
434.7625363984041
 21
-259.9388505791943
 31
0.0
  0
LINE
  5
B4
330
A
100
AcDbEntity
  8
0
  6
Continuous
 62
     7
100
AcDbLine
 10
445.5407465401909
 20
-362.9388505791943
 30
0.0
 11
444.954960102564
 21
-362.9388505791943
 31
0.0
  0
LINE
  5
B5
330
A
100
AcDbEntity
  8
0
  6
Continuous
 62
     7
100
AcDbLine
 10
444.954960102564
 20
-259.9388505791942
 30
0.0
 11
445.5407465401909
 21
-259.9388505791942
 31
0.0
  0
LINE
  5
B6
330
A
100
AcDbEntity
  8
0
  6
Continuous
 62
     7
100
AcDbLine
 10
404.9559405082751
 20
-362.9388505791943
 30
0.0
 11
402.1275133835289
 21
-362.9388505791943
 31
0.0
  0
LINE
  5
B7
330
A
100
AcDbEntity
  8
0
  6
Continuous
 62
     7
100
AcDbLine
 10
402.1275133835289
 20
-259.9388505791942
 30
0.0
 11
404.9559405082751
 21
-259.9388505791942
 31
0.0
  0
LINE
  5
B8
330
A
100
AcDbEntity
  8
0
  6
Continuous
 62
     7
100
AcDbLine
 10
402.1275133835289
 20
-362.9388505791943
 30
0.0
 11
400.0061930399693
 21
-362.9388505791943
 31
0.0
  0
LINE
  5
B9
330
A
100
AcDbEntity
  8
0
  6
Continuous
 62
     7
100
AcDbLine
 10
400.0061930399693
 20
-259.9388505791942
 30
0.0
 11
402.1275133835289
 21
-259.9388505791942
 31
0.0
  0
LINE
  5
BA
330
A
100
AcDbEntity
  8
0
  6
Continuous
 62
     7
100
AcDbLine
 10
415.3098361861903
 20
-362.9388505791942
 30
0.0
 11
404.9559405082751
 21
-362.9388505791943
 31
0.0
  0
LINE
  5
BB
330
A
100
AcDbEntity
  8
0
  6
Continuous
 62
     7
100
AcDbLine
 10
404.9559405082751
 20
-259.9388505791942
 30
0.0
 11
415.3098361861903
 21
-259.9388505791942
 31
0.0
  0
LINE
  5
BC
330
A
100
AcDbEntity
  8
0
  6
Continuous
 62
     7
100
AcDbLine
 10
418.2708637833858
 20
-362.9388505791942
 30
0.0
 11
415.3098361861903
 21
-362.9388505791942
 31
0.0
  0
LINE
  5
BD
330
A
100
AcDbEntity
  8
0
  6
Continuous
 62
     7
100
AcDbLine
 10
415.3098361861903
 20
-259.9388505791942
 30
0.0
 11
418.2708637833858
 21
-259.9388505791942
 31
0.0
  0
LINE
  5
BE
330
A
100
AcDbEntity
  8
0
  6
Continuous
 62
     7
100
AcDbLine
 10
216.1782313844166
 20
-358.9388505791958
 30
0.0
 11
218.6596341151752
 21
-358.9388505791958
 31
0.0
  0
LINE
  5
BF
330
A
100
AcDbEntity
  8
0
  6
Continuous
 62
     7
100
AcDbLine
 10
216.1782313844166
 20
-263.9388505791958
 30
0.0
 11
218.6596341151752
 21
-263.9388505791958
 31
0.0
  0
LINE
  5
C0
330
A
100
AcDbEntity
  8
0
  6
Continuous
 62
     7
100
AcDbLine
 10
212.4947126295809
 20
-358.9388505791958
 30
0.0
 11
216.1782313844166
 21
-358.9388505791958
 31
0.0
  0
LINE
  5
C1
330
A
100
AcDbEntity
  8
0
  6
Continuous
 62
     7
100
AcDbLine
 10
212.4947126295809
 20
-263.9388505791957
 30
0.0
 11
216.1782313844166
 21
-263.9388505791958
 31
0.0
  0
LINE
  5
C2
330
A
100
AcDbEntity
  8
0
  6
Continuous
 62
     7
100
AcDbLine
 10
218.6596341151752
 20
-358.9388505791958
 30
0.0
 11
249.8074127328914
 21
-358.9388505791955
 31
0.0
  0
LINE
  5
C3
330
A
100
AcDbEntity
  8
0
  6
Continuous
 62
     7
100
AcDbLine
 10
218.6596341151752
 20
-263.9388505791958
 30
0.0
 11
249.8074127328915
 21
-263.9388505791955
 31
0.0
  0
LINE
  5
C4
330
A
100
AcDbEntity
  8
0
  6
Continuous
 62
     7
100
AcDbLine
 10
211.3399491530623
 20
-358.9388505791958
 30
0.0
 11
212.4947126295809
 21
-358.9388505791958
 31
0.0
  0
LINE
  5
C5
330
A
100
AcDbEntity
  8
0
  6
Continuous
 62
     7
100
AcDbLine
 10
211.3399491530623
 20
-263.9388505791957
 30
0.0
 11
212.4947126295809
 21
-263.9388505791957
 31
0.0
  0
LINE
  5
C6
330
A
100
AcDbEntity
  8
0
  6
Continuous
 62
     7
100
AcDbLine
 10
211.3399491530623
 20
-267.9388505791956
 30
0.0
 11
-318.6577338173496
 21
-267.9388505791948
 31
0.0
  0
LINE
  5
C7
330
A
100
AcDbEntity
  8
0
  6
Continuous
 62
     7
100
AcDbLine
 10
-322.0719473797227
 20
-267.9388505791948
 30
0.0
 11
-383.4508027006751
 21
-267.9388505791947
 31
0.0
  0
LINE
  5
C8
330
A
100
AcDbEntity
  8
0
  6
Continuous
 62
     7
100
AcDbLine
 10
211.3399491530623
 20
-263.9388505791957
 30
0.0
 11
59.28055126672364
 21
-263.9388505791954
 31
0.0
  0
LINE
  5
C9
330
A
100
AcDbEntity
  8
0
  6
Continuous
 62
     7
100
AcDbLine
 10
51.12378118339293
 20
-263.9388505791954
 30
0.0
 11
-383.4508027006751
 21
-263.9388505791947
 31
0.0
  0
LINE
  5
CA
330
A
100
AcDbEntity
  8
0
  6
Continuous
 62
     7
100
AcDbLine
 10
-383.4508027006751
 20
-354.9388505791946
 30
0.0
 11
-322.0719473797227
 21
-354.9388505791948
 31
0.0
  0
LINE
  5
CB
330
A
100
AcDbEntity
  8
0
  6
Continuous
 62
     7
100
AcDbLine
 10
-318.6577338173496
 20
-354.9388505791948
 30
0.0
 11
211.3399491530623
 21
-354.9388505791957
 31
0.0
  0
LINE
  5
CC
330
A
100
AcDbEntity
  8
0
  6
Continuous
 62
     7
100
AcDbLine
 10
-383.4508027006751
 20
-358.9388505791947
 30
0.0
 11
51.12378118339293
 21
-358.9388505791954
 31
0.0
  0
LINE
  5
CD
330
A
100
AcDbEntity
  8
0
  6
Continuous
 62
     7
100
AcDbLine
 10
59.28055126672364
 20
-358.9388505791954
 30
0.0
 11
211.3399491530623
 21
-358.9388505791958
 31
0.0
  0
LINE
  5
CE
330
A
100
AcDbEntity
  8
0
  6
Continuous
 62
     7
100
AcDbLine
 10
249.8074127328914
 20
-358.9388505791955
 30
0.0
 11
249.8746010149693
 21
-358.9388505791955
 31
0.0
  0
LINE
  5
CF
330
A
100
AcDbEntity
  8
0
  6
Continuous
 62
     7
100
AcDbLine
 10
249.8074127328915
 20
-263.9388505791955
 30
0.0
 11
249.8746010149693
 21
-263.9388505791955
 31
0.0
  0
LINE
  5
D0
330
A
100
AcDbEntity
  8
0
  6
Continuous
 62
     7
100
AcDbLine
 10
-383.4508027006751
 20
-263.9388505791947
 30
0.0
 11
-386.9150931302307
 21
-263.9388505791946
 31
0.0
  0
LINE
  5
D1
330
A
100
AcDbEntity
  8
0
  6
Continuous
 62
     7
100
AcDbLine
 10
-386.9150931302307
 20
-358.9388505791947
 30
0.0
 11
-383.4508027006751
 21
-358.9388505791947
 31
0.0
  0
LINE
  5
D2
330
A
100
AcDbEntity
  8
0
  6
Continuous
 62
     7
100
AcDbLine
 10
-322.0719473797227
 20
-267.9388505791948
 30
0.0
 11
-318.6577338173496
 21
-267.9388505791948
 31
0.0
  0
LINE
  5
D3
330
A
100
AcDbEntity
  8
0
  6
Continuous
 62
     7
100
AcDbLine
 10
-318.6577338173496
 20
-354.9388505791948
 30
0.0
 11
-322.0719473797227
 21
-354.9388505791948
 31
0.0
  0
LINE
  5
D4
330
A
100
AcDbEntity
  8
0
  6
Continuous
 62
     7
100
AcDbLine
 10
-429.344025318365
 20
-267.9388505791947
 30
0.0
 11
-383.4508227006751
 21
-267.9388505791947
 31
0.0
  0
LINE
  5
D5
330
A
100
AcDbEntity
  8
0
  6
Continuous
 62
     7
100
AcDbLine
 10
-432.1724524431111
 20
-267.9388505791947
 30
0.0
 11
-429.344025318365
 21
-267.9388505791947
 31
0.0
  0
LINE
  5
D6
330
A
100
AcDbEntity
  8
0
  6
Continuous
 62
     7
100
AcDbLine
 10
-429.344025318365
 20
-354.9388505791947
 30
0.0
 11
-432.1724524431111
 21
-354.9388505791947
 31
0.0
  0
LINE
  5
D7
330
A
100
AcDbEntity
  8
0
  6
Continuous
 62
     7
100
AcDbLine
 10
-383.4508227006751
 20
-354.9388505791947
 30
0.0
 11
-429.344025318365
 21
-354.9388505791947
 31
0.0
  0
LINE
  5
D8
330
A
100
AcDbEntity
  8
0
  6
Continuous
 62
     7
100
AcDbLine
 10
-460.0008795678577
 20
-267.9388505791946
 30
0.0
 11
-432.1724524431111
 21
-267.9388505791947
 31
0.0
  0
LINE
  5
D9
330
A
100
AcDbEntity
  8
0
  6
Continuous
 62
     7
100
AcDbLine
 10
-432.1724524431111
 20
-354.9388505791947
 30
0.0
 11
-460.0008795678577
 21
-354.9388505791946
 31
0.0
  0
LINE
  5
DA
330
A
100
AcDbEntity
  8
0
  6
PHANTOM
 62
     7
100
AcDbLine
 10
63.04117665440177
 20
-263.9388505791954
 30
0.0
 11
63.04117665440177
 21
-259.9388505791954
 31
0.0
  0
LINE
  5
DB
330
A
100
AcDbEntity
  8
0
  6
PHANTOM
 62
     7
100
AcDbLine
 10
63.04117665440177
 20
-358.9388505791954
 30
0.0
 11
63.04117665440177
 21
-362.9388505791954
 31
0.0
  0
LINE
  5
DC
330
A
100
AcDbEntity
  8
0
  6
PHANTOM
 62
     7
100
AcDbLine
 10
434.762536398404
 20
-362.9388505791943
 30
0.0
 11
434.7625363984041
 21
-259.9388505791943
 31
0.0
  0
LINE
  5
DD
330
A
100
AcDbEntity
  8
0
  6
PHANTOM
 62
     7
100
AcDbLine
 10
437.944928728687
 20
-362.9388505791943
 30
0.0
 11
437.944928728687
 21
-259.9388505791943
 31
0.0
  0
LINE
  5
DE
330
A
100
AcDbEntity
  8
0
  6
PHANTOM
 62
     7
100
AcDbLine
 10
444.954960102564
 20
-362.9388505791943
 30
0.0
 11
444.954960102564
 21
-259.9388505791942
 31
0.0
  0
LINE
  5
DF
330
A
100
AcDbEntity
  8
0
  6
PHANTOM
 62
     7
100
AcDbLine
 10
418.2708637833858
 20
-362.9388505791942
 30
0.0
 11
418.2708637833858
 21
-259.9388505791942
 31
0.0
  0
LINE
  5
E0
330
A
100
AcDbEntity
  8
0
  6
PHANTOM
 62
     7
100
AcDbLine
 10
402.1275133835289
 20
-362.9388505791943
 30
0.0
 11
402.1275133835289
 21
-259.9388505791942
 31
0.0
  0
LINE
  5
E1
330
A
100
AcDbEntity
  8
0
  6
PHANTOM
 62
     7
100
AcDbLine
 10
404.9559405082751
 20
-362.9388505791943
 30
0.0
 11
404.9559405082751
 21
-259.9388505791942
 31
0.0
  0
LINE
  5
E2
330
A
100
AcDbEntity
  8
0
  6
PHANTOM
 62
     7
100
AcDbLine
 10
387.2782709786111
 20
-358.9388505791943
 30
0.0
 11
387.2782709786111
 21
-263.9388505791942
 31
0.0
  0
LINE
  5
E3
330
A
100
AcDbEntity
  8
0
  6
PHANTOM
 62
     7
100
AcDbLine
 10
415.3098361861903
 20
-362.9388505791942
 30
0.0
 11
415.3098361861903
 21
-259.9388505791942
 31
0.0
  0
LINE
  5
E4
330
A
100
AcDbEntity
  8
0
  6
PHANTOM
 62
     7
100
AcDbLine
 10
372.6635759658557
 20
-358.9388505791943
 30
0.0
 11
372.6635759658557
 21
-263.9388505791943
 31
0.0
  0
LINE
  5
E5
330
A
100
AcDbEntity
  8
0
  6
PHANTOM
 62
     7
100
AcDbLine
 10
218.6596341151752
 20
-358.9388505791958
 30
0.0
 11
218.6596341151752
 21
-263.9388505791958
 31
0.0
  0
LINE
  5
E6
330
A
100
AcDbEntity
  8
0
  6
PHANTOM
 62
     7
100
AcDbLine
 10
216.1782313844166
 20
-358.9388505791958
 30
0.0
 11
216.1782313844166
 21
-263.9388505791958
 31
0.0
  0
LINE
  5
E7
330
A
100
AcDbEntity
  8
0
  6
PHANTOM
 62
     7
100
AcDbLine
 10
212.4947126295809
 20
-358.9388505791958
 30
0.0
 11
212.4947126295809
 21
-263.9388505791957
 31
0.0
  0
LINE
  5
E8
330
A
100
AcDbEntity
  8
0
  6
PHANTOM
 62
     7
100
AcDbLine
 10
249.8074127328914
 20
-358.9388505791955
 30
0.0
 11
249.8074127328915
 21
-263.9388505791955
 31
0.0
  0
LINE
  5
E9
330
A
100
AcDbEntity
  8
0
  6
PHANTOM
 62
     7
100
AcDbLine
 10
-383.4508027006751
 20
-267.9388505791947
 30
0.0
 11
-383.4508027006751
 21
-263.9388505791947
 31
0.0
  0
LINE
  5
EA
330
A
100
AcDbEntity
  8
0
  6
PHANTOM
 62
     7
100
AcDbLine
 10
-383.4508027006751
 20
-354.9388505791946
 30
0.0
 11
-383.4508027006751
 21
-358.9388505791947
 31
0.0
  0
LINE
  5
EB
330
A
100
AcDbEntity
  8
0
  6
PHANTOM
 62
     7
100
AcDbLine
 10
-322.7790541609092
 20
-353.9388505791948
 30
0.0
 11
-317.6577338173495
 21
-353.9388505791947
 31
0.0
  0
LINE
  5
EC
330
A
100
AcDbEntity
  8
0
  6
PHANTOM
 62
     7
100
AcDbLine
 10
-322.7790541609092
 20
-353.9388505791948
 30
0.0
 11
-322.7790541609092
 21
-268.9388505791949
 31
0.0
  0
LINE
  5
ED
330
A
100
AcDbEntity
  8
0
  6
PHANTOM
 62
     7
100
AcDbLine
 10
-317.6577338173495
 20
-268.9388505791947
 30
0.0
 11
-322.7790541609092
 21
-268.9388505791949
 31
0.0
  0
LWPOLYLINE
  5
EE
330
A
100
AcDbEntity
  8
0
  6
PHANTOM
 62
     7
100
AcDbPolyline
 90
        9
 70
   128
 43
0.0
 10
-322.0719473797227
 20
-267.9388505791948
 10
-322.2098970693641
 20
-267.9580652987915
 10
-322.3425454297958
 20
-268.0149710466835
 10
-322.4647948589162
 20
-268.1073809668923
 10
-322.5719473797227
 20
-268.2317437980083
 10
-322.6598851809324
 20
-268.3832803461752
 10
-322.7252288621608
 20
-268.5561671468298
 10
-322.7654673023837
 20
-268.7437602571787
 10
-322.7790541609092
 20
-268.9388505791949
  0
LWPOLYLINE
  5
F9
330
A
100
AcDbEntity
  8
0
  6
PHANTOM
 62
     7
100
AcDbPolyline
 90
        9
 70
   128
 43
0.0
 10
-322.7790541609092
 20
-353.9388505791948
 10
-322.7654673023837
 20
-354.1339409012109
 10
-322.7252288621609
 20
-354.3215340115599
 10
-322.6598851809324
 20
-354.4944208122144
 10
-322.5719473797227
 20
-354.6459573603814
 10
-322.4647948589162
 20
-354.7703201914973
 10
-322.3425454297958
 20
-354.8627301117061
 10
-322.2098970693642
 20
-354.9196358595981
 10
-322.0719473797227
 20
-354.9388505791948
  0
LINE
  5
104
330
A
100
AcDbEntity
  8
0
  6
PHANTOM
 62
     7
100
AcDbLine
 10
-322.7790541609092
 20
-268.9388505791949
 30
0.0
 11
-346.9714423163347
 21
-268.9388505791947
 31
0.0
  0
LWPOLYLINE
  5
105
330
A
100
AcDbEntity
  8
0
  6
PHANTOM
 62
     7
100
AcDbPolyline
 90
        9
 70
   128
 43
0.0
 10
-346.2643355351481
 20
-267.9388505791947
 10
-346.4022852247896
 20
-267.9580652987915
 10
-346.5349335852213
 20
-268.0149710466834
 10
-346.6571830143417
 20
-268.1073809668922
 10
-346.7643355351482
 20
-268.2317437980082
 10
-346.8522733363578
 20
-268.3832803461751
 10
-346.9176170175863
 20
-268.5561671468297
 10
-346.9578554578092
 20
-268.7437602571787
 10
-346.9714423163347
 20
-268.9388505791947
  0
LINE
  5
110
330
A
100
AcDbEntity
  8
0
  6
PHANTOM
 62
     7
100
AcDbLine
 10
-346.9714423163347
 20
-353.9388505791947
 30
0.0
 11
-322.7790541609092
 21
-353.9388505791948
 31
0.0
  0
LINE
  5
111
330
A
100
AcDbEntity
  8
0
  6
PHANTOM
 62
     7
100
AcDbLine
 10
-346.9714423163347
 20
-353.9388505791947
 30
0.0
 11
-346.9714423163347
 21
-268.9388505791947
 31
0.0
  0
LWPOLYLINE
  5
112
330
A
100
AcDbEntity
  8
0
  6
PHANTOM
 62
     7
100
AcDbPolyline
 90
        9
 70
   128
 43
0.0
 10
-346.9714423163347
 20
-353.9388505791947
 10
-346.9578554578092
 20
-354.1339409012108
 10
-346.9176170175864
 20
-354.3215340115598
 10
-346.8522733363578
 20
-354.4944208122144
 10
-346.7643355351482
 20
-354.6459573603813
 10
-346.6571830143417
 20
-354.7703201914973
 10
-346.5349335852213
 20
-354.862730111706
 10
-346.4022852247897
 20
-354.919635859598
 10
-346.2643355351481
 20
-354.9388505791947
  0
LINE
  5
11D
330
A
100
AcDbEntity
  8
0
  6
PHANTOM
 62
     7
100
AcDbLine
 10
-354.0425101282002
 20
-353.9388505791947
 30
0.0
 11
-346.9714423163347
 21
-353.9388505791947
 31
0.0
  0
LINE
  5
11E
330
A
100
AcDbEntity
  8
0
  6
PHANTOM
 62
     7
100
AcDbLine
 10
-354.0425101282002
 20
-353.9388505791947
 30
0.0
 11
-354.0425101282002
 21
-268.9388505791947
 31
0.0
  0
LINE
  5
11F
330
A
100
AcDbEntity
  8
0
  6
PHANTOM
 62
     7
100
AcDbLine
 10
-346.9714423163347
 20
-268.9388505791947
 30
0.0
 11
-354.0425101282002
 21
-268.9388505791947
 31
0.0
  0
LINE
  5
120
330
A
100
AcDbEntity
  8
0
  6
PHANTOM
 62
     7
100
AcDbLine
 10
-354.0425101282002
 20
-268.9388505791947
 30
0.0
 11
-354.0425101282002
 21
-267.9388505791947
 31
0.0
  0
LINE
  5
121
330
A
100
AcDbEntity
  8
0
  6
PHANTOM
 62
     7
100
AcDbLine
 10
-354.0425101282002
 20
-354.9388505791947
 30
0.0
 11
-354.0425101282002
 21
-353.9388505791947
 31
0.0
  0
LINE
  5
122
330
A
100
AcDbEntity
  8
0
  6
PHANTOM
 62
     7
100
AcDbLine
 10
-432.8795592242977
 20
-353.9388505791947
 30
0.0
 11
-429.344025318365
 21
-353.9388505791947
 31
0.0
  0
LINE
  5
123
330
A
100
AcDbEntity
  8
0
  6
PHANTOM
 62
     7
100
AcDbLine
 10
-432.8795592242977
 20
-353.9388505791947
 30
0.0
 11
-432.8795592242977
 21
-268.9388505791947
 31
0.0
  0
LINE
  5
124
330
A
100
AcDbEntity
  8
0
  6
PHANTOM
 62
     7
100
AcDbLine
 10
-429.344025318365
 20
-268.9388505791947
 30
0.0
 11
-432.8795592242977
 21
-268.9388505791947
 31
0.0
  0
LINE
  5
125
330
A
100
AcDbEntity
  8
0
  6
PHANTOM
 62
     7
100
AcDbLine
 10
-429.344025318365
 20
-268.9388505791947
 30
0.0
 11
-429.344025318365
 21
-353.9388505791947
 31
0.0
  0
LINE
  5
126
330
A
100
AcDbEntity
  8
0
  6
PHANTOM
 62
     7
100
AcDbLine
 10
-354.0425101282002
 20
-268.9388505791947
 30
0.0
 11
-429.344025318365
 21
-268.9388505791947
 31
0.0
  0
LINE
  5
127
330
A
100
AcDbEntity
  8
0
  6
PHANTOM
 62
     7
100
AcDbLine
 10
-429.344025318365
 20
-268.9388505791947
 30
0.0
 11
-429.344025318365
 21
-267.9388505791947
 31
0.0
  0
LINE
  5
128
330
A
100
AcDbEntity
  8
0
  6
PHANTOM
 62
     7
100
AcDbLine
 10
-429.344025318365
 20
-353.9388505791947
 30
0.0
 11
-354.0425101282002
 21
-353.9388505791947
 31
0.0
  0
LWPOLYLINE
  5
129
330
A
100
AcDbEntity
  8
0
  6
PHANTOM
 62
     7
100
AcDbPolyline
 90
        9
 70
   128
 43
0.0
 10
-432.8795592242977
 20
-268.9388505791947
 10
-432.8659723657723
 20
-268.7437602571786
 10
-432.8257339255494
 20
-268.5561671468296
 10
-432.7603902443208
 20
-268.3832803461751
 10
-432.6724524431112
 20
-268.2317437980081
 10
-432.5652999223047
 20
-268.1073809668922
 10
-432.4430504931843
 20
-268.0149710466833
 10
-432.3104021327526
 20
-267.9580652987914
 10
-432.1724524431111
 20
-267.9388505791947
  0
LWPOLYLINE
  5
134
330
A
100
AcDbEntity
  8
0
  6
PHANTOM
 62
     7
100
AcDbPolyline
 90
        9
 70
   128
 43
0.0
 10
-432.1724524431111
 20
-354.9388505791947
 10
-432.3104021327526
 20
-354.9196358595979
 10
-432.4430504931843
 20
-354.862730111706
 10
-432.5652999223047
 20
-354.7703201914973
 10
-432.6724524431112
 20
-354.6459573603812
 10
-432.7603902443208
 20
-354.4944208122143
 10
-432.8257339255493
 20
-354.3215340115597
 10
-432.8659723657723
 20
-354.1339409012108
 10
-432.8795592242977
 20
-353.9388505791947
  0
LINE
  5
13F
330
A
100
AcDbEntity
  8
0
  6
PHANTOM
 62
     7
100
AcDbLine
 10
-429.344025318365
 20
-354.9388505791947
 30
0.0
 11
-429.344025318365
 21
-353.9388505791947
 31
0.0
  0
LINE
  5
140
330
A
100
AcDbEntity
  8
0
  6
PHANTOM
 62
     7
100
AcDbLine
 10
-432.8795592242977
 20
-268.9388505791947
 30
0.0
 11
-460.7079863490443
 21
-268.9388505791946
 31
0.0
  0
LWPOLYLINE
  5
141
330
A
100
AcDbEntity
  8
0
  6
PHANTOM
 62
     7
100
AcDbPolyline
 90
        9
 70
   128
 43
0.0
 10
-460.7079863490443
 20
-268.9388505791946
 10
-460.6943994905188
 20
-268.7437602571784
 10
-460.654161050296
 20
-268.5561671468295
 10
-460.5888173690674
 20
-268.383280346175
 10
-460.5008795678577
 20
-268.231743798008
 10
-460.3937270470512
 20
-268.107380966892
 10
-460.2714776179309
 20
-268.0149710466833
 10
-460.1388292574991
 20
-267.9580652987913
 10
-460.0008795678577
 20
-267.9388505791946
  0
LINE
  5
14C
330
A
100
AcDbEntity
  8
0
  6
PHANTOM
 62
     7
100
AcDbLine
 10
-460.7079863490443
 20
-353.9388505791946
 30
0.0
 11
-432.8795592242977
 21
-353.9388505791947
 31
0.0
  0
LINE
  5
14D
330
A
100
AcDbEntity
  8
0
  6
PHANTOM
 62
     7
100
AcDbLine
 10
-460.7079863490443
 20
-268.9388505791946
 30
0.0
 11
-460.7079863490443
 21
-353.9388505791946
 31
0.0
  0
LWPOLYLINE
  5
14E
330
A
100
AcDbEntity
  8
0
  6
PHANTOM
 62
     7
100
AcDbPolyline
 90
        9
 70
   128
 43
0.0
 10
-460.0008795678577
 20
-354.9388505791946
 10
-460.1388292574991
 20
-354.9196358595978
 10
-460.2714776179309
 20
-354.8627301117059
 10
-460.3937270470512
 20
-354.7703201914972
 10
-460.5008795678577
 20
-354.6459573603812
 10
-460.5888173690674
 20
-354.4944208122142
 10
-460.6541610502959
 20
-354.3215340115597
 10
-460.6943994905188
 20
-354.1339409012107
 10
-460.7079863490443
 20
-353.9388505791946
  0
LINE
  5
159
330
A
100
AcDbEntity
  8
0
  6
PHANTOM
 62
     7
100
AcDbLine
 10
-461.0008795678577
 20
-268.9388505791946
 30
0.0
 11
-460.7079863490443
 21
-268.9388505791946
 31
0.0
  0
LINE
  5
15A
330
A
100
AcDbEntity
  8
0
  6
PHANTOM
 62
     7
100
AcDbLine
 10
-461.0008795678577
 20
-353.9388505791946
 30
0.0
 11
-460.7079863490443
 21
-353.9388505791946
 31
0.0
  0
LINE
  5
15B
330
A
100
AcDbEntity
  8
0
  6
Continuous
 62
     7
100
AcDbLine
 10
663.7178901840656
 20
-87.19332401839889
 30
0.0
 11
663.7178901840656
 21
-89.69332401839889
 31
0.0
  0
LINE
  5
15C
330
A
100
AcDbEntity
  8
0
  6
Continuous
 62
     7
100
AcDbLine
 10
672.7178901840657
 20
-89.69332401839889
 30
0.0
 11
672.7178901840657
 21
-87.19332401839889
 31
0.0
  0
LINE
  5
15D
330
A
100
AcDbEntity
  8
0
  6
Continuous
 62
     7
100
AcDbLine
 10
734.4285683027201
 20
-87.19332401839889
 30
0.0
 11
734.4285683027201
 21
-89.69332401839889
 31
0.0
  0
LINE
  5
15E
330
A
100
AcDbEntity
  8
0
  6
Continuous
 62
     7
100
AcDbLine
 10
743.4285683027201
 20
-89.69332401839889
 30
0.0
 11
743.4285683027201
 21
-87.19332401839889
 31
0.0
  0
LINE
  5
15F
330
A
100
AcDbEntity
  8
0
  6
Continuous
 62
     7
100
AcDbLine
 10
652.0732292433923
 20
188.8066759816011
 30
0.0
 11
648.0732292433923
 21
188.8066759816011
 31
0.0
  0
LINE
  5
160
330
A
100
AcDbEntity
  8
0
  6
Continuous
 62
     7
100
AcDbLine
 10
759.0732292433923
 20
188.8066759816011
 30
0.0
 11
755.0732292433923
 21
188.8066759816011
 31
0.0
  0
LINE
  5
161
330
A
100
AcDbEntity
  8
0
  6
Continuous
 62
     7
100
AcDbLine
 10
656.0732292433932
 20
433.7940493968934
 30
0.0
 11
652.0732292433932
 21
433.7940493968934
 31
0.0
  0
LINE
  5
162
330
A
100
AcDbEntity
  8
0
  6
Continuous
 62
     7
100
AcDbLine
 10
755.0732292433933
 20
433.7940493968934
 30
0.0
 11
751.0732292433933
 21
433.7940493968934
 31
0.0
  0
LINE
  5
163
330
A
100
AcDbEntity
  8
0
  6
Continuous
 62
     7
100
AcDbLine
 10
751.0732292433923
 20
180.8066759816011
 30
0.0
 11
656.0732292433923
 21
180.8066759816011
 31
0.0
  0
LINE
  5
164
330
A
100
AcDbEntity
  8
0
  6
Continuous
 62
     7
100
AcDbLine
 10
656.0732292433923
 20
176.8066759816011
 30
0.0
 11
751.0732292433923
 21
176.8066759816011
 31
0.0
  0
LINE
  5
165
330
A
100
AcDbEntity
  8
0
  6
Continuous
 62
     7
100
AcDbLine
 10
652.0732292433921
 20
38.4911786522063
 30
0.0
 11
755.0732292433921
 21
38.4911786522063
 31
0.0
  0
LINE
  5
166
330
A
100
AcDbEntity
  8
0
  6
Continuous
 62
     7
100
AcDbLine
 10
751.0732292433921
 20
97.33944065141317
 30
0.0
 11
656.0732292433921
 21
97.33944065141317
 31
0.0
  0
LINE
  5
167
330
A
100
AcDbEntity
  8
0
  6
Continuous
 62
     7
100
AcDbLine
 10
751.0732292433922
 20
112.433713551686
 30
0.0
 11
656.0732292433922
 21
112.433713551686
 31
0.0
  0
LINE
  5
168
330
A
100
AcDbEntity
  8
0
  6
Continuous
 62
     7
100
AcDbLine
 10
656.0732292433948
 20
215.7468107143955
 30
0.0
 11
660.0732292433948
 21
215.7468107143955
 31
0.0
  0
LINE
  5
169
330
A
100
AcDbEntity
  8
0
  6
Continuous
 62
     7
100
AcDbLine
 10
747.0732292433948
 20
215.7468107143955
 30
0.0
 11
751.0732292433949
 21
215.7468107143955
 31
0.0
  0
LINE
  5
16A
330
A
100
AcDbEntity
  8
0
  6
Continuous
 62
     7
100
AcDbLine
 10
747.0732292433932
 20
428.2940493968931
 30
0.0
 11
660.0732292433932
 21
428.2940493968931
 31
0.0
  0
LINE
  5
16B
330
A
100
AcDbEntity
  8
0
  6
Continuous
 62
     7
100
AcDbLine
 10
660.0732292433932
 20
424.2940493968931
 30
0.0
 11
747.0732292433932
 21
424.2940493968931
 31
0.0
  0
LINE
  5
16C
330
A
100
AcDbEntity
  8
0
  6
Continuous
 62
     7
100
AcDbLine
 10
751.0732292433926
 20
542.8434348747883
 30
0.0
 11
656.0732292433926
 21
542.8434348747883
 31
0.0
  0
LINE
  5
16D
330
A
100
AcDbEntity
  8
0
  6
Continuous
 62
     7
100
AcDbLine
 10
660.0732292433929
 20
470.9653134167754
 30
0.0
 11
747.073229243393
 21
470.9653134167754
 31
0.0
  0
ARC
  5
16E
330
A
100
AcDbEntity
  8
0
  6
Continuous
 62
     7
100
AcDbCircle
 10
661.0732292433946
 20
259.7468107143956
 30
0.0
 40
1.0
100
AcDbArc
 50
90.0
 51
180.0000000000004
  0
LINE
  5
16F
330
A
100
AcDbEntity
  8
0
  6
Continuous
 62
     7
100
AcDbLine
 10
746.0732292433946
 20
260.7468107143956
 30
0.0
 11
661.0732292433946
 21
260.7468107143956
 31
0.0
  0
ARC
  5
170
330
A
100
AcDbEntity
  8
0
  6
Continuous
 62
     7
100
AcDbCircle
 10
746.0732292433946
 20
259.7468107143956
 30
0.0
 40
1.0
100
AcDbArc
 50
0.0
 51
90.0
  0
LINE
  5
171
330
A
100
AcDbEntity
  8
0
  6
Continuous
 62
     7
100
AcDbLine
 10
648.3119181840264
 20
-11.19332401839887
 30
0.0
 11
648.3119181840264
 21
-87.19332401839889
 31
0.0
  0
LINE
  5
172
330
A
100
AcDbEntity
  8
0
  6
Continuous
 62
     7
100
AcDbLine
 10
648.3119181840264
 20
-11.19332401839887
 30
0.0
 11
758.8345403027583
 21
-11.19332401839887
 31
0.0
  0
LINE
  5
173
330
A
100
AcDbEntity
  8
0
  6
Continuous
 62
     7
100
AcDbLine
 10
758.8345403027583
 20
-11.19332401839887
 30
0.0
 11
758.8345403027583
 21
-87.19332401839889
 31
0.0
  0
LINE
  5
174
330
A
100
AcDbEntity
  8
0
  6
Continuous
 62
     7
100
AcDbLine
 10
648.3119181840264
 20
-87.19332401839889
 30
0.0
 11
758.8345403027583
 21
-87.19332401839889
 31
0.0
  0
LINE
  5
175
330
A
100
AcDbEntity
  8
0
  6
Continuous
 62
     7
100
AcDbLine
 10
672.7178901840657
 20
-89.69332401839889
 30
0.0
 11
663.7178901840656
 21
-89.69332401839889
 31
0.0
  0
LINE
  5
176
330
A
100
AcDbEntity
  8
0
  6
Continuous
 62
     7
100
AcDbLine
 10
743.4285683027201
 20
-89.69332401839889
 30
0.0
 11
734.4285683027201
 21
-89.69332401839889
 31
0.0
  0
LINE
  5
177
330
A
100
AcDbEntity
  8
0
  6
Continuous
 62
     7
100
AcDbLine
 10
652.0732292433923
 20
-11.19332401839887
 30
0.0
 11
652.0732292433923
 21
178.2000742638023
 31
0.0
  0
LINE
  5
178
330
A
100
AcDbEntity
  8
0
  6
Continuous
 62
     7
100
AcDbLine
 10
648.0732292433923
 20
-87.19332401839889
 30
0.0
 11
648.0732292433923
 21
178.8066759816011
 31
0.0
  0
LINE
  5
179
330
A
100
AcDbEntity
  8
0
  6
Continuous
 62
     7
100
AcDbLine
 10
648.0732292433923
 20
-87.19332401839889
 30
0.0
 11
648.3119181840264
 21
-87.19332401839889
 31
0.0
  0
LINE
  5
17A
330
A
100
AcDbEntity
  8
0
  6
Continuous
 62
     7
100
AcDbLine
 10
648.0732292433923
 20
178.8066759816011
 30
0.0
 11
648.0732292433923
 21
188.8066759816011
 31
0.0
  0
LINE
  5
17B
330
A
100
AcDbEntity
  8
0
  6
Continuous
 62
     7
100
AcDbLine
 10
759.0732292433923
 20
178.8066759816011
 30
0.0
 11
759.0732292433923
 21
-87.19332401839889
 31
0.0
  0
LINE
  5
17C
330
A
100
AcDbEntity
  8
0
  6
Continuous
 62
     7
100
AcDbLine
 10
755.0732292433925
 20
178.2000742638023
 30
0.0
 11
755.0732292433925
 21
-11.19332401839887
 31
0.0
  0
LINE
  5
17D
330
A
100
AcDbEntity
  8
0
  6
Continuous
 62
     7
100
AcDbLine
 10
759.0732292433923
 20
-87.19332401839889
 30
0.0
 11
758.8345403027583
 21
-87.19332401839889
 31
0.0
  0
LINE
  5
17E
330
A
100
AcDbEntity
  8
0
  6
Continuous
 62
     7
100
AcDbLine
 10
759.0732292433923
 20
188.8066759816011
 30
0.0
 11
759.0732292433923
 21
178.8066759816011
 31
0.0
  0
LINE
  5
17F
330
A
100
AcDbEntity
  8
0
  6
Continuous
 62
     7
100
AcDbLine
 10
656.0732292433932
 20
433.7940493968934
 30
0.0
 11
656.0732292433932
 21
429.8301139412798
 31
0.0
  0
LINE
  5
180
330
A
100
AcDbEntity
  8
0
  6
Continuous
 62
     7
100
AcDbLine
 10
652.0732292433932
 20
433.7940493968934
 30
0.0
 11
652.0732292433932
 21
420.9907485379939
 31
0.0
  0
LINE
  5
181
330
A
100
AcDbEntity
  8
0
  6
Continuous
 62
     7
100
AcDbLine
 10
751.0732292433933
 20
429.8301139412798
 30
0.0
 11
751.0732292433933
 21
433.7940493968934
 31
0.0
  0
LINE
  5
182
330
A
100
AcDbEntity
  8
0
  6
Continuous
 62
     7
100
AcDbLine
 10
755.0732292433933
 20
420.9907485379939
 30
0.0
 11
755.0732292433933
 21
433.7940493968934
 31
0.0
  0
LINE
  5
183
330
A
100
AcDbEntity
  8
0
  6
Continuous
 62
     7
100
AcDbLine
 10
656.0732292433921
 20
84.02573215242783
 30
0.0
 11
652.0732292433921
 21
84.02573215242783
 31
0.0
  0
LINE
  5
184
330
A
100
AcDbEntity
  8
0
  6
Continuous
 62
     7
100
AcDbLine
 10
652.0732292433932
 20
420.9907485379939
 30
0.0
 11
652.0732292433923
 21
178.8066959816011
 31
0.0
  0
LINE
  5
185
330
A
100
AcDbEntity
  8
0
  6
Continuous
 62
     7
100
AcDbLine
 10
656.0732292433948
 20
215.7468107143955
 30
0.0
 11
656.0732292433921
 21
84.02573215242783
 31
0.0
  0
LINE
  5
186
330
A
100
AcDbEntity
  8
0
  6
Continuous
 62
     7
100
AcDbLine
 10
755.0732292433921
 20
84.02573215242789
 30
0.0
 11
751.0732292433921
 21
84.02573215242783
 31
0.0
  0
LINE
  5
187
330
A
100
AcDbEntity
  8
0
  6
Continuous
 62
     7
100
AcDbLine
 10
751.0732292433921
 20
84.02573215242783
 30
0.0
 11
751.0732292433949
 21
215.7468107143955
 31
0.0
  0
LINE
  5
188
330
A
100
AcDbEntity
  8
0
  6
Continuous
 62
     7
100
AcDbLine
 10
755.0732292433925
 20
178.806695981601
 30
0.0
 11
755.0732292433933
 21
420.9907485379939
 31
0.0
  0
LINE
  5
189
330
A
100
AcDbEntity
  8
0
  6
Continuous
 62
     7
100
AcDbLine
 10
656.0732292433948
 20
227.1846574366153
 30
0.0
 11
656.0732292433948
 21
215.7468107143955
 31
0.0
  0
LINE
  5
18A
330
A
100
AcDbEntity
  8
0
  6
Continuous
 62
     7
100
AcDbLine
 10
751.0732292433949
 20
215.7468107143955
 30
0.0
 11
751.0732292433949
 21
227.1846574366153
 31
0.0
  0
LINE
  5
18B
330
A
100
AcDbEntity
  8
0
  6
Continuous
 62
     7
100
AcDbLine
 10
660.0732292433926
 20
505.690091923736
 30
0.0
 11
656.0732292433926
 21
505.6900919237358
 31
0.0
  0
LINE
  5
18C
330
A
100
AcDbEntity
  8
0
  6
Continuous
 62
     7
100
AcDbLine
 10
656.0732292433926
 20
505.6900919237358
 30
0.0
 11
656.0732292433932
 21
433.7940493968934
 31
0.0
  0
LINE
  5
18D
330
A
100
AcDbEntity
  8
0
  6
Continuous
 62
     7
100
AcDbLine
 10
656.0732292433932
 20
429.8301139412798
 30
0.0
 11
656.0732292433948
 21
227.1846574366153
 31
0.0
  0
LINE
  5
18E
330
A
100
AcDbEntity
  8
0
  6
Continuous
 62
     7
100
AcDbLine
 10
660.0732292433926
 20
505.690091923736
 30
0.0
 11
660.0732292433946
 21
259.7468107143956
 31
0.0
  0
LINE
  5
18F
330
A
100
AcDbEntity
  8
0
  6
Continuous
 62
     7
100
AcDbLine
 10
660.0732292433946
 20
259.1610242767686
 30
0.0
 11
660.0732292433949
 21
231.7468107143955
 31
0.0
  0
LINE
  5
190
330
A
100
AcDbEntity
  8
0
  6
Continuous
 62
     7
100
AcDbLine
 10
747.0732292433926
 20
505.690091923736
 30
0.0
 11
751.0732292433926
 21
505.690091923736
 31
0.0
  0
LINE
  5
191
330
A
100
AcDbEntity
  8
0
  6
Continuous
 62
     7
100
AcDbLine
 10
747.0732292433949
 20
231.7468107143955
 30
0.0
 11
747.0732292433946
 21
259.1610242767686
 31
0.0
  0
LINE
  5
192
330
A
100
AcDbEntity
  8
0
  6
Continuous
 62
     7
100
AcDbLine
 10
747.0732292433946
 20
259.7468107143956
 30
0.0
 11
747.0732292433926
 21
505.690091923736
 31
0.0
  0
LINE
  5
193
330
A
100
AcDbEntity
  8
0
  6
Continuous
 62
     7
100
AcDbLine
 10
751.0732292433949
 20
227.1846574366153
 30
0.0
 11
751.0732292433933
 21
429.8301139412798
 31
0.0
  0
LINE
  5
194
330
A
100
AcDbEntity
  8
0
  6
Continuous
 62
     7
100
AcDbLine
 10
751.0732292433933
 20
433.7940493968934
 30
0.0
 11
751.0732292433926
 21
505.690091923736
 31
0.0
  0
LINE
  5
195
330
A
100
AcDbEntity
  8
0
  6
Continuous
 62
     7
100
AcDbLine
 10
751.0732292433926
 20
537.9698686193288
 30
0.0
 11
751.0732292433926
 21
540.938397444524
 31
0.0
  0
LINE
  5
196
330
A
100
AcDbEntity
  8
0
  6
Continuous
 62
     7
100
AcDbLine
 10
656.0732292433926
 20
537.9698686193288
 30
0.0
 11
656.0732292433926
 21
540.938397444524
 31
0.0
  0
LINE
  5
197
330
A
100
AcDbEntity
  8
0
  6
Continuous
 62
     7
100
AcDbLine
 10
751.0732292433926
 20
517.4221669594447
 30
0.0
 11
751.0732292433926
 21
537.9698686193288
 31
0.0
  0
LINE
  5
198
330
A
100
AcDbEntity
  8
0
  6
Continuous
 62
     7
100
AcDbLine
 10
656.0732292433926
 20
517.4221669594447
 30
0.0
 11
656.0732292433926
 21
537.9698686193288
 31
0.0
  0
LINE
  5
199
330
A
100
AcDbEntity
  8
0
  6
Continuous
 62
     7
100
AcDbLine
 10
751.0732292433926
 20
509.3153230718826
 30
0.0
 11
656.0732292433926
 21
509.3153230718826
 31
0.0
  0
LINE
  5
19A
330
A
100
AcDbEntity
  8
0
  6
Continuous
 62
     7
100
AcDbLine
 10
751.0732292433926
 20
509.3153230718826
 30
0.0
 11
751.0732292433926
 21
514.6570807249414
 31
0.0
  0
LINE
  5
19B
330
A
100
AcDbEntity
  8
0
  6
Continuous
 62
     7
100
AcDbLine
 10
656.0732292433926
 20
509.3153230718826
 30
0.0
 11
656.0732292433926
 21
514.6570807249414
 31
0.0
  0
LINE
  5
19C
330
A
100
AcDbEntity
  8
0
  6
Continuous
 62
     7
100
AcDbLine
 10
747.0732292433928
 20
491.1891673311497
 30
0.0
 11
660.0732292433928
 21
491.1891673311497
 31
0.0
  0
LINE
  5
19D
330
A
100
AcDbEntity
  8
0
  6
Continuous
 62
     7
100
AcDbLine
 10
751.0732292433926
 20
505.690091923736
 30
0.0
 11
751.0732292433926
 21
509.3153230718826
 31
0.0
  0
LINE
  5
19E
330
A
100
AcDbEntity
  8
0
  6
Continuous
 62
     7
100
AcDbLine
 10
656.0732292433926
 20
505.6900919237358
 30
0.0
 11
656.0732292433926
 21
509.3153230718826
 31
0.0
  0
LINE
  5
19F
330
A
100
AcDbEntity
  8
0
  6
Continuous
 62
     7
100
AcDbLine
 10
751.0732292433926
 20
540.938397444524
 30
0.0
 11
751.0732292433926
 21
542.6560504488616
 31
0.0
  0
LINE
  5
1A0
330
A
100
AcDbEntity
  8
0
  6
Continuous
 62
     7
100
AcDbLine
 10
656.0732292433926
 20
540.938397444524
 30
0.0
 11
656.0732292433926
 21
542.6560504488616
 31
0.0
  0
LINE
  5
1A1
330
A
100
AcDbEntity
  8
0
  6
Continuous
 62
     7
100
AcDbLine
 10
751.0732292433926
 20
542.6560504488616
 30
0.0
 11
751.0732292433926
 21
542.8434348747883
 31
0.0
  0
LINE
  5
1A2
330
A
100
AcDbEntity
  8
0
  6
Continuous
 62
     7
100
AcDbLine
 10
656.0732292433926
 20
542.6560504488616
 30
0.0
 11
656.0732292433926
 21
542.8434348747883
 31
0.0
  0
LINE
  5
1A3
330
A
100
AcDbEntity
  8
0
  6
Continuous
 62
     7
100
AcDbLine
 10
751.0732292433926
 20
514.6570807249414
 30
0.0
 11
751.0732292433926
 21
517.4221669594447
 31
0.0
  0
LINE
  5
1A4
330
A
100
AcDbEntity
  8
0
  6
Continuous
 62
     7
100
AcDbLine
 10
656.0732292433926
 20
514.6570807249414
 30
0.0
 11
656.0732292433926
 21
517.4221669594447
 31
0.0
  0
LINE
  5
1A5
330
A
100
AcDbEntity
  8
0
  6
Continuous
 62
     7
100
AcDbLine
 10
746.073229243395
 20
201.7468107143955
 30
0.0
 11
661.0732292433951
 21
201.7468107143955
 31
0.0
  0
ARC
  5
1A6
330
A
100
AcDbEntity
  8
0
  6
Continuous
 62
     7
100
AcDbCircle
 10
661.0732292433951
 20
202.7468107143954
 30
0.0
 40
1.0
100
AcDbArc
 50
180.0000000000004
 51
270.0000000000008
  0
ARC
  5
1A7
330
A
100
AcDbEntity
  8
0
  6
Continuous
 62
     7
100
AcDbCircle
 10
746.073229243395
 20
202.7468107143954
 30
0.0
 40
1.0
100
AcDbArc
 50
270.0000000000008
 51
0.0
  0
LINE
  5
1A8
330
A
100
AcDbEntity
  8
0
  6
Continuous
 62
     7
100
AcDbLine
 10
660.073229243395
 20
202.7468107143954
 30
0.0
 11
660.0732292433949
 21
230.5752378391417
 31
0.0
  0
LINE
  5
1A9
330
A
100
AcDbEntity
  8
0
  6
Continuous
 62
     7
100
AcDbLine
 10
747.073229243395
 20
230.5752378391417
 30
0.0
 11
747.073229243395
 21
202.7468107143954
 31
0.0
  0
ARC
  5
1AA
330
A
100
AcDbEntity
  8
0
  6
Continuous
 62
     7
100
AcDbCircle
 10
661.0732292433949
 20
231.7468107143955
 30
0.0
 40
1.0
100
AcDbArc
 50
90.0
 51
180.0000000000004
  0
LINE
  5
1AB
330
A
100
AcDbEntity
  8
0
  6
Continuous
 62
     7
100
AcDbLine
 10
660.0732292433949
 20
230.5752378391417
 30
0.0
 11
660.0732292433949
 21
231.7468107143955
 31
0.0
  0
LINE
  5
1AC
330
A
100
AcDbEntity
  8
0
  6
Continuous
 62
     7
100
AcDbLine
 10
661.0732292433949
 20
232.7468107143955
 30
0.0
 11
746.073229243395
 21
232.7468107143955
 31
0.0
  0
ARC
  5
1AD
330
A
100
AcDbEntity
  8
0
  6
Continuous
 62
     7
100
AcDbCircle
 10
746.073229243395
 20
231.7468107143955
 30
0.0
 40
1.0
100
AcDbArc
 50
0.0
 51
90.0
  0
LINE
  5
1AE
330
A
100
AcDbEntity
  8
0
  6
Continuous
 62
     7
100
AcDbLine
 10
747.0732292433949
 20
231.7468107143955
 30
0.0
 11
747.073229243395
 21
230.5752378391417
 31
0.0
  0
LINE
  5
1AF
330
A
100
AcDbEntity
  8
0
  6
Continuous
 62
     7
100
AcDbLine
 10
660.0732292433946
 20
259.1610242767686
 30
0.0
 11
660.0732292433946
 21
259.7468107143956
 31
0.0
  0
LINE
  5
1B0
330
A
100
AcDbEntity
  8
0
  6
Continuous
 62
     7
100
AcDbLine
 10
747.0732292433946
 20
259.7468107143956
 30
0.0
 11
747.0732292433946
 21
259.1610242767686
 31
0.0
  0
LINE
  5
1B1
330
A
100
AcDbEntity
  8
0
  6
PHANTOM
 62
     7
100
AcDbLine
 10
648.0732292433923
 20
178.8066759816011
 30
0.0
 11
652.0732292433923
 21
178.8066759816011
 31
0.0
  0
LINE
  5
1B2
330
A
100
AcDbEntity
  8
0
  6
PHANTOM
 62
     7
100
AcDbLine
 10
759.0732292433923
 20
178.8066759816011
 30
0.0
 11
755.0732292433925
 21
178.8066759816011
 31
0.0
  0
LINE
  5
1B3
330
A
100
AcDbEntity
  8
0
  6
PHANTOM
 62
     7
100
AcDbLine
 10
656.0732292433932
 20
420.9907485379939
 30
0.0
 11
652.0732292433932
 21
420.9907485379939
 31
0.0
  0
LINE
  5
1B4
330
A
100
AcDbEntity
  8
0
  6
PHANTOM
 62
     7
100
AcDbLine
 10
751.0732292433933
 20
420.9907485379939
 30
0.0
 11
755.0732292433933
 21
420.9907485379939
 31
0.0
  0
LINE
  5
1B5
330
A
100
AcDbEntity
  8
0
  6
PHANTOM
 62
     7
100
AcDbLine
 10
755.0732292433921
 20
46.08699646370998
 30
0.0
 11
652.0732292433921
 21
46.08699646370992
 31
0.0
  0
LINE
  5
1B6
330
A
100
AcDbEntity
  8
0
  6
PHANTOM
 62
     7
100
AcDbLine
 10
755.0732292433921
 20
49.26938879399292
 30
0.0
 11
652.0732292433921
 21
49.26938879399301
 31
0.0
  0
LINE
  5
1B7
330
A
100
AcDbEntity
  8
0
  6
PHANTOM
 62
     7
100
AcDbLine
 10
755.0732292433921
 20
39.07696508983319
 30
0.0
 11
652.0732292433921
 21
39.07696508983319
 31
0.0
  0
LINE
  5
1B8
330
A
100
AcDbEntity
  8
0
  6
PHANTOM
 62
     7
100
AcDbLine
 10
755.073229243392
 20
65.76106140901136
 30
0.0
 11
652.073229243392
 21
65.76106140901109
 31
0.0
  0
LINE
  5
1B9
330
A
100
AcDbEntity
  8
0
  6
PHANTOM
 62
     7
100
AcDbLine
 10
755.0732292433921
 20
79.07598468412245
 30
0.0
 11
652.0732292433921
 21
79.07598468412222
 31
0.0
  0
LINE
  5
1BA
330
A
100
AcDbEntity
  8
0
  6
PHANTOM
 62
     7
100
AcDbLine
 10
755.0732292433921
 20
81.90441180886795
 30
0.0
 11
652.0732292433921
 21
81.90441180886841
 31
0.0
  0
LINE
  5
1BB
330
A
100
AcDbEntity
  8
0
  6
PHANTOM
 62
     7
100
AcDbLine
 10
751.0732292433921
 20
96.75365421378627
 30
0.0
 11
656.0732292433921
 21
96.75365421378627
 31
0.0
  0
LINE
  5
1BC
330
A
100
AcDbEntity
  8
0
  6
PHANTOM
 62
     7
100
AcDbLine
 10
755.073229243392
 20
68.72208900620707
 30
0.0
 11
652.073229243392
 21
68.72208900620752
 31
0.0
  0
LINE
  5
1BD
330
A
100
AcDbEntity
  8
0
  6
PHANTOM
 62
     7
100
AcDbLine
 10
751.0732292433922
 20
111.3683492265416
 30
0.0
 11
656.0732292433921
 21
111.3683492265416
 31
0.0
  0
LINE
  5
1BE
330
A
100
AcDbEntity
  8
0
  6
PHANTOM
 62
     7
100
AcDbLine
 10
660.0732292433948
 20
227.1846574366153
 30
0.0
 11
656.0732292433948
 21
227.1846574366153
 31
0.0
  0
LINE
  5
1BF
330
A
100
AcDbEntity
  8
0
  6
PHANTOM
 62
     7
100
AcDbLine
 10
747.0732292433948
 20
227.1846574366153
 30
0.0
 11
751.0732292433949
 21
227.1846574366153
 31
0.0
  0
LINE
  5
1C0
330
A
100
AcDbEntity
  8
0
  6
PHANTOM
 62
     7
100
AcDbLine
 10
751.0732292433926
 20
540.938397444524
 30
0.0
 11
656.0732292433926
 21
540.938397444524
 31
0.0
  0
LINE
  5
1C1
330
A
100
AcDbEntity
  8
0
  6
PHANTOM
 62
     7
100
AcDbLine
 10
751.0732292433926
 20
537.9698686193288
 30
0.0
 11
656.0732292433926
 21
537.9698686193288
 31
0.0
  0
LINE
  5
1C2
330
A
100
AcDbEntity
  8
0
  6
PHANTOM
 62
     7
100
AcDbLine
 10
751.0732292433926
 20
517.4221669594447
 30
0.0
 11
656.0732292433926
 21
517.4221669594447
 31
0.0
  0
LINE
  5
1C3
330
A
100
AcDbEntity
  8
0
  6
PHANTOM
 62
     7
100
AcDbLine
 10
751.0732292433926
 20
514.6570807249414
 30
0.0
 11
656.0732292433926
 21
514.6570807249414
 31
0.0
  0
LINE
  5
1C4
330
A
100
AcDbEntity
  8
0
  6
PHANTOM
 62
     7
100
AcDbLine
 10
751.0732292433926
 20
542.6560504488616
 30
0.0
 11
656.0732292433926
 21
542.6560504488616
 31
0.0
  0
LINE
  5
1C5
330
A
100
AcDbEntity
  8
0
  6
PHANTOM
 62
     7
100
AcDbLine
 10
747.0732292433929
 20
472.4580322093166
 30
0.0
 11
660.0732292433929
 21
472.4580322093166
 31
0.0
  0
LINE
  5
1C6
330
A
100
AcDbEntity
  8
0
  6
PHANTOM
 62
     7
100
AcDbLine
 10
661.0732292433951
 20
201.7468107143955
 30
0.0
 11
661.0732292433951
 21
203.453917495582
 31
0.0
  0
LINE
  5
1C7
330
A
100
AcDbEntity
  8
0
  6
PHANTOM
 62
     7
100
AcDbLine
 10
661.0732292433951
 20
203.453917495582
 30
0.0
 11
746.073229243395
 21
203.453917495582
 31
0.0
  0
LINE
  5
1C8
330
A
100
AcDbEntity
  8
0
  6
PHANTOM
 62
     7
100
AcDbLine
 10
746.073229243395
 20
201.7468107143955
 30
0.0
 11
746.073229243395
 21
203.453917495582
 31
0.0
  0
LWPOLYLINE
  5
1C9
330
A
100
AcDbEntity
  8
0
  6
PHANTOM
 62
     7
100
AcDbPolyline
 90
        9
 70
   128
 43
0.0
 10
661.0732292433951
 20
203.453917495582
 10
660.8781389213788
 20
203.4403306370565
 10
660.6905458110299
 20
203.4000921968337
 10
660.5176590103753
 20
203.3347485156052
 10
660.3661224622085
 20
203.2468107143955
 10
660.2417596310925
 20
203.139658193589
 10
660.1493497108838
 20
203.0174087644686
 10
660.0924439629919
 20
202.884760404037
 10
660.073229243395
 20
202.7468107143954
  0
LWPOLYLINE
  5
1D4
330
A
100
AcDbEntity
  8
0
  6
PHANTOM
 62
     7
100
AcDbPolyline
 90
        9
 70
   128
 43
0.0
 10
747.073229243395
 20
202.7468107143954
 10
747.0540145237983
 20
202.884760404037
 10
746.9971087759064
 20
203.0174087644686
 10
746.9046988556977
 20
203.139658193589
 10
746.7803360245816
 20
203.2468107143955
 10
746.6287994764146
 20
203.3347485156052
 10
746.4559126757601
 20
203.4000921968337
 10
746.2683195654111
 20
203.4403306370565
 10
746.073229243395
 20
203.453917495582
  0
LINE
  5
1DF
330
A
100
AcDbEntity
  8
0
  6
PHANTOM
 62
     7
100
AcDbLine
 10
661.0732292433949
 20
231.2823446203283
 30
0.0
 11
661.0732292433951
 21
203.453917495582
 31
0.0
  0
LWPOLYLINE
  5
1E0
330
A
100
AcDbEntity
  8
0
  6
PHANTOM
 62
     7
100
AcDbPolyline
 90
        9
 70
   128
 43
0.0
 10
661.0732292433949
 20
231.2823446203283
 10
660.8781389213787
 20
231.2687577618028
 10
660.6905458110299
 20
231.2285193215799
 10
660.5176590103753
 20
231.1631756403513
 10
660.3661224622084
 20
231.0752378391417
 10
660.2417596310925
 20
230.9680853183352
 10
660.1493497108837
 20
230.8458358892148
 10
660.0924439629917
 20
230.7131875287832
 10
660.0732292433949
 20
230.5752378391417
  0
LINE
  5
1EB
330
A
100
AcDbEntity
  8
0
  6
PHANTOM
 62
     7
100
AcDbLine
 10
746.073229243395
 20
203.453917495582
 30
0.0
 11
746.073229243395
 21
231.2823446203283
 31
0.0
  0
LINE
  5
1EC
330
A
100
AcDbEntity
  8
0
  6
PHANTOM
 62
     7
100
AcDbLine
 10
746.073229243395
 20
231.2823446203283
 30
0.0
 11
661.0732292433949
 21
231.2823446203283
 31
0.0
  0
LWPOLYLINE
  5
1ED
330
A
100
AcDbEntity
  8
0
  6
PHANTOM
 62
     7
100
AcDbPolyline
 90
        9
 70
   128
 43
0.0
 10
747.073229243395
 20
230.5752378391417
 10
747.0540145237982
 20
230.7131875287832
 10
746.9971087759063
 20
230.8458358892148
 10
746.9046988556975
 20
230.9680853183352
 10
746.7803360245815
 20
231.0752378391417
 10
746.6287994764145
 20
231.1631756403513
 10
746.45591267576
 20
231.2285193215799
 10
746.268319565411
 20
231.2687577618028
 10
746.073229243395
 20
231.2823446203283
  0
LINE
  5
1F8
330
A
100
AcDbEntity
  8
0
  6
PHANTOM
 62
     7
100
AcDbLine
 10
661.0732292433949
 20
232.7468107143955
 30
0.0
 11
661.0732292433949
 21
231.2823446203283
 31
0.0
  0
LINE
  5
1F9
330
A
100
AcDbEntity
  8
0
  6
PHANTOM
 62
     7
100
AcDbLine
 10
746.073229243395
 20
231.2823446203283
 30
0.0
 11
746.073229243395
 21
232.7468107143955
 31
0.0
  0
LINE
  5
1FA
330
A
100
AcDbEntity
  8
0
  6
PHANTOM
 62
     7
100
AcDbLine
 10
661.0732292433947
 20
235.6757429025299
 30
0.0
 11
661.0732292433947
 21
232.7468107143955
 31
0.0
  0
LWPOLYLINE
  5
1FB
330
A
100
AcDbEntity
  8
0
  6
PHANTOM
 62
     7
100
AcDbPolyline
 90
        9
 70
   128
 43
0.0
 10
660.0732292433947
 20
234.9686361213433
 10
660.0924439629915
 20
235.1065858109848
 10
660.1493497108834
 20
235.2392341714164
 10
660.2417596310921
 20
235.3614836005368
 10
660.3661224622081
 20
235.4686361213433
 10
660.517659010375
 20
235.556573922553
 10
660.6905458110295
 20
235.6219176037815
 10
660.8781389213785
 20
235.6621560440044
 10
661.0732292433947
 20
235.6757429025299
  0
LINE
  5
206
330
A
100
AcDbEntity
  8
0
  6
PHANTOM
 62
     7
100
AcDbLine
 10
746.0732292433947
 20
232.7468107143955
 30
0.0
 11
746.0732292433947
 21
235.6757429025299
 31
0.0
  0
LINE
  5
207
330
A
100
AcDbEntity
  8
0
  6
PHANTOM
 62
     7
100
AcDbLine
 10
746.0732292433947
 20
235.6757429025299
 30
0.0
 11
661.0732292433947
 21
235.6757429025299
 31
0.0
  0
LWPOLYLINE
  5
208
330
A
100
AcDbEntity
  8
0
  6
PHANTOM
 62
     7
100
AcDbPolyline
 90
        9
 70
   128
 43
0.0
 10
746.0732292433947
 20
235.6757429025299
 10
746.2683195654108
 20
235.6621560440044
 10
746.4559126757598
 20
235.6219176037815
 10
746.6287994764143
 20
235.556573922553
 10
746.7803360245812
 20
235.4686361213434
 10
746.9046988556972
 20
235.3614836005368
 10
746.9971087759059
 20
235.2392341714164
 10
747.0540145237979
 20
235.1065858109848
 10
747.0732292433947
 20
234.9686361213433
  0
LWPOLYLINE
  5
213
330
A
100
AcDbEntity
  8
0
  6
PHANTOM
 62
     7
100
AcDbPolyline
 90
        9
 70
   128
 43
0.0
 10
660.0732292433946
 20
259.1610242767686
 10
660.0924439629913
 20
259.2989739664101
 10
660.1493497108833
 20
259.4316223268417
 10
660.2417596310921
 20
259.5538717559621
 10
660.366122462208
 20
259.6610242767686
 10
660.517659010375
 20
259.7489620779783
 10
660.6905458110295
 20
259.8143057592068
 10
660.8781389213784
 20
259.8545441994296
 10
661.0732292433946
 20
259.8681310579552
  0
LINE
  5
21E
330
A
100
AcDbEntity
  8
0
  6
PHANTOM
 62
     7
100
AcDbLine
 10
661.0732292433946
 20
259.8681310579552
 30
0.0
 11
661.0732292433947
 21
235.6757429025299
 31
0.0
  0
LINE
  5
21F
330
A
100
AcDbEntity
  8
0
  6
PHANTOM
 62
     7
100
AcDbLine
 10
746.0732292433947
 20
235.6757429025299
 30
0.0
 11
746.0732292433946
 21
259.8681310579552
 31
0.0
  0
LINE
  5
220
330
A
100
AcDbEntity
  8
0
  6
PHANTOM
 62
     7
100
AcDbLine
 10
746.0732292433946
 20
259.8681310579552
 30
0.0
 11
661.0732292433946
 21
259.8681310579552
 31
0.0
  0
LWPOLYLINE
  5
221
330
A
100
AcDbEntity
  8
0
  6
PHANTOM
 62
     7
100
AcDbPolyline
 90
        9
 70
   128
 43
0.0
 10
746.0732292433946
 20
259.8681310579552
 10
746.2683195654107
 20
259.8545441994296
 10
746.4559126757596
 20
259.8143057592068
 10
746.6287994764142
 20
259.7489620779783
 10
746.7803360245811
 20
259.6610242767686
 10
746.9046988556971
 20
259.5538717559621
 10
746.9971087759058
 20
259.4316223268417
 10
747.0540145237978
 20
259.2989739664101
 10
747.0732292433946
 20
259.1610242767686
  0
LINE
  5
22C
330
A
100
AcDbEntity
  8
0
  6
PHANTOM
 62
     7
100
AcDbLine
 10
661.0732292433946
 20
260.7468107143956
 30
0.0
 11
661.0732292433946
 21
259.8681310579552
 31
0.0
  0
LINE
  5
22D
330
A
100
AcDbEntity
  8
0
  6
PHANTOM
 62
     7
100
AcDbLine
 10
746.0732292433946
 20
259.8681310579552
 30
0.0
 11
746.0732292433946
 21
260.7468107143956
 31
0.0
  0
ENDSEC
  0
SECTION
  2
OBJECTS
  0
DICTIONARY
  5
19
330
0
100
AcDbDictionary
281
     1
  3
ACAD_COLOR
350
232
  3
ACAD_GROUP
350
1A
  3
ACAD_LAYOUT
350
233
  3
ACAD_MATERIAL
350
231
  3
ACAD_MLINESTYLE
350
1B
  3
ACAD_PLOTSETTINGS
350
234
  3
ACAD_PLOTSTYLENAME
350
22F
  3
ACDBHEADERROUNDTRIPXREC
350
24C
  3
AcDbVariableDictionary
350
245
  3
ASE_INDEX_DICTIONARY
350
23A
  0
DICTIONARY
  5
232
102
{ACAD_REACTORS
330
19
102
}
330
19
100
AcDbDictionary
281
     1
  0
DICTIONARY
  5
1A
102
{ACAD_REACTORS
330
19
102
}
330
19
100
AcDbDictionary
281
     1
  0
DICTIONARY
  5
233
102
{ACAD_REACTORS
330
19
102
}
330
19
100
AcDbDictionary
281
     1
  3
Layout1
350
236
  3
Model
350
235
  0
DICTIONARY
  5
231
102
{ACAD_REACTORS
330
19
102
}
330
19
100
AcDbDictionary
281
     1
  0
DICTIONARY
  5
1B
102
{ACAD_REACTORS
330
19
102
}
330
19
100
AcDbDictionary
281
     1
  3
STANDARD
350
1C
  0
DICTIONARY
  5
234
102
{ACAD_REACTORS
330
19
102
}
330
19
100
AcDbDictionary
281
     1
  0
ACDBDICTIONARYWDFLT
  5
22F
102
{ACAD_REACTORS
330
19
102
}
330
19
100
AcDbDictionary
281
     1
  3
Normal
350
230
100
AcDbDictionaryWithDefault
340
230
  0
DICTIONARY
  5
24C
102
{ACAD_REACTORS
330
19
102
}
330
19
100
AcDbDictionary
281
     1
  3
COLORDICT
350
24E
  3
MATERIALDICT
350
24D
  0
DICTIONARY
  5
245
102
{ACAD_REACTORS
330
19
102
}
330
19
100
AcDbDictionary
281
     1
  3
DIMASSOC
350
246
  3
PROJECTNAME
350
247
  0
DICTIONARY
  5
23A
102
{ACAD_REACTORS
330
19
102
}
330
19
100
AcDbDictionary
281
     1
  3
ASEBlockHierarchyIndexRecord
350
23C
1001
DCO15
1040
1522041527.671
  0
LAYOUT
  5
236
102
{ACAD_XDICTIONARY
360
251
102
}
102
{ACAD_REACTORS
330
233
102
}
330
233
100
AcDbPlotSettings
  1

  2
ProgeSOFT PDF Wizard
  4

  6

 40
0.0
 41
0.0
 42
0.0
 43
0.0
 44
0.0
 45
0.0
 46
0.0
 47
0.0
 48
0.0
 49
0.0
140
0.0
141
0.0
142
1.0
143
1.0
 70
   688
 72
     0
 73
     0
 74
     5
  7

 75
    16
147
1.0
148
0.0
149
0.0
100
AcDbLayout
  1
Layout1
 70
     1
 71
     1
 10
0.0
 20
0.0
 11
12.0
 21
9.0
 12
0.0
 22
0.0
 32
0.0
 14
1.000000000000000E+20
 24
1.000000000000000E+20
 34
1.000000000000000E+20
 15
-1.000000000000000E+20
 25
-1.000000000000000E+20
 35
-1.000000000000000E+20
146
0.0
 13
0.0
 23
0.0
 33
0.0
 16
1.0
 26
0.0
 36
0.0
 17
0.0
 27
1.0
 37
0.0
 76
     0
330
B
  0
LAYOUT
  5
235
102
{ACAD_XDICTIONARY
360
24F
102
}
102
{ACAD_REACTORS
330
233
102
}
330
233
100
AcDbPlotSettings
  1

  2
ProgeSOFT PDF Wizard
  4

  6

 40
0.0
 41
0.0
 42
0.0
 43
0.0
 44
0.0
 45
0.0
 46
0.0
 47
0.0
 48
0.0
 49
0.0
140
0.0
141
0.0
142
1.0
143
1.0
 70
  1712
 72
     0
 73
     0
 74
     0
  7

 75
     0
147
1.0
148
0.0
149
0.0
100
AcDbLayout
  1
Model
 70
     1
 71
     0
 10
0.0
 20
0.0
 11
12.0
 21
9.0
 12
0.0
 22
0.0
 32
0.0
 14
0.0
 24
0.0
 34
0.0
 15
0.0
 25
0.0
 35
0.0
146
0.0
 13
0.0
 23
0.0
 33
0.0
 16
1.0
 26
0.0
 36
0.0
 17
0.0
 27
1.0
 37
0.0
 76
     0
330
A
  0
MLINESTYLE
  5
1C
102
{ACAD_REACTORS
330
1B
102
}
330
1B
100
AcDbMlineStyle
  2
STANDARD
 70
     0
  3

 62
     0
 51
90.0
 52
90.0
 71
     2
 49
0.5
 62
   256
  6
BYLAYER
 49
-0.5
 62
   256
  6
BYLAYER
  0
ACDBPLACEHOLDER
  5
230
102
{ACAD_REACTORS
330
22F
102
}
330
22F
  0
XRECORD
  5
24E
102
{ACAD_REACTORS
330
24C
102
}
330
24C
100
AcDbXrecord
280
     1
340
232
  0
XRECORD
  5
24D
102
{ACAD_REACTORS
330
24C
102
}
330
24C
100
AcDbXrecord
280
     1
340
231
  0
DICTIONARYVAR
  5
246
102
{ACAD_REACTORS
330
245
102
}
330
245
100
DictionaryVariables
280
     0
  1
1
  0
DICTIONARYVAR
  5
247
102
{ACAD_REACTORS
330
245
102
}
330
245
100
DictionaryVariables
280
     0
  1

  0
XRECORD
  5
23C
102
{ACAD_REACTORS
330
23A
102
}
330
23A
100
AcDbXrecord
280
     1
  0
DICTIONARY
  5
251
330
236
100
AcDbDictionary
280
     1
281
     1
  3
ACAD_XREC_ROUNDTRIP
360
252
  0
DICTIONARY
  5
24F
330
235
100
AcDbDictionary
280
     1
281
     1
  3
ACAD_XREC_ROUNDTRIP
360
250
  0
XRECORD
  5
252
102
{ACAD_REACTORS
330
251
102
}
330
251
100
AcDbXrecord
280
     1
102
SHADEPLOT
 70
     0
102
SHADEPLOTRESLEVEL
 70
     2
102
SHADEPLOTCUSTOMDPI
 70
   300
  0
XRECORD
  5
250
102
{ACAD_REACTORS
330
24F
102
}
330
24F
100
AcDbXrecord
280
     1
102
SHADEPLOT
 70
     0
102
SHADEPLOTRESLEVEL
 70
     2
102
SHADEPLOTCUSTOMDPI
 70
   300
  0
ENDSEC
  0
EOF
