  0
SECTION
  2
HEADER
  9
$ACADVER
  1
AC1015
  9
$ACADMAINTVER
 70
    20
  9
$DWGCODEPAGE
  3
ANSI_1252
  9
$INSBASE
 10
0.0
 20
0.0
 30
0.0
  9
$EXTMIN
 10
-45.87767611175067
 20
-1017.564425512249
 30
0.0
  9
$EXTMAX
 10
1025.026834998892
 20
514.7421514880399
 30
0.0
  9
$LIMMIN
 10
0.0
 20
0.0
  9
$LIMMAX
 10
0.0
 20
0.0
  9
$ORTHOMODE
 70
     0
  9
$REGENMODE
 70
     1
  9
$FILLMODE
 70
     1
  9
$QTEXTMODE
 70
     0
  9
$MIRRTEXT
 70
     1
  9
$LTSCALE
 40
1.0
  9
$ATTMODE
 70
     1
  9
$TEXTSIZE
 40
0.0
  9
$TRACEWID
 40
0.05
  9
$TEXTSTYLE
  7
STANDARD
  9
$CLAYER
  8
0
  9
$CELTYPE
  6
CONTINUOUS
  9
$CECOLOR
 62
   256
  9
$CELTSCALE
 40
1.0
  9
$DISPSILH
 70
     0
  9
$DIMSCALE
 40
1.0
  9
$DIMASZ
 40
6.0
  9
$DIMEXO
 40
1.0
  9
$DIMDLI
 40
0.38
  9
$DIMRND
 40
0.0
  9
$DIMDLE
 40
1.0
  9
$DIMEXE
 40
0.18
  9
$DIMTP
 40
0.0
  9
$DIMTM
 40
0.0
  9
$DIMTXT
 40
3.5
  9
$DIMCEN
 40
0.09
  9
$DIMTSZ
 40
0.0
  9
$DIMTOL
 70
     0
  9
$DIMLIM
 70
     0
  9
$DIMTIH
 70
     1
  9
$DIMTOH
 70
     1
  9
$DIMSE1
 70
     0
  9
$DIMSE2
 70
     0
  9
$DIMTAD
 70
     1
  9
$DIMZIN
 70
     0
  9
$DIMBLK
  1

  9
$DIMASO
 70
     1
  9
$DIMSHO
 70
     1
  9
$DIMPOST
  1

  9
$DIMAPOST
  1

  9
$DIMALT
 70
     0
  9
$DIMALTD
 70
     2
  9
$DIMALTF
 40
0.0394
  9
$DIMLFAC
 40
10.0
  9
$DIMTOFL
 70
     0
  9
$DIMTVP
 40
0.0
  9
$DIMTIX
 70
     0
  9
$DIMSOXD
 70
     0
  9
$DIMSAH
 70
     0
  9
$DIMBLK1
  1

  9
$DIMBLK2
  1

  9
$DIMSTYLE
  2
STANDARD
  9
$DIMCLRD
 70
     0
  9
$DIMCLRE
 70
     0
  9
$DIMCLRT
 70
     0
  9
$DIMTFAC
 40
1.0
  9
$DIMGAP
 40
1.0
  9
$DIMJUST
 70
     0
  9
$DIMSD1
 70
     0
  9
$DIMSD2
 70
     0
  9
$DIMTOLJ
 70
     1
  9
$DIMTZIN
 70
     0
  9
$DIMALTZ
 70
     0
  9
$DIMALTTZ
 70
     0
  9
$DIMUPT
 70
     0
  9
$DIMDEC
 70
     4
  9
$DIMTDEC
 70
     4
  9
$DIMALTU
 70
     2
  9
$DIMALTTD
 70
     2
  9
$DIMTXSTY
  7
STANDARD
  9
$DIMAUNIT
 70
     0
  9
$DIMADEC
 70
     0
  9
$DIMALTRND
 40
0.0
  9
$DIMAZIN
 70
     0
  9
$DIMDSEP
 70
    46
  9
$DIMATFIT
 70
     3
  9
$DIMFRAC
 70
     0
  9
$DIMLDRBLK
  1

  9
$DIMLUNIT
 70
     2
  9
$DIMLWD
 70
    -2
  9
$DIMLWE
 70
    -2
  9
$DIMTMOVE
 70
     0
  9
$LUNITS
 70
     2
  9
$LUPREC
 70
     2
  9
$SKETCHINC
 40
0.1
  9
$FILLETRAD
 40
0.0
  9
$AUNITS
 70
     0
  9
$AUPREC
 70
     2
  9
$MENU
  1
acad
  9
$ELEVATION
 40
0.0
  9
$PELEVATION
 40
0.0
  9
$THICKNESS
 40
0.0
  9
$LIMCHECK
 70
     0
  9
$CHAMFERA
 40
0.0
  9
$CHAMFERB
 40
0.0
  9
$CHAMFERC
 40
0.0
  9
$CHAMFERD
 40
0.0
  9
$SKPOLY
 70
     0
  9
$TDCREATE
 40
2444972.083333333
  9
$TDUCREATE
 40
2444972.000000000
  9
$TDUPDATE
 40
2455020.676538727
  9
$TDUUPDATE
 40
2455020.593205393
  9
$TDINDWG
 40
0.0003569792
  9
$TDUSRTIMER
 40
0.0003569792
  9
$USRTIMER
 70
     1
  9
$ANGBASE
 50
0.0
  9
$ANGDIR
 70
     0
  9
$PDMODE
 70
     0
  9
$PDSIZE
 40
-1.0
  9
$PLINEWID
 40
0.0
  9
$SPLFRAME
 70
     0
  9
$SPLINETYPE
 70
     6
  9
$SPLINESEGS
 70
     8
  9
$HANDSEED
  5
5BA
  9
$SURFTAB1
 70
     6
  9
$SURFTAB2
 70
     6
  9
$SURFTYPE
 70
     6
  9
$SURFU
 70
     6
  9
$SURFV
 70
     6
  9
$UCSBASE
  2

  9
$UCSNAME
  2

  9
$UCSORG
 10
0.0
 20
0.0
 30
0.0
  9
$UCSXDIR
 10
1.0
 20
0.0
 30
0.0
  9
$UCSYDIR
 10
0.0
 20
1.0
 30
0.0
  9
$UCSORTHOREF
  2

  9
$UCSORTHOVIEW
 70
     1
  9
$UCSORGTOP
 10
0.0
 20
0.0
 30
0.0
  9
$UCSORGBOTTOM
 10
0.0
 20
0.0
 30
0.0
  9
$UCSORGLEFT
 10
0.0
 20
0.0
 30
0.0
  9
$UCSORGRIGHT
 10
0.0
 20
0.0
 30
0.0
  9
$UCSORGFRONT
 10
0.0
 20
0.0
 30
0.0
  9
$UCSORGBACK
 10
0.0
 20
0.0
 30
0.0
  9
$PUCSBASE
  2

  9
$PUCSNAME
  2

  9
$PUCSORG
 10
0.0
 20
0.0
 30
0.0
  9
$PUCSXDIR
 10
1.0
 20
0.0
 30
0.0
  9
$PUCSYDIR
 10
0.0
 20
1.0
 30
0.0
  9
$PUCSORTHOREF
  2

  9
$PUCSORTHOVIEW
 70
     0
  9
$PUCSORGTOP
 10
0.0
 20
0.0
 30
0.0
  9
$PUCSORGBOTTOM
 10
0.0
 20
0.0
 30
0.0
  9
$PUCSORGLEFT
 10
0.0
 20
0.0
 30
0.0
  9
$PUCSORGRIGHT
 10
0.0
 20
0.0
 30
0.0
  9
$PUCSORGFRONT
 10
0.0
 20
0.0
 30
0.0
  9
$PUCSORGBACK
 10
0.0
 20
0.0
 30
0.0
  9
$USERI1
 70
     0
  9
$USERI2
 70
     0
  9
$USERI3
 70
     0
  9
$USERI4
 70
     0
  9
$USERI5
 70
     0
  9
$USERR1
 40
0.0
  9
$USERR2
 40
0.0
  9
$USERR3
 40
0.0
  9
$USERR4
 40
0.0
  9
$USERR5
 40
0.0
  9
$WORLDVIEW
 70
     1
  9
$SHADEDGE
 70
     3
  9
$SHADEDIF
 70
    70
  9
$TILEMODE
 70
     1
  9
$MAXACTVP
 70
    16
  9
$PINSBASE
 10
0.0
 20
0.0
 30
0.0
  9
$PLIMCHECK
 70
     0
  9
$PEXTMIN
 10
1.000000000000000E+20
 20
1.000000000000000E+20
 30
1.000000000000000E+20
  9
$PEXTMAX
 10
-1.000000000000000E+20
 20
-1.000000000000000E+20
 30
-1.000000000000000E+20
  9
$PLIMMIN
 10
0.0
 20
0.0
  9
$PLIMMAX
 10
12.0
 20
9.0
  9
$UNITMODE
 70
     0
  9
$VISRETAIN
 70
     0
  9
$PLINEGEN
 70
     1
  9
$PSLTSCALE
 70
     1
  9
$TREEDEPTH
 70
  3020
  9
$CMLSTYLE
  2
STANDARD
  9
$CMLJUST
 70
     0
  9
$CMLSCALE
 40
1.0
  9
$PROXYGRAPHICS
 70
     0
  9
$MEASUREMENT
 70
     0
  9
$CELWEIGHT
370
    -1
  9
$ENDCAPS
280
     0
  9
$JOINSTYLE
280
     0
  9
$LWDISPLAY
290
     0
  9
$INSUNITS
 70
     0
  9
$HYPERLINKBASE
  1

  9
$STYLESHEET
  1

  9
$XEDIT
290
     1
  9
$CEPSNTYPE
380
     0
  9
$PSTYLEMODE
290
     1
  9
$FINGERPRINTGUID
  2
{9F4AC996-471F-44A6-A0D5-3544853F6A48}
  9
$VERSIONGUID
  2
{47EB0317-20C0-4DD7-8FEA-E00EB53ED850}
  9
$EXTNAMES
290
     1
  9
$PSVPSCALE
 40
0.0
  9
$OLESTARTUP
290
     0
  0
ENDSEC
  0
SECTION
  2
CLASSES
  0
CLASS
  1
IMAGE
  2
AcDbRasterImage
  3
ISM
 90
    32895
280
     0
281
     1
  0
CLASS
  1
DICTIONARYVAR
  2
AcDbDictionaryVar
  3
ObjectDBX Classes
 90
        0
280
     0
281
     0
  0
CLASS
  1
RASTERVARIABLES
  2
AcDbRasterVariables
  3
ISM
 90
    32768
280
     0
281
     0
  0
CLASS
  1
IMAGEDEF
  2
AcDbRasterImageDef
  3
ISM
 90
    32768
280
     0
281
     0
  0
CLASS
  1
IMAGEDEF_REACTOR
  2
AcDbRasterImageDefReactor
  3
ISM
 90
    32769
280
     0
281
     0
  0
CLASS
  1
IDBUFFER
  2
AcDbIdBuffer
  3
ObjectDBX Classes
 90
    32768
280
     0
281
     0
  0
CLASS
  1
SPATIAL_FILTER
  2
AcDbSpatialFilter
  3
ObjectDBX Classes
 90
    32768
280
     0
281
     0
  0
CLASS
  1
SORTENTSTABLE
  2
AcDbSortentsTable
  3
ObjectDBX Classes
 90
    32768
280
     0
281
     0
  0
CLASS
  1
LAYER_INDEX
  2
AcDbLayerIndex
  3
ObjectDBX Classes
 90
    32768
280
     0
281
     0
  0
CLASS
  1
SPATIAL_INDEX
  2
AcDbSpatialIndex
  3
ObjectDBX Classes
 90
    32768
280
     0
281
     0
  0
CLASS
  1
OBJECT_PTR
  2
CAseDLPNTableRecord
  3
ASE-LPNTableRecord
 90
    32769
280
     0
281
     0
  0
CLASS
  1
LAYOUT
  2
AcDbLayout
  3
ObjectDBX Classes
 90
        0
280
     0
281
     0
  0
CLASS
  1
PLOTSETTINGS
  2
AcDbPlotSettings
  3
ObjectDBX Classes
 90
    32768
280
     0
281
     0
  0
CLASS
  1
ACDBDICTIONARYWDFLT
  2
AcDbDictionaryWithDefault
  3
ObjectDBX Classes
 90
        0
280
     0
281
     0
  0
CLASS
  1
ACDBPLACEHOLDER
  2
AcDbPlaceHolder
  3
ObjectDBX Classes
 90
        0
280
     0
281
     0
  0
CLASS
  1
VBA_PROJECT
  2
AcDbVbaProject
  3
acad
 90
    32768
280
     0
281
     0
  0
CLASS
  1
WIPEOUT
  2
AcDbWipeout
  3
"WipeOut|Product Desc: Object Enabler for WipeOut entity^I^I^I^I^I^I|Company: Autodesk, Inc.^I^I^I^I^I^I|WEB Address: www.autodesk.com"
 90
    32895
280
     0
281
     1
  0
CLASS
  1
WIPEOUTVARIABLES
  2
AcDbWipeoutVariables
  3
"WipeOut|Product Desc:     WipeOut Dbx Application|Company:          Autodesk, Inc.|WEB Address:      www.autodesk.com"
 90
    32768
280
     0
281
     0
  0
CLASS
  1
RTEXT
  2
RText
  3
RText|AutoCAD Express Tool|expresstools@autodesk.com
 90
    32768
280
     0
281
     1
  0
CLASS
  1
ARCALIGNEDTEXT
  2
AcDbArcAlignedText
  3
ATEXT|AutoCAD Express Tool|expresstools@autodesk.com
 90
    32768
280
     0
281
     1
  0
CLASS
  1
TABLESTYLE
  2
AcDbTableStyle
  3
ObjectDBX Classes
 90
     2047
280
     0
281
     0
  0
ENDSEC
  0
SECTION
  2
TABLES
  0
TABLE
  2
VPORT
  5
7
330
0
100
AcDbSymbolTable
 70
     2
  0
VPORT
  5
5B4
330
7
100
AcDbSymbolTableRecord
100
AcDbViewportTableRecord
  2
*Active
 70
     0
 10
0.0
 20
0.0
 11
1.0
 21
1.0
 12
712.0070212782684
 22
-164.0948279864449
 13
0.0
 23
0.0
 14
1.0
 24
1.0
 15
0.0
 25
0.0
 16
0.0
 26
0.0
 36
1.0
 17
0.0
 27
0.0
 37
0.0
 40
2462.463751691251
 41
1.728782287822878
 42
50.0
 43
0.0
 44
0.0
 50
0.0
 51
0.0
 71
     0
 72
  2000
 73
     1
 74
     1
 75
     0
 76
     0
 77
     0
 78
     0
281
     0
 65
     1
110
0.0
120
0.0
130
0.0
111
1.0
121
0.0
131
0.0
112
0.0
122
1.0
132
0.0
 79
     1
146
0.0
  0
ENDTAB
  0
TABLE
  2
LTYPE
  5
4
330
0
100
AcDbSymbolTable
 70
     6
  0
LTYPE
  5
11
330
4
100
AcDbSymbolTableRecord
100
AcDbLinetypeTableRecord
  2
BYBLOCK
 70
     0
  3

 72
    65
 73
     0
 40
0.0
  0
LTYPE
  5
12
330
4
100
AcDbSymbolTableRecord
100
AcDbLinetypeTableRecord
  2
BYLAYER
 70
     0
  3

 72
    65
 73
     0
 40
0.0
  0
LTYPE
  5
13
330
4
100
AcDbSymbolTableRecord
100
AcDbLinetypeTableRecord
  2
CONTINUOUS
 70
     0
  3
Solid line
 72
    65
 73
     0
 40
0.0
  0
LTYPE
  5
1E
330
4
100
AcDbSymbolTableRecord
100
AcDbLinetypeTableRecord
  2
HIDDEN
 70
     0
  3
Hidden __ __ __ __ __ __ __ __ __ __ __ __ __ __
 72
    65
 73
     2
 40
1.905
 49
1.27
 74
     0
 49
-0.635
 74
     0
  0
LTYPE
  5
1F
330
4
100
AcDbSymbolTableRecord
100
AcDbLinetypeTableRecord
  2
PHANTOM
 70
     0
  3
Phantom ______  __  __  ______  __  __  ______
 72
    65
 73
     6
 40
12.7
 49
6.349999999999999
 74
     0
 49
-1.27
 74
     0
 49
1.27
 74
     0
 49
-1.27
 74
     0
 49
1.27
 74
     0
 49
-1.27
 74
     0
  0
LTYPE
  5
20
330
4
100
AcDbSymbolTableRecord
100
AcDbLinetypeTableRecord
  2
CENTER
 70
     0
  3
Center ____ _ ____ _ ____ _ ____ _ ____ _ ____
 72
    65
 73
     4
 40
10.16
 49
6.349999999999999
 74
     0
 49
-1.27
 74
     0
 49
1.27
 74
     0
 49
-1.27
 74
     0
  0
LTYPE
  5
21
330
4
100
AcDbSymbolTableRecord
100
AcDbLinetypeTableRecord
  2
CENTERX2
 70
     0
  3
Center (2x) ________  __  ________  __  _____
 72
    65
 73
     4
 40
20.32
 49
12.7
 74
     0
 49
-2.54
 74
     0
 49
2.54
 74
     0
 49
-2.54
 74
     0
  0
LTYPE
  5
22
330
4
100
AcDbSymbolTableRecord
100
AcDbLinetypeTableRecord
  2
DOT2
 70
     0
  3
Dot (.5x) ........................................
 72
    65
 73
     2
 40
0.635
 49
0.0
 74
     0
 49
-0.635
 74
     0
  0
ENDTAB
  0
TABLE
  2
LAYER
  5
2
330
0
100
AcDbSymbolTable
 70
     2
  0
LAYER
  5
14
330
2
100
AcDbSymbolTableRecord
100
AcDbLayerTableRecord
  2
0
 70
     0
 62
     7
  6
CONTINUOUS
370
    -3
390
596
  0
LAYER
  5
26
330
2
100
AcDbSymbolTableRecord
100
AcDbLayerTableRecord
  2
DEFPOINTS
 70
     0
 62
     7
  6
CONTINUOUS
290
     0
370
    -3
390
596
  0
ENDTAB
  0
TABLE
  2
STYLE
  5
3
330
0
100
AcDbSymbolTable
 70
     1
  0
STYLE
  5
17
330
3
100
AcDbSymbolTableRecord
100
AcDbTextStyleTableRecord
  2
STANDARD
 70
     0
 40
0.0
 41
1.0
 50
0.0
 71
     0
 42
0.0
  3
Century Gothic
  4

  0
ENDTAB
  0
TABLE
  2
VIEW
  5
5
330
0
100
AcDbSymbolTable
 70
     0
  0
ENDTAB
  0
TABLE
  2
UCS
  5
6
330
0
100
AcDbSymbolTable
 70
     0
  0
ENDTAB
  0
TABLE
  2
APPID
  5
8
330
0
100
AcDbSymbolTable
 70
     2
  0
APPID
  5
16
330
8
100
AcDbSymbolTableRecord
100
AcDbRegAppTableRecord
  2
ACAD
 70
     0
  0
APPID
  5
5A1
330
8
100
AcDbSymbolTableRecord
100
AcDbRegAppTableRecord
  2
DCO15
 70
     0
  0
ENDTAB
  0
TABLE
  2
DIMSTYLE
  5
9
330
0
100
AcDbSymbolTable
 70
     1
100
AcDbDimStyleTable
 71
     0
  0
DIMSTYLE
105
18
330
9
100
AcDbSymbolTableRecord
100
AcDbDimStyleTableRecord
  2
STANDARD
 70
     0
289
     0
340
17
  0
ENDTAB
  0
TABLE
  2
BLOCK_RECORD
  5
1
330
0
100
AcDbSymbolTable
 70
     0
  0
BLOCK_RECORD
  5
A
330
1
100
AcDbSymbolTableRecord
100
AcDbBlockTableRecord
  2
*MODEL_SPACE
340
59B
  0
BLOCK_RECORD
  5
B
330
1
100
AcDbSymbolTableRecord
100
AcDbBlockTableRecord
  2
*PAPER_SPACE
340
59C
  0
ENDTAB
  0
ENDSEC
  0
SECTION
  2
BLOCKS
  0
BLOCK
  5
D
330
A
100
AcDbEntity
  8
0
100
AcDbBlockBegin
  2
*MODEL_SPACE
 70
     0
 10
0.0
 20
0.0
 30
0.0
  3
*MODEL_SPACE
  1

  0
ENDBLK
  5
E
330
A
100
AcDbEntity
  8
0
100
AcDbBlockEnd
  0
BLOCK
  5
F
330
B
100
AcDbEntity
 67
     1
  8
0
100
AcDbBlockBegin
  2
*PAPER_SPACE
 70
     0
 10
0.0
 20
0.0
 30
0.0
  3
*PAPER_SPACE
  1

  0
ENDBLK
  5
10
330
B
100
AcDbEntity
 67
     1
  8
0
100
AcDbBlockEnd
  0
ENDSEC
  0
SECTION
  2
ENTITIES
  0
ARC
  5
27
330
A
100
AcDbEntity
  8
0
  6
Continuous
 62
     7
100
AcDbCircle
 10
69.85000000000204
 20
502.5352633363161
 30
0.0
 40
9.999999999999953
100
AcDbArc
 50
0.0
 51
182.4855969179937
  0
LINE
  5
28
330
A
100
AcDbEntity
  8
0
  6
Continuous
 62
     7
100
AcDbLine
 10
59.85934464698241
 20
502.103053173064
 30
0.0
 11
64.4666257404472
 21
395.6266019356938
 31
0.0
  0
LINE
  5
29
330
A
100
AcDbEntity
  8
0
  6
Continuous
 62
     7
100
AcDbLine
 10
75.23453418403398
 20
395.653408340493
 30
0.0
 11
79.84065611427124
 21
502.1030707659029
 31
0.0
  0
LINE
  5
2A
330
A
100
AcDbEntity
  8
0
  6
Continuous
 62
     7
100
AcDbLine
 10
94.8423767711321
 20
257.5647366636839
 30
0.0
 11
92.35000000000106
 21
298.3147366636838
 31
0.0
  0
LINE
  5
2B
330
A
100
AcDbEntity
  8
0
  6
Continuous
 62
     7
100
AcDbLine
 10
47.35000000000247
 20
298.3147366636838
 30
0.0
 11
44.85762322887146
 21
257.5647366636839
 31
0.0
  0
LINE
  5
2C
330
A
100
AcDbEntity
  8
0
  6
Continuous
 62
     7
100
AcDbLine
 10
92.35000000000106
 20
298.3147366636838
 30
0.0
 11
84.84874600638127
 21
305.8159906573042
 31
0.0
  0
LINE
  5
2D
330
A
100
AcDbEntity
  8
0
  6
Continuous
 62
     7
100
AcDbLine
 10
54.85125399362229
 20
305.8159906573042
 30
0.0
 11
47.35000000000247
 21
298.3147366636838
 31
0.0
  0
LINE
  5
2E
330
A
100
AcDbEntity
  8
0
  6
Continuous
 62
     7
100
AcDbLine
 10
84.84844911552974
 20
367.3147366636838
 30
0.0
 11
89.85152563300857
 21
367.3147366636838
 31
0.0
  0
LINE
  5
2F
330
A
100
AcDbEntity
  8
0
  6
Continuous
 62
     7
100
AcDbLine
 10
89.85152563300857
 20
411.3147366636838
 30
0.0
 11
84.84844911552974
 21
411.3147366636838
 31
0.0
  0
LINE
  5
30
330
A
100
AcDbEntity
  8
0
  6
Continuous
 62
     7
100
AcDbLine
 10
64.27035741150229
 20
378.6376584116367
 30
0.0
 11
66.35000000000097
 21
325.8147366636917
 31
0.0
  0
LINE
  5
31
330
A
100
AcDbEntity
  8
0
  6
Continuous
 62
     7
100
AcDbLine
 10
73.35000000000071
 20
325.8147366636917
 30
0.0
 11
75.42964258850195
 21
378.6376584116542
 31
0.0
  0
LINE
  5
32
330
A
100
AcDbEntity
  8
0
  6
Continuous
 62
     7
100
AcDbLine
 10
59.85000000000177
 20
376.8147366636839
 30
0.0
 11
64.34212598425623
 21
376.8147366636839
 31
0.0
  0
LINE
  5
33
330
A
100
AcDbEntity
  8
0
  6
Continuous
 62
     7
100
AcDbLine
 10
75.35787401574733
 20
376.8147366636839
 30
0.0
 11
79.85000000000177
 21
376.8147366636839
 31
0.0
  0
LINE
  5
34
330
A
100
AcDbEntity
  8
0
  6
Continuous
 62
     7
100
AcDbLine
 10
79.85000000000177
 20
401.8147366636838
 30
0.0
 11
75.50113746733444
 21
401.8147366636838
 31
0.0
  0
LINE
  5
35
330
A
100
AcDbEntity
  8
0
  6
Continuous
 62
     7
100
AcDbLine
 10
64.1988625326697
 20
401.8147366636838
 30
0.0
 11
59.85000000000177
 21
401.8147366636838
 31
0.0
  0
ARC
  5
36
330
A
100
AcDbEntity
  8
0
  6
Continuous
 62
     7
100
AcDbCircle
 10
64.85000000000166
 20
307.3147366636837
 30
0.0
 40
1.500000000000014
100
AcDbArc
 50
270.0000000000008
 51
0.0
  0
ARC
  5
37
330
A
100
AcDbEntity
  8
0
  6
Continuous
 62
     7
100
AcDbCircle
 10
74.85000000000188
 20
307.3147366636837
 30
0.0
 40
1.500000000000014
100
AcDbArc
 50
180.0000000000004
 51
270.0000000000008
  0
LINE
  5
38
330
A
100
AcDbEntity
  8
0
  6
Continuous
 62
     7
100
AcDbLine
 10
66.35000000000097
 20
325.8147366636917
 30
0.0
 11
66.35000000000167
 21
307.3147366636837
 31
0.0
  0
LINE
  5
39
330
A
100
AcDbEntity
  8
0
  6
Continuous
 62
     7
100
AcDbLine
 10
73.35000000000182
 20
307.3147366636837
 30
0.0
 11
73.35000000000071
 21
325.8147366636917
 31
0.0
  0
LINE
  5
3A
330
A
100
AcDbEntity
  8
0
  6
Continuous
 62
     7
100
AcDbLine
 10
79.85000000000013
 20
384.314736663684
 30
0.0
 11
84.85346561710363
 21
384.314736663684
 31
0.0
  0
LINE
  5
3B
330
A
100
AcDbEntity
  8
0
  6
Continuous
 62
     7
100
AcDbLine
 10
84.85346561710363
 20
394.3147366636838
 30
0.0
 11
79.85000000000013
 21
394.3147366636838
 31
0.0
  0
LINE
  5
3C
330
A
100
AcDbEntity
  8
0
  6
Continuous
 62
     7
100
AcDbLine
 10
-20.15000000000007
 20
122.5647366636838
 30
0.0
 11
-19.17886572009038
 21
122.3262032061052
 31
0.0
  0
LINE
  5
3D
330
A
100
AcDbEntity
  8
0
  6
Continuous
 62
     7
100
AcDbLine
 10
158.8788657200903
 20
122.3262032061052
 30
0.0
 11
159.85
 21
122.5647366636838
 31
0.0
  0
LINE
  5
3E
330
A
100
AcDbEntity
  8
0
  6
Continuous
 62
     7
100
AcDbLine
 10
159.85
 20
122.5647366636838
 30
0.0
 11
126.6908196072485
 21
257.5647366636839
 31
0.0
  0
LINE
  5
3F
330
A
100
AcDbEntity
  8
0
  6
Continuous
 62
     7
100
AcDbLine
 10
13.00918039275147
 20
257.5647366636839
 30
0.0
 11
-20.15000000000007
 21
122.5647366636838
 31
0.0
  0
LINE
  5
40
330
A
100
AcDbEntity
  8
0
  6
Continuous
 62
     7
100
AcDbLine
 10
75.14133858267676
 20
371.3147366636838
 30
0.0
 11
79.85000000000008
 21
371.3147366636838
 31
0.0
  0
LINE
  5
41
330
A
100
AcDbEntity
  8
0
  6
Continuous
 62
     7
100
AcDbLine
 10
79.85000000000008
 20
407.3147366636838
 30
0.0
 11
75.73912479429338
 21
407.3147366636838
 31
0.0
  0
LINE
  5
42
330
A
100
AcDbEntity
  8
0
  6
Continuous
 62
     7
100
AcDbLine
 10
78.84999999999998
 20
-107.6852633363162
 30
0.0
 11
83.84999999999998
 21
-107.6852633363162
 31
0.0
  0
LINE
  5
43
330
A
100
AcDbEntity
  8
0
  6
Continuous
 62
     7
100
AcDbLine
 10
83.84999999999998
 20
-71.6852633363162
 30
0.0
 11
78.84999999999998
 21
-71.6852633363162
 31
0.0
  0
LINE
  5
44
330
A
100
AcDbEntity
  8
0
  6
Continuous
 62
     7
100
AcDbLine
 10
75.39
 20
-100.7652633363162
 30
0.0
 11
75.84999999999997
 21
-100.7652633363162
 31
0.0
  0
LINE
  5
45
330
A
100
AcDbEntity
  8
0
  6
Continuous
 62
     7
100
AcDbLine
 10
63.84999999999998
 20
-100.7652633363162
 30
0.0
 11
64.30999999999999
 21
-100.7652633363162
 31
0.0
  0
LINE
  5
46
330
A
100
AcDbEntity
  8
0
  6
Continuous
 62
     7
100
AcDbLine
 10
64.51868340852612
 20
-78.6052633363162
 30
0.0
 11
63.84999999999998
 21
-78.6052633363162
 31
0.0
  0
LINE
  5
47
330
A
100
AcDbEntity
  8
0
  6
Continuous
 62
     7
100
AcDbLine
 10
75.84999999999997
 20
-78.6052633363162
 30
0.0
 11
75.20465899093757
 21
-78.6052633363162
 31
0.0
  0
LINE
  5
48
330
A
100
AcDbEntity
  8
0
  6
Continuous
 62
     7
100
AcDbLine
 10
75.39
 20
-134.6852633363162
 30
0.0
 11
75.39
 21
-99.2808248102478
 31
0.0
  0
LINE
  5
49
330
A
100
AcDbEntity
  8
0
  6
Continuous
 62
     7
100
AcDbLine
 10
64.30999999999999
 20
-99.2808248102478
 30
0.0
 11
64.30999999999999
 21
-134.6852633363162
 31
0.0
  0
LINE
  5
4A
330
A
100
AcDbEntity
  8
0
  6
Continuous
 62
     7
100
AcDbLine
 10
75.84999999999997
 20
-95.68526333631622
 30
0.0
 11
78.84999999999998
 21
-95.68526333631622
 31
0.0
  0
LINE
  5
4B
330
A
100
AcDbEntity
  8
0
  6
Continuous
 62
     7
100
AcDbLine
 10
78.84999999999998
 20
-83.68526333631621
 30
0.0
 11
75.84999999999997
 21
-83.68526333631621
 31
0.0
  0
LINE
  5
4C
330
A
100
AcDbEntity
  8
0
  6
Continuous
 62
     7
100
AcDbLine
 10
64.44999999999997
 20
-45.68526333631617
 30
0.0
 11
64.44999999999997
 21
-78.63856261304642
 31
0.0
  0
LINE
  5
4D
330
A
100
AcDbEntity
  8
0
  6
Continuous
 62
     7
100
AcDbLine
 10
75.24999999999997
 20
-78.62691933174115
 30
0.0
 11
75.24999999999997
 21
-45.68526333631617
 31
0.0
  0
LINE
  5
4E
330
A
100
AcDbEntity
  8
0
  6
Continuous
 62
     7
100
AcDbLine
 10
76.84999999999998
 20
-45.68526333631617
 30
0.0
 11
76.84999999999998
 21
122.3262032061052
 31
0.0
  0
LINE
  5
4F
330
A
100
AcDbEntity
  8
0
  6
Continuous
 62
     7
100
AcDbLine
 10
76.84999999999998
 20
305.8147366636838
 30
0.0
 11
76.84999999999998
 21
344.3147366636838
 31
0.0
  0
LINE
  5
50
330
A
100
AcDbEntity
  8
0
  6
Continuous
 62
     7
100
AcDbLine
 10
62.84999999999997
 20
344.3147366636838
 30
0.0
 11
62.84999999999997
 21
305.8147366636837
 31
0.0
  0
LINE
  5
51
330
A
100
AcDbEntity
  8
0
  6
Continuous
 62
     7
100
AcDbLine
 10
62.84999999999997
 20
122.3262032061052
 30
0.0
 11
62.84999999999997
 21
-45.68526333631617
 31
0.0
  0
LINE
  5
52
330
A
100
AcDbEntity
  8
0
  6
Continuous
 62
     7
100
AcDbLine
 10
64.84999999999996
 20
348.8147366636838
 30
0.0
 11
65.34999999999995
 21
348.8147366636838
 31
0.0
  0
LINE
  5
53
330
A
100
AcDbEntity
  8
0
  6
Continuous
 62
     7
100
AcDbLine
 10
65.05078740157802
 20
358.8147366636838
 30
0.0
 11
64.84999999999996
 21
358.8147366636838
 31
0.0
  0
LINE
  5
54
330
A
100
AcDbEntity
  8
0
  6
Continuous
 62
     7
100
AcDbLine
 10
74.34999999999994
 20
348.8147366636838
 30
0.0
 11
74.84999999999995
 21
348.8147366636838
 31
0.0
  0
LINE
  5
55
330
A
100
AcDbEntity
  8
0
  6
Continuous
 62
     7
100
AcDbLine
 10
74.84999999999995
 20
358.8147366636838
 30
0.0
 11
74.64921259842552
 21
358.8147366636838
 31
0.0
  0
LINE
  5
56
330
A
100
AcDbEntity
  8
0
  6
Continuous
 62
     7
100
AcDbLine
 10
64.30999999999986
 20
-55.44083698046293
 30
0.0
 11
64.30999999999993
 21
-78.6052633363162
 31
0.0
  0
LINE
  5
57
330
A
100
AcDbEntity
  8
0
  6
Continuous
 62
     7
100
AcDbLine
 10
64.30999999999982
 20
-46.60200221563101
 30
0.0
 11
64.30999999999984
 21
-50.84464290275025
 31
0.0
  0
LINE
  5
58
330
A
100
AcDbEntity
  8
0
  6
Continuous
 62
     7
100
AcDbLine
 10
75.38999999999984
 20
-50.84464290275032
 30
0.0
 11
75.38999999999984
 21
-46.60200221563093
 31
0.0
  0
LINE
  5
59
330
A
100
AcDbEntity
  8
0
  6
Continuous
 62
     7
100
AcDbLine
 10
75.38999999999994
 20
-78.6052633363162
 30
0.0
 11
75.38999999999986
 21
-55.44083698046287
 31
0.0
  0
LWPOLYLINE
  5
5A
330
A
100
AcDbEntity
  8
0
  6
Continuous
 62
     7
100
AcDbPolyline
 90
        3
 70
   128
 43
0.0
 10
75.35328593470758
 20
-46.5543450960999
 10
75.30961287015607
 20
-45.82664269724779
 10
75.25888184452802
 20
-45.68526333631617
  0
LINE
  5
5F
330
A
100
AcDbEntity
  8
0
  6
Continuous
 62
     7
100
AcDbLine
 10
64.44937588064933
 20
-45.68526333631617
 30
0.0
 11
64.3101450019178
 21
-46.60784187192478
 31
0.0
  0
ARC
  5
60
330
A
100
AcDbEntity
  8
0
  6
Continuous
 62
     7
100
AcDbCircle
 10
-44.15
 20
-185.1852633363162
 30
0.0
 40
1.000000000000007
100
AcDbArc
 50
180.0000000000004
 51
270.0000000000008
  0
ARC
  5
61
330
A
100
AcDbEntity
  8
0
  6
Continuous
 62
     7
100
AcDbCircle
 10
183.85
 20
-185.1852633363162
 30
0.0
 40
1.0
100
AcDbArc
 50
270.0000000000008
 51
0.0
  0
ARC
  5
62
330
A
100
AcDbEntity
  8
0
  6
Continuous
 62
     7
100
AcDbCircle
 10
-43.65000000000001
 20
-176.1852633363162
 30
0.0
 40
1.500000000000007
100
AcDbArc
 50
90.0
 51
180.0000000000004
  0
ARC
  5
63
330
A
100
AcDbEntity
  8
0
  6
Continuous
 62
     7
100
AcDbCircle
 10
183.35
 20
-176.1852633363162
 30
0.0
 40
1.5
100
AcDbArc
 50
0.0
 51
90.0
  0
LINE
  5
64
330
A
100
AcDbEntity
  8
0
  6
Continuous
 62
     7
100
AcDbLine
 10
184.85
 20
-185.1852633363162
 30
0.0
 11
184.85
 21
-176.1852633363162
 31
0.0
  0
LINE
  5
65
330
A
100
AcDbEntity
  8
0
  6
Continuous
 62
     7
100
AcDbLine
 10
-45.15000000000001
 20
-176.1852633363162
 30
0.0
 11
-45.15000000000001
 21
-185.1852633363162
 31
0.0
  0
LINE
  5
66
330
A
100
AcDbEntity
  8
0
  6
Continuous
 62
     7
100
AcDbLine
 10
108.897597471245
 20
-188.6852633363162
 30
0.0
 11
108.897597471245
 21
-186.1852633363161
 31
0.0
  0
LINE
  5
67
330
A
100
AcDbEntity
  8
0
  6
Continuous
 62
     7
100
AcDbLine
 10
88.89759747124506
 20
-186.1852633363161
 30
0.0
 11
88.89759747124506
 21
-188.6852633363162
 31
0.0
  0
LINE
  5
68
330
A
100
AcDbEntity
  8
0
  6
Continuous
 62
     7
100
AcDbLine
 10
3.802402528754925
 20
-188.6852633363162
 30
0.0
 11
3.802402528754925
 21
-186.1852633363161
 31
0.0
  0
LINE
  5
69
330
A
100
AcDbEntity
  8
0
  6
Continuous
 62
     7
100
AcDbLine
 10
-16.19759747124506
 20
-186.1852633363161
 30
0.0
 11
-16.19759747124506
 21
-188.6852633363162
 31
0.0
  0
LINE
  5
6A
330
A
100
AcDbEntity
  8
0
  6
Continuous
 62
     7
100
AcDbLine
 10
173.85
 20
-188.6852633363162
 30
0.0
 11
173.85
 21
-186.1852633363161
 31
0.0
  0
LINE
  5
6B
330
A
100
AcDbEntity
  8
0
  6
Continuous
 62
     7
100
AcDbLine
 10
153.85
 20
-186.1852633363161
 30
0.0
 11
153.85
 21
-188.6852633363162
 31
0.0
  0
ARC
  5
6C
330
A
100
AcDbEntity
  8
0
  6
Continuous
 62
     7
100
AcDbCircle
 10
48.13881791054893
 20
-172.6852633363162
 30
0.0
 40
2.0
100
AcDbArc
 50
270.0000000000008
 51
351.0999999999999
  0
ARC
  5
6D
330
A
100
AcDbEntity
  8
0
  6
Continuous
 62
     7
100
AcDbCircle
 10
91.56118208945107
 20
-172.6852633363162
 30
0.0
 40
2.000000000000007
100
AcDbArc
 50
188.9000000000017
 51
270.0000000000008
  0
LINE
  5
6E
330
A
100
AcDbEntity
  8
0
  6
Continuous
 62
     7
100
AcDbLine
 10
89.5852623579123
 20
-172.9946841089151
 30
0.0
 11
83.71853598087133
 21
-135.5305529500167
 31
0.0
  0
LINE
  5
6F
330
A
100
AcDbEntity
  8
0
  6
Continuous
 62
     7
100
AcDbLine
 10
55.98146401912866
 20
-135.5305529500167
 30
0.0
 11
50.11473764208769
 21
-172.9946841089151
 31
0.0
  0
ARC
  5
70
330
A
100
AcDbEntity
  8
0
  6
Continuous
 62
     7
100
AcDbCircle
 10
56.96942388489805
 20
-135.6852633363162
 30
0.0
 40
1.000000000000028
100
AcDbArc
 50
90.0
 51
171.0999999999901
  0
ARC
  5
71
330
A
100
AcDbEntity
  8
0
  6
Continuous
 62
     7
100
AcDbCircle
 10
82.73057611510195
 20
-135.6852633363162
 30
0.0
 40
1.000000000000028
100
AcDbArc
 50
8.900000000007281
 51
90.0
  0
LWPOLYLINE
  5
72
330
A
100
AcDbEntity
  8
0
  6
Continuous
 62
     7
100
AcDbPolyline
 90
       10
 70
   128
 43
0.0
 10
69.85000000000207
 20
497.0848996075979
 10
67.44792665190996
 20
497.1737777887205
 10
65.46196267356838
 20
497.508224292749
 10
62.78086051192132
 20
498.4700098832949
 10
61.49452166699639
 20
499.2932598069454
 10
60.57585718904164
 20
500.2244772164679
 10
60.03297720071991
 20
501.2179156672872
 10
59.90014417246335
 20
501.7245465523133
 10
59.86739465484935
 20
501.9781601594516
 10
59.85947596949216
 20
502.1015785292472
  0
LWPOLYLINE
  5
7E
330
A
100
AcDbEntity
  8
0
  6
Continuous
 62
     7
100
AcDbPolyline
 90
       11
 70
   128
 43
0.0
 10
79.82120695598052
 20
502.1035555401549
 10
79.66706532622636
 20
501.2180356339463
 10
79.12425584087833
 20
500.2246282041168
 10
78.20560321847039
 20
499.2933616594613
 10
77.81669637605275
 20
499.0046004334591
 10
77.38753053984161
 20
498.7295655317839
 10
76.91913948808279
 20
498.4700098832949
 10
75.78279640144302
 20
497.9717581224753
 10
74.23830523687382
 20
497.5082867094205
 10
72.25229053813663
 20
497.1738004128075
 10
69.85000000000207
 20
497.0848996075979
  0
LWPOLYLINE
  5
8B
330
A
100
AcDbEntity
  8
0
  6
Continuous
 62
     7
100
AcDbPolyline
 90
        5
 70
   128
 43
0.0
 10
68.43423481665496
 20
389.3147366636849
 10
66.85259415575237
 20
390.5212029750238
 10
65.32194568069754
 20
392.7019295864775
 10
64.5170708734011
 20
395.1145140679463
 10
64.52584910020423
 20
395.6273390236821
  0
LWPOLYLINE
  5
92
330
A
100
AcDbEntity
  8
0
  6
Continuous
 62
     7
100
AcDbPolyline
 90
       10
 70
   128
 43
0.0
 10
75.2257622100081
 20
395.6531416561385
 10
75.2317365126316
 20
395.5973030385633
 10
74.9084257277925
 20
393.9662919531634
 10
74.03006977800609
 20
392.0787657218247
 10
72.38784517201962
 20
390.0791583751134
 10
71.26576518334875
 20
389.3147366636847
 10
70.22727235730801
 20
388.992847385122
 10
69.85000000000194
 20
388.9681566993463
 10
68.78199672617019
 20
389.1656466776433
 10
68.43423481665496
 20
389.3147366636849
  0
LINE
  5
9E
330
A
100
AcDbEntity
  8
0
  6
Continuous
 62
     7
100
AcDbLine
 10
47.35000000000247
 20
298.3147366636838
 30
0.0
 11
92.35000000000106
 21
298.3147366636838
 31
0.0
  0
LINE
  5
9F
330
A
100
AcDbEntity
  8
0
  6
Continuous
 62
     7
100
AcDbLine
 10
54.85000000000187
 20
305.8147366636837
 30
0.0
 11
84.85000000000168
 21
305.8147366636837
 31
0.0
  0
LINE
  5
A0
330
A
100
AcDbEntity
  8
0
  6
Continuous
 62
     7
100
AcDbLine
 10
84.85000000000175
 20
411.3147366636838
 30
0.0
 11
84.85000000000182
 21
389.3147366636839
 31
0.0
  0
LINE
  5
A1
330
A
100
AcDbEntity
  8
0
  6
Continuous
 62
     7
100
AcDbLine
 10
84.85000000000182
 20
389.3147366636839
 30
0.0
 11
84.85000000000175
 21
367.3147366636838
 31
0.0
  0
LINE
  5
A2
330
A
100
AcDbEntity
  8
0
  6
Continuous
 62
     7
100
AcDbLine
 10
89.85000000000175
 20
367.3147366636838
 30
0.0
 11
89.85000000000182
 21
389.3147366636839
 31
0.0
  0
LINE
  5
A3
330
A
100
AcDbEntity
  8
0
  6
Continuous
 62
     7
100
AcDbLine
 10
89.85000000000182
 20
389.3147366636839
 30
0.0
 11
89.85000000000175
 21
411.3147366636838
 31
0.0
  0
LWPOLYLINE
  5
A4
330
A
100
AcDbEntity
  8
0
  6
Continuous
 62
     7
100
AcDbPolyline
 90
       19
 70
   128
 43
0.0
 10
64.27035741148905
 20
378.6376584116328
 10
64.62963947423687
 20
380.28814012536
 10
65.93598401038692
 20
382.8638406517844
 10
67.17368534203183
 20
384.8479200158036
 10
68.55986214862436
 20
386.8855318377143
 10
69.08799174498021
 20
387.6154852995508
 10
69.57682342795969
 20
388.1930475166449
 10
69.67966865903523
 20
388.2738170788783
 10
69.80084454110837
 20
388.3269026381451
 10
69.88386917810813
 20
388.3295776393713
 10
69.9630887285487
 20
388.305554710203
 10
70.09887536720295
 20
388.2144425698026
 10
70.58360323041489
 20
387.6530810532793
 10
72.24236596478262
 20
385.2727115208726
 10
73.50752042044831
 20
383.2945108261955
 10
74.56236839660658
 20
381.414820683425
 10
75.32716360749758
 20
379.490109668419
 10
75.42964258850147
 20
378.6376584116422
 10
75.42964258850481
 20
378.6376584116517
  0
LINE
  5
B9
330
A
100
AcDbEntity
  8
0
  6
Continuous
 62
     7
100
AcDbLine
 10
66.35000000000097
 20
325.8147366636917
 30
0.0
 11
73.35000000000071
 21
325.8147366636917
 31
0.0
  0
LINE
  5
BA
330
A
100
AcDbEntity
  8
0
  6
Continuous
 62
     7
100
AcDbLine
 10
79.85000000000181
 20
389.3147366636839
 30
0.0
 11
79.85000000000177
 21
401.8147366636838
 31
0.0
  0
LINE
  5
BB
330
A
100
AcDbEntity
  8
0
  6
Continuous
 62
     7
100
AcDbLine
 10
79.85000000000177
 20
376.8147366636839
 30
0.0
 11
79.85000000000181
 21
389.3147366636839
 31
0.0
  0
LINE
  5
BC
330
A
100
AcDbEntity
  8
0
  6
Continuous
 62
     7
100
AcDbLine
 10
59.85000000000181
 20
389.3147366636839
 30
0.0
 11
59.85000000000177
 21
376.8147366636839
 31
0.0
  0
LINE
  5
BD
330
A
100
AcDbEntity
  8
0
  6
Continuous
 62
     7
100
AcDbLine
 10
59.85000000000177
 20
401.8147366636838
 30
0.0
 11
59.85000000000181
 21
389.3147366636839
 31
0.0
  0
LINE
  5
BE
330
A
100
AcDbEntity
  8
0
  6
Continuous
 62
     7
100
AcDbLine
 10
69.84999999999999
 20
122.5647366636838
 30
0.0
 11
159.85
 21
122.5647366636838
 31
0.0
  0
LINE
  5
BF
330
A
100
AcDbEntity
  8
0
  6
Continuous
 62
     7
100
AcDbLine
 10
-20.15000000000007
 20
122.5647366636838
 30
0.0
 11
69.84999999999999
 21
122.5647366636838
 31
0.0
  0
LINE
  5
C0
330
A
100
AcDbEntity
  8
0
  6
Continuous
 62
     7
100
AcDbLine
 10
69.84999999999999
 20
122.3262032061052
 30
0.0
 11
158.8788657200903
 21
122.3262032061052
 31
0.0
  0
LINE
  5
C1
330
A
100
AcDbEntity
  8
0
  6
Continuous
 62
     7
100
AcDbLine
 10
-19.17886572009038
 20
122.3262032061052
 30
0.0
 11
69.84999999999999
 21
122.3262032061052
 31
0.0
  0
LINE
  5
C2
330
A
100
AcDbEntity
  8
0
  6
Continuous
 62
     7
100
AcDbLine
 10
69.84999999999999
 20
257.5647366636839
 30
0.0
 11
126.6908196072485
 21
257.5647366636839
 31
0.0
  0
LINE
  5
C3
330
A
100
AcDbEntity
  8
0
  6
Continuous
 62
     7
100
AcDbLine
 10
13.00918039275147
 20
257.5647366636839
 30
0.0
 11
69.84999999999999
 21
257.5647366636839
 31
0.0
  0
LINE
  5
C4
330
A
100
AcDbEntity
  8
0
  6
Continuous
 62
     7
100
AcDbLine
 10
79.85000000000008
 20
401.8147366636838
 30
0.0
 11
79.85000000000008
 21
407.3147366636838
 31
0.0
  0
LINE
  5
C5
330
A
100
AcDbEntity
  8
0
  6
Continuous
 62
     7
100
AcDbLine
 10
79.85000000000008
 20
371.3147366636838
 30
0.0
 11
79.85000000000008
 21
376.8147366636839
 31
0.0
  0
LINE
  5
C6
330
A
100
AcDbEntity
  8
0
  6
Continuous
 62
     7
100
AcDbLine
 10
78.85000000000005
 20
-89.6852633363162
 30
0.0
 11
78.84999999999998
 21
-107.6852633363162
 31
0.0
  0
LINE
  5
C7
330
A
100
AcDbEntity
  8
0
  6
Continuous
 62
     7
100
AcDbLine
 10
78.84999999999998
 20
-71.6852633363162
 30
0.0
 11
78.85000000000005
 21
-89.6852633363162
 31
0.0
  0
LINE
  5
C8
330
A
100
AcDbEntity
  8
0
  6
Continuous
 62
     7
100
AcDbLine
 10
83.85000000000003
 20
-89.6852633363162
 30
0.0
 11
83.84999999999998
 21
-71.6852633363162
 31
0.0
  0
LINE
  5
C9
330
A
100
AcDbEntity
  8
0
  6
Continuous
 62
     7
100
AcDbLine
 10
83.84999999999998
 20
-107.6852633363162
 30
0.0
 11
83.85000000000003
 21
-89.6852633363162
 31
0.0
  0
LINE
  5
CA
330
A
100
AcDbEntity
  8
0
  6
Continuous
 62
     7
100
AcDbLine
 10
64.95102051443367
 20
344.3147366636838
 30
0.0
 11
65.62165354330945
 21
344.3147366636838
 31
0.0
  0
LINE
  5
CB
330
A
100
AcDbEntity
  8
0
  6
Continuous
 62
     7
100
AcDbLine
 10
74.07834645669409
 20
344.3147366636838
 30
0.0
 11
74.74897948556638
 21
344.3147366636838
 31
0.0
  0
LINE
  5
CC
330
A
100
AcDbEntity
  8
0
  6
Continuous
 62
     7
100
AcDbLine
 10
64.95102051443367
 20
-45.68526333631617
 30
0.0
 11
74.74897948556637
 21
-45.68526333631617
 31
0.0
  0
LWPOLYLINE
  5
CD
330
A
100
AcDbEntity
  8
0
  6
Continuous
 62
     7
100
AcDbPolyline
 90
       11
 70
   128
 43
0.0
 10
64.35698789095856
 20
-98.82739896004716
 10
65.08689162883358
 20
-97.08161911571339
 10
66.35449191951685
 20
-95.48379824359848
 10
67.76045716942298
 20
-94.42350212829953
 10
69.04293469385939
 20
-93.94181613491047
 10
69.85000000000001
 20
-93.85830284445052
 10
71.27357914060315
 20
-94.11901145551615
 10
72.51223866098489
 20
-94.78334841138563
 10
73.95234323400252
 20
-96.14893636391741
 10
74.92461844799034
 20
-97.64718790835726
 10
75.34301210904143
 20
-98.82739896004716
  0
LINE
  5
DA
330
A
100
AcDbEntity
  8
0
  6
Continuous
 62
     7
100
AcDbLine
 10
75.34301210904143
 20
-98.82739896004716
 30
0.0
 11
75.39
 21
-99.2808248102478
 31
0.0
  0
LINE
  5
DB
330
A
100
AcDbEntity
  8
0
  6
Continuous
 62
     7
100
AcDbLine
 10
64.30999999999999
 20
-99.2808248102478
 30
0.0
 11
64.35698789095856
 21
-98.82739896004716
 31
0.0
  0
LWPOLYLINE
  5
DC
330
A
100
AcDbEntity
  8
0
  6
Continuous
 62
     7
100
AcDbPolyline
 90
       12
 70
   128
 43
0.0
 10
64.51868340852612
 20
-78.63856847944989
 10
64.53302804375565
 20
-78.64549020533707
 10
65.05138443737661
 20
-78.885582261495
 10
66.03984677887921
 20
-79.2870102345487
 10
67.53540081828862
 20
-79.73720978941672
 10
69.35499040411572
 20
-79.99756833182636
 10
69.84999999999999
 20
-80.01022328471952
 10
71.51274338307032
 20
-79.86838422134567
 10
72.98369126935414
 20
-79.51538521651425
 10
74.23081499859155
 20
-79.06462587654551
 10
75.05157631338119
 20
-78.7006014778916
 10
75.20465899093757
 20
-78.62710342536766
  0
LINE
  5
EA
330
A
100
AcDbEntity
  8
0
  6
Continuous
 62
     7
100
AcDbLine
 10
75.85
 20
-89.6852633363162
 30
0.0
 11
75.84999999999997
 21
-78.6052633363162
 31
0.0
  0
LINE
  5
EB
330
A
100
AcDbEntity
  8
0
  6
Continuous
 62
     7
100
AcDbLine
 10
75.84999999999997
 20
-100.7652633363162
 30
0.0
 11
75.85
 21
-89.6852633363162
 31
0.0
  0
LINE
  5
EC
330
A
100
AcDbEntity
  8
0
  6
Continuous
 62
     7
100
AcDbLine
 10
63.85000000000001
 20
-89.6852633363162
 30
0.0
 11
63.84999999999998
 21
-100.7652633363162
 31
0.0
  0
LINE
  5
ED
330
A
100
AcDbEntity
  8
0
  6
Continuous
 62
     7
100
AcDbLine
 10
63.84999999999998
 20
-78.6052633363162
 30
0.0
 11
63.85000000000001
 21
-89.6852633363162
 31
0.0
  0
LINE
  5
EE
330
A
100
AcDbEntity
  8
0
  6
Continuous
 62
     7
100
AcDbLine
 10
64.95102051443367
 20
-45.68526333631617
 30
0.0
 11
62.99142872020707
 21
-45.68526333631617
 31
0.0
  0
LINE
  5
EF
330
A
100
AcDbEntity
  8
0
  6
Continuous
 62
     7
100
AcDbLine
 10
62.99142872020707
 20
344.3147366636838
 30
0.0
 11
64.95102051443367
 21
344.3147366636838
 31
0.0
  0
LINE
  5
F0
330
A
100
AcDbEntity
  8
0
  6
Continuous
 62
     7
100
AcDbLine
 10
76.70857127979288
 20
-45.68526333631617
 30
0.0
 11
74.74897948556637
 21
-45.68526333631617
 31
0.0
  0
LINE
  5
F1
330
A
100
AcDbEntity
  8
0
  6
Continuous
 62
     7
100
AcDbLine
 10
74.74897948556638
 20
344.3147366636838
 30
0.0
 11
76.70857127979289
 21
344.3147366636838
 31
0.0
  0
LINE
  5
F2
330
A
100
AcDbEntity
  8
0
  6
Continuous
 62
     7
100
AcDbLine
 10
74.34999999999996
 20
344.3147366636838
 30
0.0
 11
74.34999999999996
 21
351.2147366636635
 31
0.0
  0
LINE
  5
F3
330
A
100
AcDbEntity
  8
0
  6
Continuous
 62
     7
100
AcDbLine
 10
65.34999999999998
 20
351.2147366637549
 30
0.0
 11
65.34999999999998
 21
344.3147366636838
 31
0.0
  0
LINE
  5
F4
330
A
100
AcDbEntity
  8
0
  6
Continuous
 62
     7
100
AcDbLine
 10
76.70857127979288
 20
-45.68526333631617
 30
0.0
 11
76.84999999999998
 21
-45.68526333631617
 31
0.0
  0
LINE
  5
F5
330
A
100
AcDbEntity
  8
0
  6
Continuous
 62
     7
100
AcDbLine
 10
62.84999999999997
 20
-45.68526333631617
 30
0.0
 11
62.99142872020707
 21
-45.68526333631617
 31
0.0
  0
LINE
  5
F6
330
A
100
AcDbEntity
  8
0
  6
Continuous
 62
     7
100
AcDbLine
 10
76.70857127979289
 20
344.3147366636838
 30
0.0
 11
76.84999999999998
 21
344.3147366636838
 31
0.0
  0
LINE
  5
F7
330
A
100
AcDbEntity
  8
0
  6
Continuous
 62
     7
100
AcDbLine
 10
62.84999999999997
 20
344.3147366636838
 30
0.0
 11
62.99142872020707
 21
344.3147366636838
 31
0.0
  0
LINE
  5
F8
330
A
100
AcDbEntity
  8
0
  6
Continuous
 62
     7
100
AcDbLine
 10
64.84999999999998
 20
353.8147366636838
 30
0.0
 11
64.84999999999996
 21
348.8147366636838
 31
0.0
  0
LINE
  5
F9
330
A
100
AcDbEntity
  8
0
  6
Continuous
 62
     7
100
AcDbLine
 10
64.84999999999996
 20
358.8147366636838
 30
0.0
 11
64.84999999999998
 21
353.8147366636838
 31
0.0
  0
LINE
  5
FA
330
A
100
AcDbEntity
  8
0
  6
Continuous
 62
     7
100
AcDbLine
 10
74.84999999999996
 20
353.8147366636838
 30
0.0
 11
74.84999999999995
 21
358.8147366636838
 31
0.0
  0
LINE
  5
FB
330
A
100
AcDbEntity
  8
0
  6
Continuous
 62
     7
100
AcDbLine
 10
74.84999999999995
 20
348.8147366636838
 30
0.0
 11
74.84999999999996
 21
353.8147366636838
 31
0.0
  0
LINE
  5
FC
330
A
100
AcDbEntity
  8
0
  6
Continuous
 62
     7
100
AcDbLine
 10
75.38999999999984
 20
-50.84464290275032
 30
0.0
 11
75.24999999999997
 21
-51.71974289703629
 31
0.0
  0
LINE
  5
FD
330
A
100
AcDbEntity
  8
0
  6
Continuous
 62
     7
100
AcDbLine
 10
64.44999999999997
 20
-51.71974289703712
 30
0.0
 11
64.30999999999984
 21
-50.84464290275025
 31
0.0
  0
LWPOLYLINE
  5
FE
330
A
100
AcDbEntity
  8
0
  6
Continuous
 62
     7
100
AcDbPolyline
 90
        3
 70
   128
 43
0.0
 10
75.38999999999986
 20
-55.44083698046281
 10
75.30214339651156
 20
-54.63837555671258
 10
75.24999999999997
 20
-54.43131385522621
  0
LWPOLYLINE
  5
103
330
A
100
AcDbEntity
  8
0
  6
Continuous
 62
     7
100
AcDbPolyline
 90
        4
 70
   128
 43
0.0
 10
75.24999999999997
 20
-50.16521203644569
 10
75.27179929802037
 20
-50.18531673678972
 10
75.38654212043709
 20
-50.71042736287967
 10
75.38999999999984
 20
-50.84464290275032
  0
LWPOLYLINE
  5
109
330
A
100
AcDbEntity
  8
0
  6
Continuous
 62
     7
100
AcDbPolyline
 90
        3
 70
   128
 43
0.0
 10
64.30999999999984
 20
-50.84464290275029
 10
64.39785660348815
 20
-50.25733284609537
 10
64.44999999999997
 20
-50.18671095317912
  0
LWPOLYLINE
  5
10E
330
A
100
AcDbEntity
  8
0
  6
Continuous
 62
     7
100
AcDbPolyline
 90
        4
 70
   128
 43
0.0
 10
64.44999999999997
 20
-54.41119386347265
 10
64.42820070197935
 20
-54.49038529095135
 10
64.31345787956264
 20
-55.29828059753643
 10
64.30999999999986
 20
-55.44083698046287
  0
LINE
  5
114
330
A
100
AcDbEntity
  8
0
  6
Continuous
 62
     7
100
AcDbLine
 10
69.84999999999999
 20
-186.1852633363161
 30
0.0
 11
-44.15
 21
-186.1852633363161
 31
0.0
  0
LINE
  5
115
330
A
100
AcDbEntity
  8
0
  6
Continuous
 62
     7
100
AcDbLine
 10
183.85
 20
-186.1852633363161
 30
0.0
 11
69.84999999999999
 21
-186.1852633363161
 31
0.0
  0
LINE
  5
116
330
A
100
AcDbEntity
  8
0
  6
Continuous
 62
     7
100
AcDbLine
 10
69.84999999999999
 20
-174.6852633363161
 30
0.0
 11
183.35
 21
-174.6852633363161
 31
0.0
  0
LINE
  5
117
330
A
100
AcDbEntity
  8
0
  6
Continuous
 62
     7
100
AcDbLine
 10
-43.65000000000001
 20
-174.6852633363161
 30
0.0
 11
69.84999999999999
 21
-174.6852633363161
 31
0.0
  0
LINE
  5
118
330
A
100
AcDbEntity
  8
0
  6
Continuous
 62
     7
100
AcDbLine
 10
98.89759747124506
 20
-188.6852633363162
 30
0.0
 11
108.897597471245
 21
-188.6852633363162
 31
0.0
  0
LINE
  5
119
330
A
100
AcDbEntity
  8
0
  6
Continuous
 62
     7
100
AcDbLine
 10
88.89759747124506
 20
-188.6852633363162
 30
0.0
 11
98.89759747124506
 21
-188.6852633363162
 31
0.0
  0
LINE
  5
11A
330
A
100
AcDbEntity
  8
0
  6
Continuous
 62
     7
100
AcDbLine
 10
-6.197597471245069
 20
-188.6852633363162
 30
0.0
 11
3.802402528754925
 21
-188.6852633363162
 31
0.0
  0
LINE
  5
11B
330
A
100
AcDbEntity
  8
0
  6
Continuous
 62
     7
100
AcDbLine
 10
-16.19759747124506
 20
-188.6852633363162
 30
0.0
 11
-6.197597471245069
 21
-188.6852633363162
 31
0.0
  0
LINE
  5
11C
330
A
100
AcDbEntity
  8
0
  6
Continuous
 62
     7
100
AcDbLine
 10
163.85
 20
-188.6852633363162
 30
0.0
 11
173.85
 21
-188.6852633363162
 31
0.0
  0
LINE
  5
11D
330
A
100
AcDbEntity
  8
0
  6
Continuous
 62
     7
100
AcDbLine
 10
153.85
 20
-188.6852633363162
 30
0.0
 11
163.85
 21
-188.6852633363162
 31
0.0
  0
LINE
  5
11E
330
A
100
AcDbEntity
  8
0
  6
Continuous
 62
     7
100
AcDbLine
 10
69.84999999999999
 20
-134.6852633363162
 30
0.0
 11
82.73057611510195
 21
-134.6852633363162
 31
0.0
  0
LINE
  5
11F
330
A
100
AcDbEntity
  8
0
  6
Continuous
 62
     7
100
AcDbLine
 10
56.96942388489805
 20
-134.6852633363162
 30
0.0
 11
69.84999999999999
 21
-134.6852633363162
 31
0.0
  0
LINE
  5
120
330
A
100
AcDbEntity
  8
0
  6
PHANTOM
 62
     7
100
AcDbLine
 10
66.35000000000167
 20
307.3147366636837
 30
0.0
 11
73.35000000000182
 21
307.3147366636837
 31
0.0
  0
LINE
  5
121
330
A
100
AcDbEntity
  8
0
  6
PHANTOM
 62
     7
100
AcDbLine
 10
64.95102051443367
 20
344.3147366636838
 30
0.0
 11
64.95102051443367
 21
305.818142244456
 31
0.0
  0
LINE
  5
122
330
A
100
AcDbEntity
  8
0
  6
PHANTOM
 62
     7
100
AcDbLine
 10
64.95102051443367
 20
122.3262032061052
 30
0.0
 11
64.95102051443367
 21
-45.68526333631617
 31
0.0
  0
LINE
  5
123
330
A
100
AcDbEntity
  8
0
  6
PHANTOM
 62
     7
100
AcDbLine
 10
74.74897948556637
 20
-45.68526333631617
 30
0.0
 11
74.74897948556637
 21
122.3262032061052
 31
0.0
  0
LINE
  5
124
330
A
100
AcDbEntity
  8
0
  6
PHANTOM
 62
     7
100
AcDbLine
 10
74.74897948556638
 20
305.8181422444561
 30
0.0
 11
74.74897948556638
 21
344.3147366636838
 31
0.0
  0
LINE
  5
125
330
A
100
AcDbEntity
  8
0
  6
PHANTOM
 62
     7
100
AcDbLine
 10
64.35698789095856
 20
-98.82739896004716
 30
0.0
 11
75.34301210904143
 21
-98.82739896004716
 31
0.0
  0
LINE
  5
126
330
A
100
AcDbEntity
  8
0
  6
PHANTOM
 62
     7
100
AcDbLine
 10
62.99142872020707
 20
-45.68526333631617
 30
0.0
 11
62.99142872020707
 21
122.3262032061052
 31
0.0
  0
LINE
  5
127
330
A
100
AcDbEntity
  8
0
  6
PHANTOM
 62
     7
100
AcDbLine
 10
62.99142872020707
 20
305.8147366636837
 30
0.0
 11
62.99142872020707
 21
344.3147366636838
 31
0.0
  0
LINE
  5
128
330
A
100
AcDbEntity
  8
0
  6
PHANTOM
 62
     7
100
AcDbLine
 10
76.70857127979289
 20
344.3147366636838
 30
0.0
 11
76.70857127979288
 21
305.8147366636837
 31
0.0
  0
LINE
  5
129
330
A
100
AcDbEntity
  8
0
  6
PHANTOM
 62
     7
100
AcDbLine
 10
76.70857127979288
 20
122.3262032061052
 30
0.0
 11
76.70857127979288
 21
-45.68526333631617
 31
0.0
  0
LINE
  5
12A
330
A
100
AcDbEntity
  8
0
  6
PHANTOM
 62
     7
100
AcDbLine
 10
64.44999999999997
 20
-45.72690222134415
 30
0.0
 11
64.30999999999982
 21
-46.60200221563101
 31
0.0
  0
LINE
  5
12B
330
A
100
AcDbEntity
  8
0
  6
PHANTOM
 62
     7
100
AcDbLine
 10
75.38999999999984
 20
-46.60200221563093
 30
0.0
 11
75.24999999999997
 21
-45.72690222134504
 31
0.0
  0
LINE
  5
12C
330
A
100
AcDbEntity
  8
0
  6
PHANTOM
 62
     7
100
AcDbLine
 10
75.38999999999984
 20
-50.84464290275032
 30
0.0
 11
75.24999999999997
 21
-50.84464290275032
 31
0.0
  0
LINE
  5
12D
330
A
100
AcDbEntity
  8
0
  6
PHANTOM
 62
     7
100
AcDbLine
 10
64.44999999999997
 20
-50.84464290275032
 30
0.0
 11
64.30999999999984
 21
-50.84464290275025
 31
0.0
  0
LINE
  5
12E
330
A
100
AcDbEntity
  8
0
  6
PHANTOM
 62
     7
100
AcDbLine
 10
69.84999999999999
 20
-185.1852633363162
 30
0.0
 11
184.85
 21
-185.1852633363162
 31
0.0
  0
LINE
  5
12F
330
A
100
AcDbEntity
  8
0
  6
PHANTOM
 62
     7
100
AcDbLine
 10
-45.15000000000001
 20
-185.1852633363162
 30
0.0
 11
69.84999999999999
 21
-185.1852633363162
 31
0.0
  0
LINE
  5
130
330
A
100
AcDbEntity
  8
0
  6
PHANTOM
 62
     7
100
AcDbLine
 10
69.84999999999999
 20
-176.1852633363162
 30
0.0
 11
-45.15000000000001
 21
-176.1852633363162
 31
0.0
  0
LINE
  5
131
330
A
100
AcDbEntity
  8
0
  6
PHANTOM
 62
     7
100
AcDbLine
 10
184.85
 20
-176.1852633363162
 30
0.0
 11
69.84999999999999
 21
-176.1852633363162
 31
0.0
  0
LINE
  5
132
330
A
100
AcDbEntity
  8
0
  6
PHANTOM
 62
     7
100
AcDbLine
 10
69.84999999999999
 20
-172.9946841089151
 30
0.0
 11
89.5852623579123
 21
-172.9946841089151
 31
0.0
  0
LINE
  5
133
330
A
100
AcDbEntity
  8
0
  6
PHANTOM
 62
     7
100
AcDbLine
 10
50.11473764208769
 20
-172.9946841089151
 30
0.0
 11
69.84999999999999
 21
-172.9946841089151
 31
0.0
  0
LINE
  5
134
330
A
100
AcDbEntity
  8
0
  6
PHANTOM
 62
     7
100
AcDbLine
 10
83.71853598087133
 20
-135.5305529500167
 30
0.0
 11
55.98146401912866
 21
-135.5305529500167
 31
0.0
  0
ARC
  5
135
330
A
100
AcDbEntity
  8
0
  6
Continuous
 62
     7
100
AcDbCircle
 10
69.85000000000204
 20
-997.9343591878997
 30
0.0
 40
10.00000000000023
100
AcDbArc
 50
175.975676665049
 51
270.0000000000009
  0
ARC
  5
136
330
A
100
AcDbEntity
  8
0
  6
Continuous
 62
     7
100
AcDbCircle
 10
69.85000000000204
 20
-997.9343591878997
 30
0.0
 40
10.00000000000023
100
AcDbArc
 50
270.0000000000009
 51
3.830288618596471
  0
LINE
  5
137
330
A
100
AcDbEntity
  8
0
  6
Continuous
 62
     7
100
AcDbLine
 10
79.82776730583292
 20
-997.2679057486969
 30
0.0
 11
75.23405508169545
 21
-928.4134888164624
 31
0.0
  0
LINE
  5
138
330
A
100
AcDbEntity
  8
0
  6
Continuous
 62
     7
100
AcDbLine
 10
64.46631126698386
 20
-928.4079976748342
 30
0.0
 11
59.87218425888299
 21
-997.2686317374748
 31
0.0
  0
LINE
  5
139
330
A
100
AcDbEntity
  8
0
  6
Continuous
 62
     7
100
AcDbLine
 10
84.84844911552981
 20
-939.908089460871
 30
0.0
 11
89.85152563300866
 21
-939.908089460871
 31
0.0
  0
LINE
  5
13A
330
A
100
AcDbEntity
  8
0
  6
Continuous
 62
     7
100
AcDbLine
 10
89.85152563300848
 20
-895.908089460871
 30
0.0
 11
84.84844911552967
 21
-895.908089460871
 31
0.0
  0
LINE
  5
13B
330
A
100
AcDbEntity
  8
0
  6
Continuous
 62
     7
100
AcDbLine
 10
75.367127465004
 20
-930.4080894608709
 30
0.0
 11
79.85000000000181
 21
-930.4080894608709
 31
0.0
  0
LINE
  5
13C
330
A
100
AcDbEntity
  8
0
  6
Continuous
 62
     7
100
AcDbLine
 10
59.8500000000018
 20
-930.4080894608709
 30
0.0
 11
64.33287253500016
 21
-930.4080894608711
 31
0.0
  0
LINE
  5
13D
330
A
100
AcDbEntity
  8
0
  6
Continuous
 62
     7
100
AcDbLine
 10
64.35000000000172
 20
-905.4080894608709
 30
0.0
 11
59.85000000000172
 21
-905.4080894608709
 31
0.0
  0
LINE
  5
13E
330
A
100
AcDbEntity
  8
0
  6
Continuous
 62
     7
100
AcDbLine
 10
79.85000000000173
 20
-905.4080894608709
 30
0.0
 11
75.35000000000171
 21
-905.4080894608709
 31
0.0
  0
LINE
  5
13F
330
A
100
AcDbEntity
  8
0
  6
Continuous
 62
     7
100
AcDbLine
 10
64.35000000000158
 20
-872.9080894608712
 30
0.0
 11
64.35000000000171
 21
-905.4080894608709
 31
0.0
  0
LINE
  5
140
330
A
100
AcDbEntity
  8
0
  6
Continuous
 62
     7
100
AcDbLine
 10
75.35000000000173
 20
-905.4080894608709
 30
0.0
 11
75.3500000000016
 21
-872.9080894608712
 31
0.0
  0
LINE
  5
141
330
A
100
AcDbEntity
  8
0
  6
Continuous
 62
     7
100
AcDbLine
 10
79.85000000000178
 20
-922.9080894608708
 30
0.0
 11
84.85346561710366
 21
-922.9080894608708
 31
0.0
  0
LINE
  5
142
330
A
100
AcDbEntity
  8
0
  6
Continuous
 62
     7
100
AcDbLine
 10
84.85346561710363
 20
-912.908089460871
 30
0.0
 11
79.85000000000176
 21
-912.908089460871
 31
0.0
  0
LINE
  5
143
330
A
100
AcDbEntity
  8
0
  6
Continuous
 62
     7
100
AcDbLine
 10
96.91434220288947
 20
-875.3212736920346
 30
0.0
 11
85.97726787021816
 21
-894.2648421223791
 31
0.0
  0
LINE
  5
144
330
A
100
AcDbEntity
  8
0
  6
Continuous
 62
     7
100
AcDbLine
 10
87.70923881194471
 20
-895.264980454076
 30
0.0
 11
98.64639301045841
 21
-876.3212736920348
 31
0.0
  0
LINE
  5
145
330
A
100
AcDbEntity
  8
0
  6
Continuous
 62
     7
100
AcDbLine
 10
13.98926478665127
 20
-925.1980894608708
 30
0.0
 11
35.86280972073853
 21
-925.1980894608706
 31
0.0
  0
LINE
  5
146
330
A
100
AcDbEntity
  8
0
  6
Continuous
 62
     7
100
AcDbLine
 10
35.86251884459921
 20
-923.1980894608707
 30
0.0
 11
13.98926478665127
 21
-923.1980894608708
 31
0.0
  0
LINE
  5
147
330
A
100
AcDbEntity
  8
0
  6
Continuous
 62
     7
100
AcDbLine
 10
98.64639301045903
 20
-972.0749052297065
 30
0.0
 11
87.709130895776
 21
-953.1310115513775
 31
0.0
  0
LINE
  5
148
330
A
100
AcDbEntity
  8
0
  6
Continuous
 62
     7
100
AcDbLine
 10
85.97749632649385
 20
-954.1317324972382
 30
0.0
 11
96.91434220289018
 21
-973.0749052297067
 31
0.0
  0
LINE
  5
149
330
A
100
AcDbEntity
  8
0
  6
Continuous
 62
     7
100
AcDbLine
 10
64.84999999999998
 20
-409.9721677839599
 30
0.0
 11
65.35805423998986
 21
-409.9721677839599
 31
0.0
  0
LINE
  5
14A
330
A
100
AcDbEntity
  8
0
  6
Continuous
 62
     7
100
AcDbLine
 10
74.34268278409639
 20
-409.9721677839599
 30
0.0
 11
74.84999999999998
 21
-409.9721677839599
 31
0.0
  0
LINE
  5
14B
330
A
100
AcDbEntity
  8
0
  6
Continuous
 62
     7
100
AcDbLine
 10
74.84999999999995
 20
-403.9721677839598
 30
0.0
 11
74.34999999999995
 21
-403.9721677839598
 31
0.0
  0
LINE
  5
14C
330
A
100
AcDbEntity
  8
0
  6
Continuous
 62
     7
100
AcDbLine
 10
65.34999999999993
 20
-403.9721677839599
 30
0.0
 11
64.84999999999996
 21
-403.9721677839599
 31
0.0
  0
LWPOLYLINE
  5
14D
330
A
100
AcDbEntity
  8
0
  6
Continuous
 62
     7
100
AcDbPolyline
 90
        9
 70
   128
 43
0.0
 10
74.18147596714736
 20
-397.7767889581123
 10
73.61511456318314
 20
-397.252278743776
 10
72.60783392604958
 20
-396.631000658423
 10
71.4326315936055
 20
-396.2156441611967
 10
70.14483490282689
 20
-396.0336560364157
 10
68.82551620599271
 20
-396.1051048061039
 10
67.546773612468
 20
-396.4378176880313
 10
66.38179645882117
 20
-397.035775651313
 10
65.51852403285251
 20
-397.7767889581123
  0
LINE
  5
158
330
A
100
AcDbEntity
  8
0
  6
Continuous
 62
     7
100
AcDbLine
 10
68.35
 20
-420.179631698893
 30
0.0
 11
69.25000000000004
 21
-420.1796316988929
 31
0.0
  0
LINE
  5
159
330
A
100
AcDbEntity
  8
0
  6
Continuous
 62
     7
100
AcDbLine
 10
70.44999999999999
 20
-420.1796316988929
 30
0.0
 11
71.35000000000001
 21
-420.179631698893
 31
0.0
  0
LINE
  5
15A
330
A
100
AcDbEntity
  8
0
  6
Continuous
 62
     7
100
AcDbLine
 10
70.45000000000171
 20
-909.8146384853293
 30
0.0
 11
70.44999999999999
 21
-418.0717821952941
 31
0.0
  0
LINE
  5
15B
330
A
100
AcDbEntity
  8
0
  6
Continuous
 62
     7
100
AcDbLine
 10
69.25000000000003
 20
-418.0647052862175
 30
0.0
 11
69.25000000000174
 21
-909.8146384853293
 31
0.0
  0
LINE
  5
15C
330
A
100
AcDbEntity
  8
0
  6
Continuous
 62
     7
100
AcDbLine
 10
74.85000000000013
 20
-455.9080894608712
 30
0.0
 11
79.85000000000013
 21
-455.9080894608712
 31
0.0
  0
LINE
  5
15D
330
A
100
AcDbEntity
  8
0
  6
Continuous
 62
     7
100
AcDbLine
 10
79.85000000000002
 20
-419.9080894608711
 30
0.0
 11
74.85000000000001
 21
-419.9080894608711
 31
0.0
  0
LINE
  5
15E
330
A
100
AcDbEntity
  8
0
  6
Continuous
 62
     7
100
AcDbLine
 10
62.85000000000021
 20
-482.9080894608712
 30
0.0
 11
62.85000000000157
 21
-872.9080894608712
 31
0.0
  0
LINE
  5
15F
330
A
100
AcDbEntity
  8
0
  6
Continuous
 62
     7
100
AcDbLine
 10
76.85000000000163
 20
-872.9080894608712
 30
0.0
 11
76.85000000000027
 21
-482.9080894608712
 31
0.0
  0
LINE
  5
160
330
A
100
AcDbEntity
  8
0
  6
Continuous
 62
     7
100
AcDbLine
 10
74.35000000000008
 20
-442.9080894608712
 30
0.0
 11
74.8500000000001
 21
-442.9080894608712
 31
0.0
  0
LINE
  5
161
330
A
100
AcDbEntity
  8
0
  6
Continuous
 62
     7
100
AcDbLine
 10
74.85000000000005
 20
-432.9080894608712
 30
0.0
 11
74.35000000000005
 21
-432.9080894608712
 31
0.0
  0
LINE
  5
162
330
A
100
AcDbEntity
  8
0
  6
Continuous
 62
     7
100
AcDbLine
 10
64.8500000000001
 20
-442.9080894608712
 30
0.0
 11
65.35000000000009
 21
-442.9080894608712
 31
0.0
  0
LINE
  5
163
330
A
100
AcDbEntity
  8
0
  6
Continuous
 62
     7
100
AcDbLine
 10
65.35000000000005
 20
-432.9080894608712
 30
0.0
 11
64.85000000000006
 21
-432.9080894608712
 31
0.0
  0
LINE
  5
164
330
A
100
AcDbEntity
  8
0
  6
Continuous
 62
     7
100
AcDbLine
 10
74.34999986863613
 20
-394.9080894608711
 30
0.0
 11
65.34999999994983
 21
-394.9080894608711
 31
0.0
  0
LINE
  5
165
330
A
100
AcDbEntity
  8
0
  6
Continuous
 62
     7
100
AcDbLine
 10
65.34999999999993
 20
-396.9080894608711
 30
0.0
 11
64.84999999999994
 21
-396.9080894608711
 31
0.0
  0
LINE
  5
166
330
A
100
AcDbEntity
  8
0
  6
Continuous
 62
     7
100
AcDbLine
 10
74.84999999999994
 20
-396.9080894608711
 30
0.0
 11
74.34999999999992
 21
-396.9080894608711
 31
0.0
  0
LINE
  5
167
330
A
100
AcDbEntity
  8
0
  6
Continuous
 62
     7
100
AcDbLine
 10
70.44999999999993
 20
-394.9080894608711
 30
0.0
 11
70.44999999999986
 21
-373.3393073939777
 31
0.0
  0
LINE
  5
168
330
A
100
AcDbEntity
  8
0
  6
Continuous
 62
     7
100
AcDbLine
 10
69.24999999999986
 20
-373.3392214562771
 30
0.0
 11
69.24999999999993
 21
-394.9080894608711
 31
0.0
  0
LWPOLYLINE
  5
169
330
A
100
AcDbEntity
  8
0
  6
Continuous
 62
     7
100
AcDbPolyline
 90
       15
 70
   128
 43
0.0
 10
75.38772144822662
 20
-366.342690201985
 10
75.22999775597772
 20
-365.2753820940902
 10
74.78747855284146
 20
-364.2987409349564
 10
74.09970204173141
 20
-363.4513915985392
 10
73.18633789674516
 20
-362.7514309082415
 10
72.07268731475676
 20
-362.2308006424975
 10
70.81224551337761
 20
-361.9282900296818
 10
69.48226519824018
 20
-361.8713322537699
 10
68.15763428946242
 20
-362.0714289210108
 10
66.90939567814634
 20
-362.5333332628699
 10
65.81286742766443
 20
-363.2575435185108
 10
65.05628596608189
 20
-364.0828491085926
 10
64.55435178284753
 20
-365.0243211889152
 10
64.32421800019622
 20
-366.037644795267
 10
64.34394778682082
 20
-366.3663923471734
  0
LINE
  5
17A
330
A
100
AcDbEntity
  8
0
  6
Continuous
 62
     7
100
AcDbLine
 10
64.30999999999986
 20
-375.2036631050164
 30
0.0
 11
64.30999999999994
 21
-401.3641663996306
 31
0.0
  0
LINE
  5
17B
330
A
100
AcDbEntity
  8
0
  6
Continuous
 62
     7
100
AcDbLine
 10
64.30999999999983
 20
-366.3648283401844
 30
0.0
 11
64.30999999999984
 21
-370.6074690273038
 31
0.0
  0
LINE
  5
17C
330
A
100
AcDbEntity
  8
0
  6
Continuous
 62
     7
100
AcDbLine
 10
75.38999999999984
 20
-370.6074690273037
 30
0.0
 11
75.38999999999983
 21
-366.3648283401844
 31
0.0
  0
LINE
  5
17D
330
A
100
AcDbEntity
  8
0
  6
Continuous
 62
     7
100
AcDbLine
 10
75.38999999999996
 20
-401.3738040139551
 30
0.0
 11
75.38999999999986
 21
-375.2036631050164
 31
0.0
  0
LINE
  5
17E
330
A
100
AcDbEntity
  8
0
  6
Continuous
 62
     7
100
AcDbLine
 10
68.3499999999999
 20
-386.2120249304595
 30
0.0
 11
69.2499999999999
 21
-386.2120249304595
 31
0.0
  0
LINE
  5
17F
330
A
100
AcDbEntity
  8
0
  6
Continuous
 62
     7
100
AcDbLine
 10
70.44999999999991
 20
-386.2120249304595
 30
0.0
 11
71.3499999999999
 21
-386.2120249304594
 31
0.0
  0
LINE
  5
180
330
A
100
AcDbEntity
  8
0
  6
Continuous
 62
     7
100
AcDbLine
 10
79.85000000000003
 20
-426.9080894608696
 30
0.0
 11
83.85000000000003
 21
-426.9080894608696
 31
0.0
  0
LINE
  5
181
330
A
100
AcDbEntity
  8
0
  6
Continuous
 62
     7
100
AcDbLine
 10
83.8499999999999
 20
-390.9080894608696
 30
0.0
 11
78.84999999999992
 21
-390.9080894608696
 31
0.0
  0
LINE
  5
182
330
A
100
AcDbEntity
  8
0
  6
Continuous
 62
     7
100
AcDbLine
 10
63.85000000000001
 20
-419.9880894608695
 30
0.0
 11
64.96803318323411
 21
-419.9880894608695
 31
0.0
  0
LINE
  5
183
330
A
100
AcDbEntity
  8
0
  6
Continuous
 62
     7
100
AcDbLine
 10
74.73196681676592
 20
-419.9880894608695
 30
0.0
 11
74.85000000000001
 21
-419.9880894608695
 31
0.0
  0
LINE
  5
184
330
A
100
AcDbEntity
  8
0
  6
Continuous
 62
     7
100
AcDbLine
 10
75.84999999999993
 20
-397.8280894608696
 30
0.0
 11
75.38999999999994
 21
-397.8280894608696
 31
0.0
  0
LINE
  5
185
330
A
100
AcDbEntity
  8
0
  6
Continuous
 62
     7
100
AcDbLine
 10
64.30999999999993
 20
-397.8280894608697
 30
0.0
 11
63.84999999999994
 21
-397.8280894608697
 31
0.0
  0
LINE
  5
186
330
A
100
AcDbEntity
  8
0
  6
Continuous
 62
     7
100
AcDbLine
 10
75.84999999999999
 20
-414.9080894608696
 30
0.0
 11
78.85000000000001
 21
-414.9080894608696
 31
0.0
  0
LINE
  5
187
330
A
100
AcDbEntity
  8
0
  6
Continuous
 62
     7
100
AcDbLine
 10
78.84999999999997
 20
-402.9080894608696
 30
0.0
 11
75.84999999999997
 21
-402.9080894608696
 31
0.0
  0
LWPOLYLINE
  5
188
330
A
100
AcDbEntity
  8
0
  6
Continuous
 62
     7
100
AcDbPolyline
 90
        7
 70
   128
 43
0.0
 10
59.87833832479786
 20
-997.2349833140048
 10
59.95872549735209
 20
-996.5416093893278
 10
60.86279757869174
 20
-994.0717286011723
 10
62.01540379822658
 20
-992.5339163947404
 10
63.86359260928035
 20
-991.0258817425651
 10
66.49898374118134
 20
-989.8409457027538
 10
69.85000000000201
 20
-989.3557046621408
  0
LWPOLYLINE
  5
191
330
A
100
AcDbEntity
  8
0
  6
Continuous
 62
     7
100
AcDbPolyline
 90
        9
 70
   128
 43
0.0
 10
69.85000000000201
 20
-989.3557046621408
 10
71.79962059066595
 20
-989.5167469125537
 10
73.6743183553905
 20
-989.9936849004239
 10
75.40204971041989
 20
-990.7681901663469
 10
76.91641890870329
 20
-991.8104989073006
 10
78.15922959121866
 20
-993.0805557829039
 10
79.08272124041321
 20
-994.5295532196837
 10
79.65140459010846
 20
-996.1018070587511
 10
79.78838709796062
 20
-997.2682357392562
  0
LWPOLYLINE
  5
19C
330
A
100
AcDbEntity
  8
0
  6
Continuous
 62
     7
100
AcDbPolyline
 90
       12
 70
   128
 43
0.0
 10
64.53270688970885
 20
-928.411146303762
 10
64.54441760961415
 20
-927.9842404246918
 10
65.16970827081789
 20
-926.8282889064114
 10
66.24934387263225
 20
-925.8360145886795
 10
67.69578486692999
 20
-925.0997512431538
 10
69.42627238948372
 20
-924.7445741121895
 10
69.85000000000177
 20
-924.7307149587156
 10
71.6425657772063
 20
-924.9837093251651
 10
73.23334220770596
 20
-925.6925771803375
 10
74.42277498129461
 20
-926.6994393632936
 10
75.08097797899393
 20
-927.7614589752515
 10
75.18499686317032
 20
-928.4190559769845
  0
LINE
  5
1AA
330
A
100
AcDbEntity
  8
0
  6
Continuous
 62
     7
100
AcDbLine
 10
89.85000000000182
 20
-939.908089460871
 30
0.0
 11
89.85000000000168
 21
-895.908089460871
 31
0.0
  0
LINE
  5
1AB
330
A
100
AcDbEntity
  8
0
  6
Continuous
 62
     7
100
AcDbLine
 10
84.85000000000168
 20
-895.908089460871
 30
0.0
 11
84.85000000000182
 21
-939.908089460871
 31
0.0
  0
LINE
  5
1AC
330
A
100
AcDbEntity
  8
0
  6
Continuous
 62
     7
100
AcDbLine
 10
79.85000000000181
 20
-930.4080894608709
 30
0.0
 11
79.85000000000173
 21
-905.4080894608709
 31
0.0
  0
LWPOLYLINE
  5
1AD
330
A
100
AcDbEntity
  8
0
  6
Continuous
 62
     7
100
AcDbPolyline
 90
        6
 70
   128
 43
0.0
 10
75.35000000000173
 20
-905.4080894608709
 10
75.07168152757609
 20
-905.5280265379529
 10
74.28131288475483
 20
-905.8400931946064
 10
72.99871868710555
 20
-906.2498550589337
 10
71.26703703233559
 20
-906.5940276813417
 10
70.45000000000169
 20
-906.6304797553382
  0
LWPOLYLINE
  5
1B5
330
A
100
AcDbEntity
  8
0
  6
Continuous
 62
     7
100
AcDbPolyline
 90
        6
 70
   128
 43
0.0
 10
69.25000000000173
 20
-906.6551638631279
 10
67.81250117715152
 20
-906.4996977489288
 10
66.36374319932501
 20
-906.1541970638707
 10
65.15839726899876
 20
-905.7421067144773
 10
64.45943877143117
 20
-905.4558547072629
 10
64.35000000000171
 20
-905.4080894608709
  0
LINE
  5
1BD
330
A
100
AcDbEntity
  8
0
  6
Continuous
 62
     7
100
AcDbLine
 10
59.85000000000172
 20
-905.4080894608709
 30
0.0
 11
59.8500000000018
 21
-930.4080894608709
 31
0.0
  0
LINE
  5
1BE
330
A
100
AcDbEntity
  8
0
  6
Continuous
 62
     7
100
AcDbLine
 10
84.85000000000168
 20
-924.408089460871
 30
0.0
 11
84.70226289496592
 21
-922.9080894608708
 31
0.0
  0
LWPOLYLINE
  5
1BF
330
A
100
AcDbEntity
  8
0
  6
Continuous
 62
     7
100
AcDbPolyline
 90
        6
 70
   128
 43
0.0
 10
59.85000000000175
 20
-913.3036625787957
 10
59.2433982822036
 20
-913.8014877430729
 10
57.37795581546365
 20
-916.074535965577
 10
55.99180701233255
 20
-918.6678379753947
 10
55.1382207939534
 20
-921.4817346306292
 10
54.85000000000187
 20
-924.408089460871
  0
LWPOLYLINE
  5
1C7
330
A
100
AcDbEntity
  8
0
  6
Continuous
 62
     7
100
AcDbPolyline
 90
        7
 70
   128
 43
0.0
 10
54.85000000000187
 20
-924.408089460871
 10
55.13822079395342
 20
-927.3344442911128
 10
55.99180701233259
 20
-930.1483409463473
 10
57.37795581546372
 20
-932.7416429561649
 10
59.24339828220367
 20
-935.0146911786692
 10
61.51644650470785
 20
-936.8801336454092
 10
63.81897220132056
 20
-938.1108592710614
  0
LWPOLYLINE
  5
1D0
330
A
100
AcDbEntity
  8
0
  6
Continuous
 62
     7
100
AcDbPolyline
 90
        7
 70
   128
 43
0.0
 10
75.88102779868357
 20
-938.1108592710612
 10
78.18355349529579
 20
-936.8801336454092
 10
80.45660171779996
 20
-935.0146911786692
 10
82.3220441845399
 20
-932.7416429561649
 10
83.708192987671
 20
-930.1483409463473
 10
84.56177920605014
 20
-927.3344442911128
 10
84.85000000000168
 20
-924.408089460871
  0
ARC
  5
1D9
330
A
100
AcDbEntity
  8
0
  6
Continuous
 62
     7
100
AcDbCircle
 10
69.85000000000177
 20
-924.408089460871
 30
0.0
 40
22.49999999999934
100
AcDbArc
 50
180.0000000000004
 51
253.0678625776801
  0
ARC
  5
1DA
330
A
100
AcDbEntity
  8
0
  6
Continuous
 62
     7
100
AcDbCircle
 10
69.85000000000177
 20
-924.408089460871
 30
0.0
 40
22.49999999999942
100
AcDbArc
 50
286.932137422323
 51
316.4577809718431
  0
ARC
  5
1DB
330
A
100
AcDbEntity
  8
0
  6
Continuous
 62
     7
100
AcDbCircle
 10
69.85000000000177
 20
-924.408089460871
 30
0.0
 40
22.49999999999931
100
AcDbArc
 50
333.418073954794
 51
26.40288874490444
  0
ARC
  5
1DC
330
A
100
AcDbEntity
  8
0
  6
Continuous
 62
     7
100
AcDbCircle
 10
69.85000000000177
 20
-924.408089460871
 30
0.0
 40
22.49999999999922
100
AcDbArc
 50
48.10782170243662
 51
75.85099549106502
  0
ARC
  5
1DD
330
A
100
AcDbEntity
  8
0
  6
Continuous
 62
     7
100
AcDbCircle
 10
69.85000000000177
 20
-924.408089460871
 30
0.0
 40
22.4999999999993
100
AcDbArc
 50
104.1490045089352
 51
180.0000000000004
  0
ARC
  5
1DE
330
A
100
AcDbEntity
  8
0
  6
Continuous
 62
     7
100
AcDbCircle
 10
69.84999999999999
 20
-924.1980894608706
 30
0.0
 40
56.84081960724846
100
AcDbArc
 50
278.9560477806416
 51
82.92601296168298
  0
ARC
  5
1DF
330
A
100
AcDbEntity
  8
0
  6
Continuous
 62
     7
100
AcDbCircle
 10
69.84999999999999
 20
-924.1980894608706
 30
0.0
 40
56.84081960724849
100
AcDbArc
 50
97.0739870383138
 51
261.0439522193642
  0
ARC
  5
1E0
330
A
100
AcDbEntity
  8
0
  6
Continuous
 62
     7
100
AcDbCircle
 10
69.84999999999999
 20
-924.1980894608703
 30
0.0
 40
90.00000000000003
100
AcDbArc
 50
270.0000000000008
 51
85.53915630212506
  0
ARC
  5
1E1
330
A
100
AcDbEntity
  8
0
  6
Continuous
 62
     7
100
AcDbCircle
 10
69.84999999999999
 20
-924.1980894608703
 30
0.0
 40
90.00000000000003
100
AcDbArc
 50
94.46084369787309
 51
270.0000000000008
  0
ARC
  5
1E2
330
A
100
AcDbEntity
  8
0
  6
Continuous
 62
     7
100
AcDbCircle
 10
69.84999999999999
 20
-924.1980894608706
 30
0.0
 40
55.86968532733898
100
AcDbArc
 50
279.0456236841414
 51
82.80240672291689
  0
ARC
  5
1E3
330
A
100
AcDbEntity
  8
0
  6
Continuous
 62
     7
100
AcDbCircle
 10
69.84999999999999
 20
-924.1980894608706
 30
0.0
 40
55.86968532733891
100
AcDbArc
 50
97.19759327707983
 51
260.9543763158644
  0
LWPOLYLINE
  5
1E4
330
A
100
AcDbEntity
  8
0
  6
Continuous
 62
     7
100
AcDbPolyline
 90
        9
 70
   128
 43
0.0
 10
96.97272921311768
 20
-875.3536496687337
 10
96.97271467569379
 20
-875.3821812333844
 10
97.04894420554346
 20
-875.6858284468982
 10
97.25316354837623
 20
-875.9768032218339
 10
97.55493403657228
 20
-876.2117360891823
 10
97.90927711197808
 20
-876.3556105643983
 10
98.26337833034918
 20
-876.3869823157676
 10
98.56445929596523
 20
-876.3011754183791
 10
98.58916108705049
 20
-876.2868970462756
  0
LWPOLYLINE
  5
1EF
330
A
100
AcDbEntity
  8
0
  6
Continuous
 62
     7
100
AcDbPolyline
 90
        9
 70
   128
 43
0.0
 10
13.98810969980357
 20
-923.2648420833141
 10
14.0128260283401
 20
-923.279095275876
 10
14.23767746410645
 20
-923.4969355920013
 10
14.38755933964474
 20
-923.8192821183064
 10
14.44013192685446
 20
-924.1980894608706
 10
14.38755933964473
 20
-924.5768968034353
 10
14.23767746410642
 20
-924.8992433297402
 10
14.01282602834006
 20
-925.1170836458655
 10
13.98810969980333
 20
-925.1313368384277
  0
LWPOLYLINE
  5
1FA
330
A
100
AcDbEntity
  8
0
  6
Continuous
 62
     7
100
AcDbPolyline
 90
        9
 70
   128
 43
0.0
 10
98.58916108705052
 20
-972.1092818754653
 10
98.56445929596588
 20
-972.095003503362
 10
98.26337833034983
 20
-972.0091966059735
 10
97.90927711197873
 20
-972.040568357343
 10
97.55493403657295
 20
-972.184442832559
 10
97.25316354837691
 20
-972.4193756999074
 10
97.04894420554412
 20
-972.7103504748431
 10
96.97271467569448
 20
-973.0139976883569
 10
96.97272921311832
 20
-973.0425292530068
  0
ARC
  5
205
330
A
100
AcDbEntity
  8
0
  6
Continuous
 62
     7
100
AcDbCircle
 10
69.84999999999999
 20
-924.1980894608706
 30
0.0
 40
34.00000000000011
100
AcDbArc
 50
282.4293460831942
 51
53.77422149788792
  0
ARC
  5
206
330
A
100
AcDbEntity
  8
0
  6
Continuous
 62
     7
100
AcDbCircle
 10
69.84999999999999
 20
-924.1980894608706
 30
0.0
 40
33.99999999999996
100
AcDbArc
 50
56.3108134766198
 51
80.69065907836003
  0
ARC
  5
207
330
A
100
AcDbEntity
  8
0
  6
Continuous
 62
     7
100
AcDbCircle
 10
69.84999999999999
 20
-924.1980894608706
 30
0.0
 40
34.00000000000013
100
AcDbArc
 50
99.3093409216342
 51
257.5706539168144
  0
LINE
  5
208
330
A
100
AcDbEntity
  8
0
  6
Continuous
 62
     7
100
AcDbLine
 10
74.84999999999998
 20
-409.9721677839599
 30
0.0
 11
74.84999999999995
 21
-403.9721677839598
 31
0.0
  0
LINE
  5
209
330
A
100
AcDbEntity
  8
0
  6
Continuous
 62
     7
100
AcDbLine
 10
64.84999999999996
 20
-403.9721677839599
 30
0.0
 11
64.84999999999998
 21
-409.9721677839599
 31
0.0
  0
LWPOLYLINE
  5
20A
330
A
100
AcDbEntity
  8
0
  6
Continuous
 62
     7
100
AcDbPolyline
 90
        7
 70
   128
 43
0.0
 10
67.34999999999996
 20
-400.646633569291
 10
67.33987880967373
 20
-400.6494444780194
 10
66.54002262145823
 20
-400.9779435491138
 10
65.94433121146668
 20
-401.405349001678
 10
65.54314426687937
 20
-401.8941988427719
 10
65.36156032450266
 20
-402.3878161674224
 10
65.35000000000002
 20
-402.5421171499045
  0
LWPOLYLINE
  5
213
330
A
100
AcDbEntity
  8
0
  6
Continuous
 62
     7
100
AcDbPolyline
 90
        5
 70
   128
 43
0.0
 10
69.84999967846667
 20
-401.4213795516106
 10
69.1530674405663
 20
-401.3707415095582
 10
68.48285074581965
 20
-401.218478332639
 10
67.87448562344675
 20
-400.9743964922347
 10
67.34999999999995
 20
-400.646633569291
  0
LWPOLYLINE
  5
21A
330
A
100
AcDbEntity
  8
0
  6
Continuous
 62
     7
100
AcDbPolyline
 90
        5
 70
   128
 43
0.0
 10
72.34999999999994
 20
-400.6466335692906
 10
71.82499859589426
 20
-400.9746709418495
 10
71.21242765964973
 20
-401.2199415471785
 10
70.54629761494337
 20
-401.370823710925
 10
69.84999999999996
 20
-401.4213795516452
  0
LWPOLYLINE
  5
221
330
A
100
AcDbEntity
  8
0
  6
Continuous
 62
     7
100
AcDbPolyline
 90
        7
 70
   128
 43
0.0
 10
74.34999999999975
 20
-402.542117149905
 10
74.24487941040415
 20
-402.0671295638331
 10
73.94442063351769
 20
-401.600036506805
 10
73.47981827635864
 20
-401.1806909849908
 10
72.88674478740597
 20
-400.8405565129086
 10
72.36012119029533
 20
-400.6494444780748
 10
72.34999999999946
 20
-400.6466335692913
  0
LWPOLYLINE
  5
22A
330
A
100
AcDbEntity
  8
0
  6
Continuous
 62
     7
100
AcDbPolyline
 90
        9
 70
   128
 43
0.0
 10
69.84999999999998
 20
-410.7905444023672
 10
70.03995984919929
 20
-410.7881810999542
 10
70.22968455523967
 20
-410.7810941181459
 10
70.41893926603589
 20
-410.7692922296136
 10
70.6074897112896
 20
-410.7527900434094
 10
70.79510249248269
 20
-410.7316079868826
 10
70.98154537179114
 20
-410.7057722803934
 10
71.16658755956243
 20
-410.6753149048562
 10
71.34999999999997
 20
-410.6402735621512
  0
LWPOLYLINE
  5
235
330
A
100
AcDbEntity
  8
0
  6
Continuous
 62
     7
100
AcDbPolyline
 90
        9
 70
   128
 43
0.0
 10
68.34999999999999
 20
-410.6402735621511
 10
68.53341244043756
 20
-410.6753149048562
 10
68.71845462820883
 20
-410.7057722803934
 10
68.9048975075173
 20
-410.7316079868826
 10
69.09251028871037
 20
-410.7527900434093
 10
69.28106073396408
 20
-410.7692922296136
 10
69.47031544476029
 20
-410.7810941181459
 10
69.66004015080068
 20
-410.7881810999542
 10
69.84999999999998
 20
-410.7905444023672
  0
LINE
  5
240
330
A
100
AcDbEntity
  8
0
  6
Continuous
 62
     7
100
AcDbLine
 10
65.35000000000002
 20
-409.9918378240158
 30
0.0
 11
65.35000000000005
 21
-430.9262887513717
 31
0.0
  0
LWPOLYLINE
  5
241
330
A
100
AcDbEntity
  8
0
  6
Continuous
 62
     7
100
AcDbPolyline
 90
        4
 70
   128
 43
0.0
 10
65.35000000000003
 20
-408.1738719277447
 10
65.5185335301657
 20
-408.965897756055
 10
65.50554590457855
 20
-409.6119640957123
 10
65.35000000000005
 20
-409.9918378240158
  0
LINE
  5
247
330
A
100
AcDbEntity
  8
0
  6
Continuous
 62
     7
100
AcDbLine
 10
65.35000000000002
 20
-402.5421171499045
 30
0.0
 11
65.35000000000005
 21
-408.1738719277447
 31
0.0
  0
LINE
  5
248
330
A
100
AcDbEntity
  8
0
  6
Continuous
 62
     7
100
AcDbLine
 10
74.34999999999995
 20
-408.1738719277445
 30
0.0
 11
74.34999999999991
 21
-402.5421171499047
 31
0.0
  0
LWPOLYLINE
  5
249
330
A
100
AcDbEntity
  8
0
  6
Continuous
 62
     7
100
AcDbPolyline
 90
        4
 70
   128
 43
0.0
 10
74.34999999999992
 20
-409.9918378240158
 10
74.18146646983426
 20
-409.5387882853917
 10
74.19445409542143
 20
-408.8679461023447
 10
74.34999999999994
 20
-408.1738719277445
  0
LINE
  5
24F
330
A
100
AcDbEntity
  8
0
  6
Continuous
 62
     7
100
AcDbLine
 10
74.35000000000005
 20
-430.9262887609228
 30
0.0
 11
74.34999999999994
 21
-409.9918378240157
 31
0.0
  0
LINE
  5
250
330
A
100
AcDbEntity
  8
0
  6
Continuous
 62
     7
100
AcDbLine
 10
65.34999999994983
 20
-398.3207429660635
 30
0.0
 11
65.35000000000002
 21
-402.5421171499045
 31
0.0
  0
LWPOLYLINE
  5
251
330
A
100
AcDbEntity
  8
0
  6
Continuous
 62
     7
100
AcDbPolyline
 90
        7
 70
   128
 43
0.0
 10
67.34999999999996
 20
-397.3877994219309
 10
67.33987880966594
 20
-397.3850247309249
 10
66.54002262142808
 20
-397.2988242845701
 10
65.94433121172567
 20
-397.4454995550843
 10
65.54314426703467
 20
-397.7560010900213
 10
65.36156032454027
 20
-398.171374203657
 10
65.34999999999996
 20
-398.3207429660635
  0
LWPOLYLINE
  5
25A
330
A
100
AcDbEntity
  8
0
  6
Continuous
 62
     7
100
AcDbPolyline
 90
        7
 70
   128
 43
0.0
 10
74.34999999999985
 20
-398.3207429660633
 10
74.24487941040412
 20
-397.890819484653
 10
73.94442063351772
 20
-397.5552974199575
 10
73.47981827635871
 20
-397.3482836743177
 10
72.88674478740627
 20
-397.2976366387545
 10
72.36012119033055
 20
-397.3850247309187
 10
72.34999999999991
 20
-397.3877994219308
  0
LINE
  5
263
330
A
100
AcDbEntity
  8
0
  6
Continuous
 62
     7
100
AcDbLine
 10
74.34999999999991
 20
-402.5421171499047
 30
0.0
 11
74.34999999999991
 21
-398.3207429660634
 31
0.0
  0
LWPOLYLINE
  5
264
330
A
100
AcDbEntity
  8
0
  6
Continuous
 62
     7
100
AcDbPolyline
 90
       13
 70
   128
 43
0.0
 10
69.26016158503397
 20
-418.0647868935499
 10
69.25230605692485
 20
-417.9988872833002
 10
69.39115006110061
 20
-417.4550447201673
 10
69.48746577798516
 20
-417.2744579803651
 10
69.64052172341431
 20
-417.090864785157
 10
69.72523712328642
 20
-417.0332699562249
 10
69.80853175535052
 20
-417.0052785635218
 10
69.85000000000012
 20
-417.0018082340687
 10
69.93415056226567
 20
-417.0161070166077
 10
70.02845581788
 20
-417.0663181478371
 10
70.15802159217966
 20
-417.1964638652849
 10
70.34210510048985
 20
-417.5348478771275
 10
70.44785054710944
 20
-418.0717477453823
  0
LINE
  5
273
330
A
100
AcDbEntity
  8
0
  6
Continuous
 62
     7
100
AcDbLine
 10
68.35
 20
-420.179631698893
 30
0.0
 11
68.34999999999998
 21
-410.7905444023669
 31
0.0
  0
LINE
  5
274
330
A
100
AcDbEntity
  8
0
  6
Continuous
 62
     7
100
AcDbLine
 10
71.35000000000001
 20
-420.179631698893
 30
0.0
 11
71.34999999999998
 21
-410.7905444023674
 31
0.0
  0
LINE
  5
275
330
A
100
AcDbEntity
  8
0
  6
Continuous
 62
     7
100
AcDbLine
 10
71.34999999999998
 20
-410.7905444023674
 30
0.0
 11
71.34999999999997
 21
-410.6402735621512
 31
0.0
  0
LINE
  5
276
330
A
100
AcDbEntity
  8
0
  6
Continuous
 62
     7
100
AcDbLine
 10
68.34999999999998
 20
-410.7905444023669
 30
0.0
 11
68.34999999999999
 21
-410.6402735621511
 31
0.0
  0
LINE
  5
277
330
A
100
AcDbEntity
  8
0
  6
Continuous
 62
     7
100
AcDbLine
 10
74.85000000000001
 20
-419.9080894608711
 30
0.0
 11
74.85000000000013
 21
-455.9080894608712
 31
0.0
  0
LINE
  5
278
330
A
100
AcDbEntity
  8
0
  6
Continuous
 62
     7
100
AcDbLine
 10
79.85000000000013
 20
-455.9080894608712
 30
0.0
 11
79.85000000000002
 21
-419.9080894608711
 31
0.0
  0
LINE
  5
279
330
A
100
AcDbEntity
  8
0
  6
Continuous
 62
     7
100
AcDbLine
 10
65.35000000000053
 20
-430.9262905169238
 30
0.0
 11
65.34999954207115
 21
-434.7730069991317
 31
0.0
  0
LINE
  5
27A
330
A
100
AcDbEntity
  8
0
  6
Continuous
 62
     7
100
AcDbLine
 10
74.34999949517171
 20
-434.7730063170174
 30
0.0
 11
74.35000000000004
 21
-430.9262903935708
 31
0.0
  0
LINE
  5
27B
330
A
100
AcDbEntity
  8
0
  6
Continuous
 62
     7
100
AcDbLine
 10
65.34999954207115
 20
-434.7730069991317
 30
0.0
 11
65.3499995420712
 21
-447.6395023068384
 31
0.0
  0
LINE
  5
27C
330
A
100
AcDbEntity
  8
0
  6
Continuous
 62
     7
100
AcDbLine
 10
74.34999949517176
 20
-447.6395026817455
 30
0.0
 11
74.34999949517171
 21
-434.7730063170174
 31
0.0
  0
LINE
  5
27D
330
A
100
AcDbEntity
  8
0
  6
Continuous
 62
     7
100
AcDbLine
 10
62.85000000000157
 20
-872.9080894608712
 30
0.0
 11
69.25000000000162
 21
-872.9080894608713
 31
0.0
  0
LINE
  5
27E
330
A
100
AcDbEntity
  8
0
  6
Continuous
 62
     7
100
AcDbLine
 10
70.45000000000157
 20
-872.9080894608713
 30
0.0
 11
76.85000000000163
 21
-872.9080894608712
 31
0.0
  0
LINE
  5
27F
330
A
100
AcDbEntity
  8
0
  6
Continuous
 62
     7
100
AcDbLine
 10
76.85000000000027
 20
-482.9080894608712
 30
0.0
 11
70.4500000000002
 21
-482.9080894608712
 31
0.0
  0
LINE
  5
280
330
A
100
AcDbEntity
  8
0
  6
Continuous
 62
     7
100
AcDbLine
 10
69.25000000000025
 20
-482.9080894608712
 30
0.0
 11
62.85000000000021
 21
-482.9080894608712
 31
0.0
  0
LINE
  5
281
330
A
100
AcDbEntity
  8
0
  6
Continuous
 62
     7
100
AcDbLine
 10
65.3499995420712
 20
-447.6395023068384
 30
0.0
 11
65.35000000000012
 21
-450.7668094322969
 31
0.0
  0
LINE
  5
282
330
A
100
AcDbEntity
  8
0
  6
Continuous
 62
     7
100
AcDbLine
 10
74.34999999999961
 20
-450.7668093150869
 30
0.0
 11
74.34999949517176
 21
-447.6395026817455
 31
0.0
  0
LINE
  5
283
330
A
100
AcDbEntity
  8
0
  6
Continuous
 62
     7
100
AcDbLine
 10
65.35000000541678
 20
-450.7668093966983
 30
0.0
 11
65.35000000270857
 21
-482.9080894608712
 31
0.0
  0
LINE
  5
284
330
A
100
AcDbEntity
  8
0
  6
Continuous
 62
     7
100
AcDbLine
 10
74.35000000000023
 20
-482.9080894608712
 30
0.0
 11
74.35000000000012
 21
-450.7668093150447
 31
0.0
  0
LINE
  5
285
330
A
100
AcDbEntity
  8
0
  6
Continuous
 62
     7
100
AcDbLine
 10
64.85000000000006
 20
-432.9080894608712
 30
0.0
 11
64.8500000000001
 21
-442.9080894608712
 31
0.0
  0
LINE
  5
286
330
A
100
AcDbEntity
  8
0
  6
Continuous
 62
     7
100
AcDbLine
 10
65.34999999994983
 20
-394.9080894608711
 30
0.0
 11
65.34999999994983
 21
-398.3207429660635
 31
0.0
  0
LINE
  5
287
330
A
100
AcDbEntity
  8
0
  6
Continuous
 62
     7
100
AcDbLine
 10
74.34999986863615
 20
-398.2728187954882
 30
0.0
 11
74.34999986863613
 21
-394.9080894608711
 31
0.0
  0
LINE
  5
288
330
A
100
AcDbEntity
  8
0
  6
Continuous
 62
     7
100
AcDbLine
 10
64.84999999999994
 20
-396.9080894608711
 30
0.0
 11
64.84999999999996
 21
-404.0091099753047
 31
0.0
  0
LINE
  5
289
330
A
100
AcDbEntity
  8
0
  6
Continuous
 62
     7
100
AcDbLine
 10
74.84999999999996
 20
-404.0091099753047
 30
0.0
 11
74.84999999999994
 21
-396.9080894608711
 31
0.0
  0
LWPOLYLINE
  5
28A
330
A
100
AcDbEntity
  8
0
  6
Continuous
 62
     7
100
AcDbPolyline
 90
        6
 70
   128
 43
0.0
 10
69.84999999999955
 20
-372.7741987055054
 10
69.69366232922221
 20
-372.7936308842392
 10
69.55687696586657
 20
-372.8459298291609
 10
69.40529317836475
 20
-372.9593491304649
 10
69.28244738040096
 20
-373.1553610524981
 10
69.25684897583039
 20
-373.3401165343007
  0
LWPOLYLINE
  5
292
330
A
100
AcDbEntity
  8
0
  6
Continuous
 62
     7
100
AcDbPolyline
 90
        7
 70
   128
 43
0.0
 10
70.44425184516867
 20
-373.3383787610602
 10
70.44917904487234
 20
-373.3095371410144
 10
70.38374536504628
 20
-373.0804847386955
 10
70.24769401354852
 20
-372.9156626541921
 10
70.10121292663718
 20
-372.8258933776315
 10
69.95663672422896
 20
-372.7831539172482
 10
69.84999999999955
 20
-372.7741987055054
  0
LINE
  5
29B
330
A
100
AcDbEntity
  8
0
  6
Continuous
 62
     7
100
AcDbLine
 10
62.99142872020707
 20
-410.3080894608711
 30
0.0
 11
64.95102051443367
 21
-419.9080894608711
 31
0.0
  0
ARC
  5
29C
330
A
100
AcDbEntity
  8
0
  6
Continuous
 62
     7
100
AcDbCircle
 10
69.84999999999998
 20
-408.9080894608711
 30
0.0
 40
7.00000000000004
100
AcDbArc
 50
348.4630409671843
 51
44.41530859719349
  0
ARC
  5
29D
330
A
100
AcDbEntity
  8
0
  6
Continuous
 62
     7
100
AcDbCircle
 10
69.84999999999998
 20
-408.9080894608711
 30
0.0
 40
7.000000000000019
100
AcDbArc
 50
135.1598177000117
 51
191.5369590328168
  0
LINE
  5
29E
330
A
100
AcDbEntity
  8
0
  6
Continuous
 62
     7
100
AcDbLine
 10
74.74897948556638
 20
-419.9080894608711
 30
0.0
 11
76.70857127979289
 21
-410.308089460871
 31
0.0
  0
ARC
  5
29F
330
A
100
AcDbEntity
  8
0
  6
Continuous
 62
     7
100
AcDbCircle
 10
69.85000000000001
 20
-418.9080894608712
 30
0.0
 40
5.000000000000001
100
AcDbArc
 50
191.5369590328171
 51
205.841932763168
  0
ARC
  5
2A0
330
A
100
AcDbEntity
  8
0
  6
Continuous
 62
     7
100
AcDbCircle
 10
69.85000000000001
 20
-418.9080894608712
 30
0.0
 40
5.000000000000003
100
AcDbArc
 50
334.1580672368337
 51
348.463040967186
  0
LWPOLYLINE
  5
2A1
330
A
100
AcDbEntity
  8
0
  6
Continuous
 62
     7
100
AcDbPolyline
 90
       12
 70
   128
 43
0.0
 10
75.38999999999986
 20
-375.2036631050164
 10
75.30214339651156
 20
-375.7909731616714
 10
75.07136252294798
 20
-376.1035378051392
 10
74.74803426629765
 20
-376.125523529139
 10
74.43394289719147
 20
-375.7700774648102
 10
74.33672835071492
 20
-375.2320451633936
 10
74.419159459256
 20
-374.5091803987029
 10
74.639538766209
 20
-373.6888620396467
 10
74.96311180054068
 20
-372.6793056140316
 10
75.27179929802037
 20
-371.5579207168153
 10
75.38654212043709
 20
-370.7500254102302
 10
75.38999999999984
 20
-370.6074690273038
  0
LWPOLYLINE
  5
2AF
330
A
100
AcDbEntity
  8
0
  6
Continuous
 62
     7
100
AcDbPolyline
 90
        3
 70
   128
 43
0.0
 10
64.30999999999986
 20
-375.2036631050164
 10
64.49877092235837
 20
-374.1897727365335
 10
64.84999999999985
 20
-373.5167131946752
  0
LWPOLYLINE
  5
2B4
330
A
100
AcDbEntity
  8
0
  6
Continuous
 62
     7
100
AcDbPolyline
 90
        3
 70
   128
 43
0.0
 10
74.84999999999985
 20
-373.5167131946751
 10
75.20122907764127
 20
-374.1897727365333
 10
75.38999999999986
 20
-375.2036631050164
  0
LWPOLYLINE
  5
2B9
330
A
100
AcDbEntity
  8
0
  6
Continuous
 62
     7
100
AcDbPolyline
 90
       12
 70
   128
 43
0.0
 10
64.30999999999984
 20
-370.6074690273039
 10
64.39785660348815
 20
-371.4099304510541
 10
64.62863747705174
 20
-372.326362512398
 10
64.95196573370205
 20
-373.346444662382
 10
65.26605710280823
 20
-374.4408427340618
 10
65.36327164928481
 20
-375.1749261103433
 10
65.28084054074371
 20
-375.7323877924922
 10
65.06046123379071
 20
-376.0597612753886
 10
64.73688819945905
 20
-376.1476805317216
 10
64.42820070197935
 20
-375.862989270977
 10
64.31345787956264
 20
-375.3378786448871
 10
64.30999999999986
 20
-375.2036631050164
  0
LWPOLYLINE
  5
2C7
330
A
100
AcDbEntity
  8
0
  6
Continuous
 62
     7
100
AcDbPolyline
 90
        6
 70
   128
 43
0.0
 10
70.44999999999986
 20
-376.7998952766917
 10
70.60710326363099
 20
-376.7861842287856
 10
70.79471043213023
 20
-376.7655610272593
 10
70.98120804443373
 20
-376.7404042870116
 10
71.16637706032112
 20
-376.7107435544685
 10
71.34999999999985
 20
-376.6766136659669
  0
LWPOLYLINE
  5
2CF
330
A
100
AcDbEntity
  8
0
  6
Continuous
 62
     7
100
AcDbPolyline
 90
        6
 70
   128
 43
0.0
 10
68.34999999999986
 20
-376.6766136659658
 10
68.53362293967858
 20
-376.7107435544687
 10
68.71879195556599
 20
-376.7404042870116
 10
68.90528956786948
 20
-376.7655610272594
 10
69.09289673636873
 20
-376.7861842287857
 10
69.24999999999987
 20
-376.7998952766917
  0
LWPOLYLINE
  5
2D7
330
A
100
AcDbEntity
  8
0
  6
Continuous
 62
     7
100
AcDbPolyline
 90
        3
 70
   128
 43
0.0
 10
74.84999999999995
 20
-403.1695938382865
 10
75.321306210933
 20
-402.0084720265336
 10
75.31679406929026
 20
-401.3740726879377
  0
LWPOLYLINE
  5
2DC
330
A
100
AcDbEntity
  8
0
  6
Continuous
 62
     7
100
AcDbPolyline
 90
        4
 70
   128
 43
0.0
 10
64.3559759627313
 20
-401.367464555464
 10
64.32101877630373
 20
-401.6073674250592
 10
64.6729667156758
 20
-402.9168455642248
 10
64.84999999999996
 20
-403.2019133444225
  0
LINE
  5
2E2
330
A
100
AcDbEntity
  8
0
  6
Continuous
 62
     7
100
AcDbLine
 10
68.34999999999986
 20
-376.8229376339335
 30
0.0
 11
68.3499999999999
 21
-386.2120249304595
 31
0.0
  0
LINE
  5
2E3
330
A
100
AcDbEntity
  8
0
  6
Continuous
 62
     7
100
AcDbLine
 10
71.34999999999985
 20
-376.8229376339348
 30
0.0
 11
71.3499999999999
 21
-386.2120249304594
 31
0.0
  0
LINE
  5
2E4
330
A
100
AcDbEntity
  8
0
  6
Continuous
 62
     7
100
AcDbLine
 10
71.34999999999985
 20
-376.6766136659669
 30
0.0
 11
71.34999999999985
 21
-376.8229376339348
 31
0.0
  0
LINE
  5
2E5
330
A
100
AcDbEntity
  8
0
  6
Continuous
 62
     7
100
AcDbLine
 10
68.34999999999986
 20
-376.8229376339335
 30
0.0
 11
68.34999999999986
 21
-376.6766136659658
 31
0.0
  0
LINE
  5
2E6
330
A
100
AcDbEntity
  8
0
  6
Continuous
 62
     7
100
AcDbLine
 10
74.84999999999986
 20
-375.9055660661601
 30
0.0
 11
74.84999999999985
 21
-373.0368660454106
 31
0.0
  0
LINE
  5
2E7
330
A
100
AcDbEntity
  8
0
  6
Continuous
 62
     7
100
AcDbLine
 10
64.84999999999985
 20
-373.0231040672055
 30
0.0
 11
64.84999999999986
 21
-375.9055660661601
 31
0.0
  0
LINE
  5
2E8
330
A
100
AcDbEntity
  8
0
  6
Continuous
 62
     7
100
AcDbLine
 10
78.84999999999992
 20
-390.9080894608696
 30
0.0
 11
78.85000000000002
 21
-419.9080894608711
 31
0.0
  0
LINE
  5
2E9
330
A
100
AcDbEntity
  8
0
  6
Continuous
 62
     7
100
AcDbLine
 10
83.85000000000003
 20
-426.9080894608696
 30
0.0
 11
83.8499999999999
 21
-390.9080894608696
 31
0.0
  0
LINE
  5
2EA
330
A
100
AcDbEntity
  8
0
  6
Continuous
 62
     7
100
AcDbLine
 10
75.85
 20
-419.9080894608711
 30
0.0
 11
75.84999999999999
 21
-414.514212547473
 31
0.0
  0
LINE
  5
2EB
330
A
100
AcDbEntity
  8
0
  6
Continuous
 62
     7
100
AcDbLine
 10
75.84999999999997
 20
-405.302538185407
 30
0.0
 11
75.84999999999993
 21
-397.8280894608696
 31
0.0
  0
LINE
  5
2EC
330
A
100
AcDbEntity
  8
0
  6
Continuous
 62
     7
100
AcDbLine
 10
63.84999999999994
 20
-397.8280894608697
 30
0.0
 11
63.84999999999997
 21
-405.3025381854071
 31
0.0
  0
LINE
  5
2ED
330
A
100
AcDbEntity
  8
0
  6
Continuous
 62
     7
100
AcDbLine
 10
63.84999999999998
 20
-414.514212547473
 30
0.0
 11
63.85000000000001
 21
-419.9880894608695
 31
0.0
  0
ARC
  5
2EE
330
A
100
AcDbEntity
  8
0
  6
Continuous
 62
     7
100
AcDbCircle
 10
69.84999999999999
 20
-414.4480894608695
 30
0.0
 40
7.000000000000007
100
AcDbArc
 50
158.8585481843246
 51
180.0000000000004
  0
ARC
  5
2EF
330
A
100
AcDbEntity
  8
0
  6
Continuous
 62
     7
100
AcDbCircle
 10
69.84999999999999
 20
-414.4480894608695
 30
0.0
 40
6.99999999999999
100
AcDbArc
 50
328.9972808661271
 51
356.2321336109032
  0
ARC
  5
2F0
330
A
100
AcDbEntity
  8
0
  6
Continuous
 62
     7
100
AcDbCircle
 10
69.84999999999999
 20
-414.4480894608695
 30
0.0
 40
7.000000000000007
100
AcDbArc
 50
180.0000000000004
 51
211.002719133875
  0
ARC
  5
2F1
330
A
100
AcDbEntity
  8
0
  6
Continuous
 62
     7
100
AcDbCircle
 10
69.84999999999999
 20
-414.4480894608695
 30
0.0
 40
7.250000000000004
100
AcDbArc
 50
325.8515756550539
 51
356.3622380394948
  0
ARC
  5
2F2
330
A
100
AcDbEntity
  8
0
  6
Continuous
 62
     7
100
AcDbCircle
 10
69.84999999999999
 20
-414.4480894608695
 30
0.0
 40
7.250000000000017
100
AcDbArc
 50
155.8965156409671
 51
214.1484243449482
  0
ARC
  5
2F3
330
A
100
AcDbEntity
  8
0
  6
Continuous
 62
     7
100
AcDbCircle
 10
69.84999999999999
 20
-500.4480894608693
 30
0.0
 40
115.0
100
AcDbArc
 50
92.76123061301765
 51
266.5102735791545
  0
ARC
  5
2F4
330
A
100
AcDbEntity
  8
0
  6
Continuous
 62
     7
100
AcDbCircle
 10
69.84999999999999
 20
-500.4480894608693
 30
0.0
 40
115.0
100
AcDbArc
 50
273.4897264208479
 51
87.23876938698246
  0
ARC
  5
2F5
330
A
100
AcDbEntity
  8
0
  6
PHANTOM
 62
     7
100
AcDbCircle
 10
69.85000000000177
 20
-924.408089460871
 30
0.0
 40
9.549678817091837
100
AcDbArc
 50
306.1352676032867
 51
321.0756767176977
  0
ARC
  5
2F6
330
A
100
AcDbEntity
  8
0
  6
PHANTOM
 62
     7
100
AcDbCircle
 10
69.85000000000177
 20
-924.408089460871
 30
0.0
 40
9.549678817091793
100
AcDbArc
 50
218.9243232823042
 51
233.8647323967192
  0
LWPOLYLINE
  5
2F7
330
A
100
AcDbEntity
  8
0
  6
PHANTOM
 62
     7
100
AcDbPolyline
 90
        9
 70
   128
 43
0.0
 10
59.13163685572046
 20
-924.408089460871
 10
59.14358462386693
 20
-924.9149754368533
 10
59.17935126376852
 20
-925.4207419670628
 10
59.23885859950034
 20
-925.9242770084041
 10
59.27861421332835
 20
-926.1803487678484
 10
59.45328290588982
 20
-927.014763400423
 10
59.51704165221651
 20
-927.256624018319
 10
59.56037138149172
 20
-927.4092311412701
 10
59.8500000000018
 20
-928.1477280045649
  0
LWPOLYLINE
  5
302
330
A
100
AcDbEntity
  8
0
  6
PHANTOM
 62
     7
100
AcDbPolyline
 90
        4
 70
   128
 43
0.0
 10
61.00894471425983
 20
-930.4080894608709
 10
61.27530948457675
 20
-930.8391073474398
 10
62.8083678866366
 20
-932.4889904063233
 10
64.13300458359302
 20
-933.4038781794737
  0
LWPOLYLINE
  5
308
330
A
100
AcDbEntity
  8
0
  6
PHANTOM
 62
     7
100
AcDbPolyline
 90
        6
 70
   128
 43
0.0
 10
75.57138298951035
 20
-933.4696428100716
 10
75.61316382873144
 20
-933.4453888286295
 10
76.1058073816975
 20
-933.1116774827046
 10
76.87973524537709
 20
-932.4994721240967
 10
77.85986303939321
 20
-931.5305309653822
 10
78.70285989772773
 20
-930.4080894608709
  0
LWPOLYLINE
  5
310
330
A
100
AcDbEntity
  8
0
  6
PHANTOM
 62
     7
100
AcDbPolyline
 90
        8
 70
   128
 43
0.0
 10
79.85000000000181
 20
-928.2324388881891
 10
80.04776177080408
 20
-927.7079885966001
 10
80.09835080509741
 20
-927.5473317728826
 10
80.13506314891808
 20
-927.4248465749737
 10
80.32495047642385
 20
-926.6799042190418
 10
80.45750292770875
 20
-925.9492498589729
 10
80.54228948730393
 20
-925.1591382881349
 10
80.56836314428307
 20
-924.408089460871
  0
LWPOLYLINE
  5
31A
330
A
100
AcDbEntity
  8
0
  6
PHANTOM
 62
     7
100
AcDbPolyline
 90
        4
 70
   128
 43
0.0
 10
80.56836314428307
 20
-924.408089460871
 10
80.55641535710607
 20
-923.9012034856843
 10
80.52064871725162
 20
-923.3954369566228
 10
80.46305443016867
 20
-922.9080894608708
  0
LWPOLYLINE
  5
320
330
A
100
AcDbEntity
  8
0
  6
PHANTOM
 62
     7
100
AcDbPolyline
 90
        8
 70
   128
 43
0.0
 10
59.85000000000177
 20
-920.5837400418534
 10
59.6522383714091
 20
-921.1081898855709
 10
59.60164926527601
 20
-921.2688469191087
 10
59.56493685109565
 20
-921.3913323467512
 10
59.3750495235672
 20
-922.1362747024288
 10
59.24249707252221
 20
-922.8669290607145
 10
59.1577105839195
 20
-923.6570396119262
 10
59.13163685572046
 20
-924.408089460871
  0
ARC
  5
32A
330
A
100
AcDbEntity
  8
0
  6
PHANTOM
 62
     7
100
AcDbCircle
 10
69.85000000000177
 20
-924.408089460871
 30
0.0
 40
9.243442456779751
100
AcDbArc
 50
307.3442806367042
 51
319.5255558372318
  0
ARC
  5
32B
330
A
100
AcDbEntity
  8
0
  6
PHANTOM
 62
     7
100
AcDbCircle
 10
69.85000000000177
 20
-924.408089460871
 30
0.0
 40
9.243442456779714
100
AcDbArc
 50
220.47444416277
 51
232.6557193633019
  0
LWPOLYLINE
  5
32C
330
A
100
AcDbEntity
  8
0
  6
PHANTOM
 62
     7
100
AcDbPolyline
 90
        9
 70
   128
 43
0.0
 10
74.34999999999991
 20
-402.5421171499047
 10
73.48649891257192
 20
-403.2541836479086
 10
72.40354689783361
 20
-403.7959061123322
 10
71.16649660116742
 20
-404.1345933475997
 10
69.84999999999984
 20
-404.2498066763913
 10
68.53350339883228
 20
-404.1345933475997
 10
67.2964531021661
 20
-403.7959061123321
 10
66.21350108742783
 20
-403.2541836479084
 10
65.35000000000002
 20
-402.5421171499045
  0
LINE
  5
337
330
A
100
AcDbEntity
  8
0
  6
PHANTOM
 62
     7
100
AcDbLine
 10
72.34999999999992
 20
-397.387799421931
 30
0.0
 11
72.34999999999994
 21
-400.6466335692908
 31
0.0
  0
LINE
  5
338
330
A
100
AcDbEntity
  8
0
  6
PHANTOM
 62
     7
100
AcDbLine
 10
67.34999999999996
 20
-400.646633569291
 30
0.0
 11
67.34999999999996
 21
-397.3877994219309
 31
0.0
  0
LWPOLYLINE
  5
339
330
A
100
AcDbEntity
  8
0
  6
PHANTOM
 62
     7
100
AcDbPolyline
 90
        9
 70
   128
 43
0.0
 10
72.34999999999992
 20
-397.387799421931
 10
71.82473970340629
 20
-397.0595419443712
 10
71.21477678342902
 20
-396.8152418895569
 10
70.5478861219114
 20
-396.6636769802894
 10
69.84999999999992
 20
-396.6130534395767
 10
69.15315568031594
 20
-396.6635243470807
 10
68.48522321657084
 20
-396.815241889557
 10
67.87563239137482
 20
-397.0592565416372
 10
67.34999999999994
 20
-397.387799421931
  0
LWPOLYLINE
  5
344
330
A
100
AcDbEntity
  8
0
  6
PHANTOM
 62
     7
100
AcDbPolyline
 90
        6
 70
   128
 43
0.0
 10
70.45000000000005
 20
-433.8041685319539
 10
71.23563756227882
 20
-433.6577217156556
 10
72.47043530222288
 20
-432.9792575888013
 10
73.01778642692756
 20
-432.5303748415595
 10
73.51225374278803
 20
-432.0333677228648
 10
74.3500000093329
 20
-430.926288537463
  0
LWPOLYLINE
  5
34C
330
A
100
AcDbEntity
  8
0
  6
PHANTOM
 62
     7
100
AcDbPolyline
 90
        5
 70
   128
 43
0.0
 10
65.34999999998627
 20
-430.9262885055494
 10
66.18549516694071
 20
-432.0308813623683
 10
67.2241868081848
 20
-432.9753184978255
 10
68.46006518622427
 20
-433.65611002384
 10
69.25000000000008
 20
-433.8038185893288
  0
LINE
  5
353
330
A
100
AcDbEntity
  8
0
  6
PHANTOM
 62
     7
100
AcDbLine
 10
71.34999999999998
 20
-410.7905444023674
 30
0.0
 11
69.84999999999998
 21
-410.7905444023672
 31
0.0
  0
LINE
  5
354
330
A
100
AcDbEntity
  8
0
  6
PHANTOM
 62
     7
100
AcDbLine
 10
69.84999999999998
 20
-410.7905444023672
 30
0.0
 11
68.34999999999998
 21
-410.7905444023669
 31
0.0
  0
LWPOLYLINE
  5
355
330
A
100
AcDbEntity
  8
0
  6
PHANTOM
 62
     7
100
AcDbPolyline
 90
        3
 70
   128
 43
0.0
 10
74.35000000000005
 20
-434.7730063170174
 10
72.194992705158
 20
-435.7458100176976
 10
70.45000000000005
 20
-436.0043167066526
  0
LWPOLYLINE
  5
35A
330
A
100
AcDbEntity
  8
0
  6
PHANTOM
 62
     7
100
AcDbPolyline
 90
        3
 70
   128
 43
0.0
 10
69.25000000000008
 20
-436.0045089123068
 10
67.50769342221672
 20
-435.7466130907883
 10
65.34999954207115
 20
-434.7730069991317
  0
LWPOLYLINE
  5
35F
330
A
100
AcDbEntity
  8
0
  6
PHANTOM
 62
     7
100
AcDbPolyline
 90
        3
 70
   128
 43
0.0
 10
65.35000000000123
 20
-447.6395023068384
 10
67.50604208553761
 20
-447.1209818898138
 10
69.25000000000013
 20
-446.9719997340721
  0
LWPOLYLINE
  5
364
330
A
100
AcDbEntity
  8
0
  6
PHANTOM
 62
     7
100
AcDbPolyline
 90
        3
 70
   128
 43
0.0
 10
70.45000000000008
 20
-446.9714180626209
 10
72.19766402370729
 20
-447.1216100644607
 10
74.34999949517174
 20
-447.6395026817455
  0
LWPOLYLINE
  5
369
330
A
100
AcDbEntity
  8
0
  6
PHANTOM
 62
     7
100
AcDbPolyline
 90
        5
 70
   128
 43
0.0
 10
74.35000000907392
 20
-450.7668093150447
 10
73.51179369502961
 20
-450.1842689761168
 10
72.4693147451337
 20
-449.5995530549057
 10
71.23367247857069
 20
-449.137694751387
 10
70.4500000000001
 20
-449.033214658479
  0
LWPOLYLINE
  5
370
330
A
100
AcDbEntity
  8
0
  6
PHANTOM
 62
     7
100
AcDbPolyline
 90
        6
 70
   128
 43
0.0
 10
69.25000000000014
 20
-449.0340299674366
 10
68.46232722920176
 20
-449.1387511652692
 10
67.22659992824427
 20
-449.6015133181528
 10
66.683336835928
 20
-449.8858233831726
 10
66.18814628103757
 20
-450.1843072960406
 10
65.35000000541678
 20
-450.7668093966983
  0
LWPOLYLINE
  5
378
330
A
100
AcDbEntity
  8
0
  6
PHANTOM
 62
     7
100
AcDbPolyline
 90
       20
 70
   128
 43
0.0
 10
69.84999999999982
 20
-367.4537727832117
 10
68.70056387901525
 20
-367.3181447780199
 10
67.6756869970784
 20
-366.9259581612926
 10
66.88643066695046
 20
-366.3197124383545
 10
66.41832305857459
 20
-365.5651037401574
 10
66.32209089475622
 20
-364.7439056281115
 10
66.60816242364091
 20
-363.9451076598585
 10
67.24553735621694
 20
-363.2552719898862
 10
68.16514622864859
 20
-362.7491530169393
 10
69.26733515040604
 20
-362.4815965849817
 10
70.43266484959364
 20
-362.4815965849817
 10
71.53485377135108
 20
-362.7491530169393
 10
72.45446264378272
 20
-363.2552719898862
 10
73.09183757635873
 20
-363.9451076598585
 10
73.37790910524344
 20
-364.7439056281115
 10
73.28167694142504
 20
-365.5651037401574
 10
72.81356933304916
 20
-366.3197124383545
 10
72.02431300292122
 20
-366.9259581612927
 10
70.99943612098435
 20
-367.3181447780199
 10
69.84999999999982
 20
-367.4537727832117
  0
LWPOLYLINE
  5
38E
330
A
100
AcDbEntity
  8
0
  6
PHANTOM
 62
     7
100
AcDbPolyline
 90
        7
 70
   128
 43
0.0
 10
69.84999999999984
 20
-370.2821999079579
 10
68.41614249013186
 20
-370.1487187086673
 10
67.07999999999981
 20
-369.7573716339391
 10
65.93262843222635
 20
-369.1348283401844
 10
65.05221926303402
 20
-368.3235141240711
 10
64.49877092235836
 20
-367.3787187086673
 10
64.3100030993326
 20
-366.3689720461122
  0
LWPOLYLINE
  5
397
330
A
100
AcDbEntity
  8
0
  6
PHANTOM
 62
     7
100
AcDbPolyline
 90
        8
 70
   128
 43
0.0
 10
75.38996208489094
 20
-366.3503352734118
 10
75.38999999999984
 20
-366.3648283401844
 10
75.20122907764125
 20
-367.3787187086673
 10
74.6477807369656
 20
-368.3235141240711
 10
73.76737156777327
 20
-369.1348283401844
 10
72.61999999999978
 20
-369.7573716339391
 10
71.28385750986774
 20
-370.1487187086673
 10
69.84999999999984
 20
-370.2821999079579
  0
LINE
  5
3A1
330
A
100
AcDbEntity
  8
0
  6
PHANTOM
 62
     7
100
AcDbLine
 10
69.24999999999987
 20
-376.8229376339335
 30
0.0
 11
68.34999999999986
 21
-376.8229376339335
 31
0.0
  0
LINE
  5
3A2
330
A
100
AcDbEntity
  8
0
  6
PHANTOM
 62
     7
100
AcDbLine
 10
71.34999999999985
 20
-376.8229376339348
 30
0.0
 11
70.44999999999986
 21
-376.8229376339334
 31
0.0
  0
LINE
  5
3A3
330
A
100
AcDbEntity
  8
0
  6
PHANTOM
 62
     7
100
AcDbLine
 10
75.38999999999986
 20
-375.2036631050164
 30
0.0
 11
74.84999999999986
 21
-375.2036631050164
 31
0.0
  0
LINE
  5
3A4
330
A
100
AcDbEntity
  8
0
  6
PHANTOM
 62
     7
100
AcDbLine
 10
64.84999999999985
 20
-375.2036631050164
 30
0.0
 11
64.30999999999986
 21
-375.2036631050164
 31
0.0
  0
ARC
  5
3A5
330
A
100
AcDbEntity
  8
0
  6
PHANTOM
 62
     7
100
AcDbCircle
 10
69.84999999999999
 20
-414.4480894608695
 30
0.0
 40
12.88057611510195
100
AcDbArc
 50
290.4483739090478
 51
292.8413876989164
  0
ARC
  5
3A6
330
A
100
AcDbEntity
  8
0
  6
PHANTOM
 62
     7
100
AcDbCircle
 10
69.84999999999999
 20
-414.4480894608695
 30
0.0
 40
12.88057611510194
100
AcDbArc
 50
117.7631533202574
 51
249.5516260909542
  0
ARC
  5
3A7
330
A
100
AcDbEntity
  8
0
  6
PHANTOM
 62
     7
100
AcDbCircle
 10
69.84999999999999
 20
-414.4480894608695
 30
0.0
 40
13.86853598087135
100
AcDbArc
 50
56.31500151491028
 51
64.36516398691345
  0
ARC
  5
3A8
330
A
100
AcDbEntity
  8
0
  6
PHANTOM
 62
     7
100
AcDbCircle
 10
69.84999999999999
 20
-414.4480894608695
 30
0.0
 40
13.86853598087132
100
AcDbArc
 50
289.1037981657614
 51
291.1326456000024
  0
ARC
  5
3A9
330
A
100
AcDbEntity
  8
0
  6
PHANTOM
 62
     7
100
AcDbCircle
 10
69.84999999999999
 20
-414.4480894608695
 30
0.0
 40
13.86853598087135
100
AcDbArc
 50
115.6348360130869
 51
251.0110365117067
  0
ARC
  5
3AA
330
A
100
AcDbEntity
  8
0
  6
PHANTOM
 62
     7
100
AcDbCircle
 10
69.84999999999999
 20
-414.4480894608693
 30
0.0
 40
19.73526235791235
100
AcDbArc
 50
300.4447473980068
 51
44.81468508623992
  0
ARC
  5
3AB
330
A
100
AcDbEntity
  8
0
  6
PHANTOM
 62
     7
100
AcDbCircle
 10
69.84999999999999
 20
-414.4480894608693
 30
0.0
 40
19.73526235791233
100
AcDbArc
 50
62.86835559618017
 51
73.69706935781239
  0
ARC
  5
3AC
330
A
100
AcDbEntity
  8
0
  6
PHANTOM
 62
     7
100
AcDbCircle
 10
69.84999999999999
 20
-414.4480894608693
 30
0.0
 40
19.73526235791234
100
AcDbArc
 50
106.302930642188
 51
255.3239491984844
  0
ARC
  5
3AD
330
A
100
AcDbEntity
  8
0
  6
PHANTOM
 62
     7
100
AcDbCircle
 10
69.84999999999999
 20
-414.4480894608693
 30
0.0
 40
21.71118208945113
100
AcDbArc
 50
104.7835431358864
 51
256.6854965103004
  0
ARC
  5
3AE
330
A
100
AcDbEntity
  8
0
  6
PHANTOM
 62
     7
100
AcDbCircle
 10
69.84999999999999
 20
-414.4480894608693
 30
0.0
 40
21.71118208945108
100
AcDbArc
 50
65.51009347665422
 51
75.21645686411391
  0
ARC
  5
3AF
330
A
100
AcDbEntity
  8
0
  6
PHANTOM
 62
     7
100
AcDbCircle
 10
69.84999999999999
 20
-414.4480894608693
 30
0.0
 40
21.71118208945106
100
AcDbArc
 50
297.4253243504124
 51
49.84714374407629
  0
ARC
  5
3B0
330
A
100
AcDbEntity
  8
0
  6
PHANTOM
 62
     7
100
AcDbCircle
 10
69.84999999999999
 20
-500.4480894608693
 30
0.0
 40
113.5
100
AcDbArc
 50
273.5359044077992
 51
87.20224851113863
  0
ARC
  5
3B1
330
A
100
AcDbEntity
  8
0
  6
PHANTOM
 62
     7
100
AcDbCircle
 10
69.84999999999999
 20
-500.4480894608693
 30
0.0
 40
113.5000000000001
100
AcDbArc
 50
92.79775148886148
 51
266.4640955922031
  0
LINE
  5
3B2
330
A
100
AcDbEntity
  8
0
  6
Continuous
 62
     7
100
AcDbLine
 10
960.2292117700223
 20
257.5647366636839
 30
0.0
 11
957.7368349988912
 21
298.3147366636838
 31
0.0
  0
LINE
  5
3B3
330
A
100
AcDbEntity
  8
0
  6
Continuous
 62
     7
100
AcDbLine
 10
912.7368349988927
 20
298.3147366636838
 30
0.0
 11
910.2444582277616
 21
257.5647366636839
 31
0.0
  0
LINE
  5
3B4
330
A
100
AcDbEntity
  8
0
  6
Continuous
 62
     7
100
AcDbLine
 10
957.7368349988912
 20
298.3147366636838
 30
0.0
 11
950.2355810052714
 21
305.8159906573042
 31
0.0
  0
LINE
  5
3B5
330
A
100
AcDbEntity
  8
0
  6
Continuous
 62
     7
100
AcDbLine
 10
920.2380889925125
 20
305.8159906573042
 30
0.0
 11
912.7368349988927
 21
298.3147366636838
 31
0.0
  0
LINE
  5
3B6
330
A
100
AcDbEntity
  8
0
  6
Continuous
 62
     7
100
AcDbLine
 10
1000.184450200161
 20
507.6740070084293
 30
0.0
 11
935.5594604967361
 21
399.7885984785142
 31
0.0
  0
LINE
  5
3B7
330
A
100
AcDbEntity
  8
0
  6
Continuous
 62
     7
100
AcDbLine
 10
941.2320293682608
 20
388.9681566993463
 30
0.0
 11
1017.204474141353
 21
497.1552756401482
 31
0.0
  0
ARC
  5
3B8
330
A
100
AcDbEntity
  8
0
  6
Continuous
 62
     7
100
AcDbCircle
 10
1008.76310472592
 20
502.5352633363161
 30
0.0
 40
10.00000000000003
100
AcDbArc
 50
326.9671880051315
 51
0.0
  0
ARC
  5
3B9
330
A
100
AcDbEntity
  8
0
  6
Continuous
 62
     7
100
AcDbCircle
 10
1008.76310472592
 20
502.5352633363161
 30
0.0
 40
10.0
100
AcDbArc
 50
0.0
 51
149.089366826679
  0
LINE
  5
3BA
330
A
100
AcDbEntity
  8
0
  6
Continuous
 62
     7
100
AcDbLine
 10
929.7274132811974
 20
376.8540482931876
 30
0.0
 11
931.7368349988912
 21
325.8147366636917
 31
0.0
  0
LINE
  5
3BB
330
A
100
AcDbEntity
  8
0
  6
Continuous
 62
     7
100
AcDbLine
 10
938.7368349988927
 20
325.8147366636917
 30
0.0
 11
941.1980060323024
 21
388.3284809123868
 31
0.0
  0
LINE
  5
3BC
330
A
100
AcDbEntity
  8
0
  6
Continuous
 62
     7
100
AcDbLine
 10
883.7368349988917
 20
383.8147366636839
 30
0.0
 11
917.4862154488227
 21
383.8147366636839
 31
0.0
  0
LINE
  5
3BD
330
A
100
AcDbEntity
  8
0
  6
Continuous
 62
     7
100
AcDbLine
 10
917.4862154488227
 20
394.8147366636839
 30
0.0
 11
883.7368349988917
 21
394.8147366636839
 31
0.0
  0
ARC
  5
3BE
330
A
100
AcDbEntity
  8
0
  6
Continuous
 62
     7
100
AcDbCircle
 10
930.2368349988919
 20
307.3147366636836
 30
0.0
 40
1.500000000000113
100
AcDbArc
 50
270.0000000000008
 51
0.0
  0
ARC
  5
3BF
330
A
100
AcDbEntity
  8
0
  6
Continuous
 62
     7
100
AcDbCircle
 10
940.236834998892
 20
307.3147366636838
 30
0.0
 40
1.5
100
AcDbArc
 50
180.0000000000004
 51
270.0000000000008
  0
LINE
  5
3C0
330
A
100
AcDbEntity
  8
0
  6
Continuous
 62
     7
100
AcDbLine
 10
931.7368349988912
 20
325.8147366636917
 30
0.0
 11
931.7368349988919
 21
307.3147366636837
 31
0.0
  0
LINE
  5
3C1
330
A
100
AcDbEntity
  8
0
  6
Continuous
 62
     7
100
AcDbLine
 10
938.736834998892
 20
307.3147366636837
 30
0.0
 11
938.7368349988927
 21
325.8147366636917
 31
0.0
  0
LINE
  5
3C2
330
A
100
AcDbEntity
  8
0
  6
Continuous
 62
     7
100
AcDbLine
 10
1025.026834998892
 20
122.5647366636838
 30
0.0
 11
991.8676546061403
 21
257.5647366636839
 31
0.0
  0
LINE
  5
3C3
330
A
100
AcDbEntity
  8
0
  6
Continuous
 62
     7
100
AcDbLine
 10
878.1860153916435
 20
257.5647366636839
 30
0.0
 11
845.0268349988919
 21
122.5647366636838
 31
0.0
  0
LINE
  5
3C4
330
A
100
AcDbEntity
  8
0
  6
Continuous
 62
     7
100
AcDbLine
 10
845.0268349988919
 20
122.5647366636838
 30
0.0
 11
845.9979692788015
 21
122.3262032061052
 31
0.0
  0
LINE
  5
3C5
330
A
100
AcDbEntity
  8
0
  6
Continuous
 62
     7
100
AcDbLine
 10
1024.055700718982
 20
122.3262032061052
 30
0.0
 11
1025.026834998892
 21
122.5647366636838
 31
0.0
  0
LWPOLYLINE
  5
3C6
330
A
100
AcDbEntity
  8
0
  6
Continuous
 62
     7
100
AcDbPolyline
 90
        5
 70
   128
 43
0.0
 10
417.1372216750226
 20
364.4173095792114
 10
416.1342669914358
 20
363.0581135666884
 10
414.8526549393042
 20
361.9577670950024
 10
413.3573014362058
 20
361.1721401274863
 10
411.72405857611
 20
360.7410837469203
  0
LWPOLYLINE
  5
3CD
330
A
100
AcDbEntity
  8
0
  6
Continuous
 62
     7
100
AcDbPolyline
 90
        4
 70
   128
 43
0.0
 10
413.9146164772975
 20
345.9219435196772
 10
413.8288496356556
 20
345.6844675114445
 10
413.9479703966877
 20
345.0326257586205
 10
414.3368349985508
 20
344.314736663684
  0
LINE
  5
3D3
330
A
100
AcDbEntity
  8
0
  6
Continuous
 62
     7
100
AcDbLine
 10
412.7368349988918
 20
344.3147366636838
 30
0.0
 11
412.7368349988918
 21
-45.68526333631617
 31
0.0
  0
LINE
  5
3D4
330
A
100
AcDbEntity
  8
0
  6
Continuous
 62
     7
100
AcDbLine
 10
883.7368349988919
 20
396.3147366636839
 30
0.0
 11
493.7368349988918
 21
396.3147366636839
 31
0.0
  0
LWPOLYLINE
  5
3D5
330
A
100
AcDbEntity
  8
0
  6
Continuous
 62
     7
100
AcDbPolyline
 90
        5
 70
   128
 43
0.0
 10
444.734681103806
 20
377.6758295331004
 10
445.2011417848281
 20
378.0465831387657
 10
445.7420679135146
 20
378.2964568806463
 10
446.3267604616195
 20
378.41122761754
 10
446.9220052574033
 20
378.3843755987692
  0
LWPOLYLINE
  5
3DC
330
A
100
AcDbEntity
  8
0
  6
Continuous
 62
     7
100
AcDbPolyline
 90
        5
 70
   128
 43
0.0
 10
446.9220060421733
 20
400.2450978674092
 10
446.3267607070886
 20
400.2182459445542
 10
445.7420678751597
 20
400.3330166593384
 10
445.2011416711536
 20
400.5828903280121
 10
444.7346810944322
 20
400.9536438156866
  0
LWPOLYLINE
  5
3E3
330
A
100
AcDbEntity
  8
0
  6
Continuous
 62
     7
100
AcDbPolyline
 90
        5
 70
   128
 43
0.0
 10
459.7967353391279
 20
394.7147366634192
 10
459.2047354067388
 20
394.7824118127659
 10
458.6455553589263
 20
394.9882170585217
 10
458.1509599719228
 20
395.3205021890237
 10
457.7490453448914
 20
395.7603913767023
  0
LWPOLYLINE
  5
3EA
330
A
100
AcDbEntity
  8
0
  6
Continuous
 62
     7
100
AcDbPolyline
 90
        5
 70
   128
 43
0.0
 10
437.8064739056365
 20
387.4999070928841
 10
437.833325934464
 20
386.9046622177655
 10
437.7185552078052
 20
386.3199696138356
 10
437.4686814695374
 20
385.779043452239
 10
437.0979278617223
 20
385.3125827621787
  0
LWPOLYLINE
  5
3F1
330
A
100
AcDbEntity
  8
0
  6
Continuous
 62
     7
100
AcDbPolyline
 90
        5
 70
   128
 43
0.0
 10
437.0979278535318
 20
393.3168905722954
 10
437.4686813409333
 20
392.8504299970582
 10
437.7185550105196
 20
392.3095037952988
 10
437.8333257268719
 20
391.7248109661768
 10
437.8064738059546
 20
391.1295656342671
  0
LWPOLYLINE
  5
3F8
330
A
100
AcDbEntity
  8
0
  6
Continuous
 62
     7
100
AcDbPolyline
 90
        5
 70
   128
 43
0.0
 10
457.7490453448914
 20
382.8690819506655
 10
458.1509599719228
 20
383.3089711383442
 10
458.6455553589263
 20
383.641256268846
 10
459.2047354067388
 20
383.847061514602
 10
459.796735339128
 20
383.9147366639484
  0
ARC
  5
3FF
330
A
100
AcDbEntity
  8
0
  6
Continuous
 62
     7
100
AcDbCircle
 10
415.2768349988918
 20
-98.82739896004716
 30
0.0
 40
15.54000000000002
100
AcDbArc
 50
360.0000000000008
 51
18.63646400258575
  0
LINE
  5
400
330
A
100
AcDbEntity
  8
0
  6
Continuous
 62
     7
100
AcDbLine
 10
382.115037075265
 20
-59.35820854823634
 30
0.0
 11
409.1554977082006
 21
-86.39866918117201
 31
0.0
  0
LINE
  5
401
330
A
100
AcDbEntity
  8
0
  6
Continuous
 62
     7
100
AcDbLine
 10
373.276202310433
 20
-50.51937378340449
 30
0.0
 11
377.5188429975523
 21
-54.76201447052381
 31
0.0
  0
LINE
  5
402
330
A
100
AcDbEntity
  8
0
  6
Continuous
 62
     7
100
AcDbLine
 10
383.6029442435274
 20
-45.17662944540496
 30
0.0
 11
381.11094544598
 21
-42.68463064785748
 31
0.0
  0
LINE
  5
403
330
A
100
AcDbEntity
  8
0
  6
Continuous
 62
     7
100
AcDbLine
 10
387.6516831719556
 20
-49.22536837383318
 30
0.0
 11
384.7381003715666
 21
-46.31178557344401
 31
0.0
  0
LINE
  5
404
330
A
100
AcDbEntity
  8
0
  6
Continuous
 62
     7
100
AcDbLine
 10
414.3368349988918
 20
-75.91052020076927
 30
0.0
 11
395.4298577650064
 21
-57.00354296688642
 31
0.0
  0
ARC
  5
405
330
A
100
AcDbEntity
  8
0
  6
Continuous
 62
     7
100
AcDbCircle
 10
374.6904158728062
 20
-49.10516022103145
 30
0.0
 40
2.000000000000006
100
AcDbArc
 50
135.0000000000003
 51
224.9999999999982
  0
ARC
  5
406
330
A
100
AcDbEntity
  8
0
  6
Continuous
 62
     7
100
AcDbCircle
 10
379.6967318836069
 20
-44.09884421023064
 30
0.0
 40
2.000000000000046
100
AcDbArc
 50
45.00000000000086
 51
134.9999999999968
  0
LINE
  5
407
330
A
100
AcDbEntity
  8
0
  6
Continuous
 62
     7
100
AcDbLine
 10
430.8168349988918
 20
-134.6852633363162
 30
0.0
 11
430.8168349988918
 21
-98.82739896004721
 31
0.0
  0
LINE
  5
408
330
A
100
AcDbEntity
  8
0
  6
Continuous
 62
     7
100
AcDbLine
 10
419.7368349988918
 20
-100.7652633363162
 30
0.0
 11
419.7368349988918
 21
-134.6852633363162
 31
0.0
  0
LINE
  5
409
330
A
100
AcDbEntity
  8
0
  6
Continuous
 62
     7
100
AcDbLine
 10
414.3368349988918
 20
-45.68526333631617
 30
0.0
 11
414.3368349988918
 21
-75.91052020076927
 31
0.0
  0
LINE
  5
40A
330
A
100
AcDbEntity
  8
0
  6
Continuous
 62
     7
100
AcDbLine
 10
425.1368349988918
 20
-80.01022328471952
 30
0.0
 11
425.1368349988918
 21
-45.68526333631617
 31
0.0
  0
LINE
  5
40B
330
A
100
AcDbEntity
  8
0
  6
Continuous
 62
     7
100
AcDbLine
 10
434.7368349988919
 20
-45.68526333631617
 30
0.0
 11
434.7368349988919
 21
344.3147366636838
 31
0.0
  0
LINE
  5
40C
330
A
100
AcDbEntity
  8
0
  6
Continuous
 62
     7
100
AcDbLine
 10
493.7368349988918
 20
374.3147366636837
 30
0.0
 11
883.7368349988919
 21
374.3147366636837
 31
0.0
  0
ARC
  5
40D
330
A
100
AcDbEntity
  8
0
  6
Continuous
 62
     7
100
AcDbCircle
 10
408.8560125399702
 20
424.3872330105362
 30
0.0
 40
1.999999999999935
100
AcDbArc
 50
135.0
 51
225.0000000000008
  0
ARC
  5
40E
330
A
100
AcDbEntity
  8
0
  6
Continuous
 62
     7
100
AcDbCircle
 10
413.6643386520386
 20
429.195559122605
 30
0.0
 40
1.999999999999895
100
AcDbArc
 50
45.00000000000116
 51
134.9999999999873
  0
LINE
  5
40F
330
A
100
AcDbEntity
  8
0
  6
Continuous
 62
     7
100
AcDbLine
 10
421.6192899403874
 20
424.0690349590025
 30
0.0
 11
415.0785522144117
 21
430.6097726849781
 31
0.0
  0
LINE
  5
410
330
A
100
AcDbEntity
  8
0
  6
Continuous
 62
     7
100
AcDbLine
 10
444.7471083697555
 20
400.9412165296346
 30
0.0
 11
429.397464533441
 21
416.2908603659519
 31
0.0
  0
ARC
  5
411
330
A
100
AcDbEntity
  8
0
  6
Continuous
 62
     7
100
AcDbCircle
 10
434.7368349988856
 20
354.1015332280906
 30
0.0
 40
20.39999999999299
100
AcDbArc
 50
134.9999999999947
 51
149.7394419921954
  0
LINE
  5
412
330
A
100
AcDbEntity
  8
0
  6
Continuous
 62
     7
100
AcDbLine
 10
437.1106064833282
 20
385.3252613849349
 30
0.0
 11
420.3118566626862
 21
368.5265115642925
 31
0.0
  0
LINE
  5
413
330
A
100
AcDbEntity
  8
0
  6
Continuous
 62
     7
100
AcDbLine
 10
427.9486098995009
 20
360.889758327478
 30
0.0
 11
444.7471194871406
 21
377.6882679151179
 31
0.0
  0
LINE
  5
414
330
A
100
AcDbEntity
  8
0
  6
Continuous
 62
     7
100
AcDbLine
 10
416.2806337424288
 20
414.1341846833318
 30
0.0
 11
437.1105934030026
 21
393.3042250227583
 31
0.0
  0
LINE
  5
415
330
A
100
AcDbEntity
  8
0
  6
Continuous
 62
     7
100
AcDbLine
 10
493.7368349988918
 20
394.7147366636838
 30
0.0
 11
459.7799828856576
 21
394.7147366636838
 31
0.0
  0
LINE
  5
416
330
A
100
AcDbEntity
  8
0
  6
Continuous
 62
     7
100
AcDbLine
 10
459.779982885422
 20
383.9147366636839
 30
0.0
 11
493.7368349988918
 21
383.9147366636839
 31
0.0
  0
LINE
  5
417
330
A
100
AcDbEntity
  8
0
  6
Continuous
 62
     7
100
AcDbLine
 10
407.4417989775971
 20
422.9730194481633
 30
0.0
 11
411.6844396647165
 21
418.730378761044
 31
0.0
  0
LINE
  5
418
330
A
100
AcDbEntity
  8
0
  6
Continuous
 62
     7
100
AcDbLine
 10
425.1368349988918
 20
344.3147366636838
 30
0.0
 11
425.1368349988918
 21
354.1015332280872
 31
0.0
  0
ARC
  5
419
330
A
100
AcDbEntity
  8
0
  6
Continuous
 62
     7
100
AcDbCircle
 10
434.7368349988918
 20
354.1015332280872
 30
0.0
 40
9.599999999999909
100
AcDbArc
 50
134.9999999999999
 51
180.0000000000004
  0
LINE
  5
41A
330
A
100
AcDbEntity
  8
0
  6
Continuous
 62
     7
100
AcDbLine
 10
921.357808741167
 20
399.4043338552377
 30
0.0
 11
427.8305537720891
 21
425.1656769109898
 31
0.0
  0
LINE
  5
41B
330
A
100
AcDbEntity
  8
0
  6
Continuous
 62
     7
100
AcDbLine
 10
429.584545622054
 20
423.8724876143227
 30
0.0
 11
920.0186556305158
 21
398.2726018390941
 31
0.0
  0
LINE
  5
41C
330
A
100
AcDbEntity
  8
0
  6
Continuous
 62
     7
100
AcDbLine
 10
406.8993441055547
 20
349.9516161542761
 30
0.0
 11
383.6029442435274
 21
-45.17662944540479
 31
0.0
  0
LINE
  5
41D
330
A
100
AcDbEntity
  8
0
  6
Continuous
 62
     7
100
AcDbLine
 10
384.7381003715665
 20
-46.31178557344401
 30
0.0
 11
408.0240303887558
 21
348.6388818833902
 31
0.0
  0
LINE
  5
41E
330
A
100
AcDbEntity
  8
0
  6
Continuous
 62
     7
100
AcDbLine
 10
626.2768349988919
 20
-185.1852633363162
 30
0.0
 11
626.2768349988919
 21
-176.1852633363162
 31
0.0
  0
LINE
  5
41F
330
A
100
AcDbEntity
  8
0
  6
Continuous
 62
     7
100
AcDbLine
 10
396.2768349988919
 20
-176.1852633363162
 30
0.0
 11
396.2768349988919
 21
-185.1852633363162
 31
0.0
  0
ARC
  5
420
330
A
100
AcDbEntity
  8
0
  6
Continuous
 62
     7
100
AcDbCircle
 10
397.2768349988919
 20
-185.1852633363162
 30
0.0
 40
1.0
100
AcDbArc
 50
180.0000000000004
 51
270.0000000000008
  0
ARC
  5
421
330
A
100
AcDbEntity
  8
0
  6
Continuous
 62
     7
100
AcDbCircle
 10
625.2768349988919
 20
-185.1852633363162
 30
0.0
 40
1.0
100
AcDbArc
 50
270.0000000000008
 51
0.0
  0
ARC
  5
422
330
A
100
AcDbEntity
  8
0
  6
Continuous
 62
     7
100
AcDbCircle
 10
397.7768349988919
 20
-176.1852633363162
 30
0.0
 40
1.5
100
AcDbArc
 50
90.0
 51
180.0000000000004
  0
ARC
  5
423
330
A
100
AcDbEntity
  8
0
  6
Continuous
 62
     7
100
AcDbCircle
 10
624.7768349988919
 20
-176.1852633363162
 30
0.0
 40
1.5
100
AcDbArc
 50
0.0
 51
90.0
  0
LINE
  5
424
330
A
100
AcDbEntity
  8
0
  6
Continuous
 62
     7
100
AcDbLine
 10
466.0250212833996
 20
-188.6852633363162
 30
0.0
 11
466.0250212833996
 21
-186.1852633363161
 31
0.0
  0
LINE
  5
425
330
A
100
AcDbEntity
  8
0
  6
Continuous
 62
     7
100
AcDbLine
 10
446.0250212833996
 20
-186.1852633363161
 30
0.0
 11
446.0250212833996
 21
-188.6852633363162
 31
0.0
  0
LINE
  5
426
330
A
100
AcDbEntity
  8
0
  6
Continuous
 62
     7
100
AcDbLine
 10
576.5286487143845
 20
-188.6852633363162
 30
0.0
 11
576.5286487143845
 21
-186.1852633363161
 31
0.0
  0
LINE
  5
427
330
A
100
AcDbEntity
  8
0
  6
Continuous
 62
     7
100
AcDbLine
 10
556.5286487143845
 20
-186.1852633363161
 30
0.0
 11
556.5286487143845
 21
-188.6852633363162
 31
0.0
  0
ARC
  5
428
330
A
100
AcDbEntity
  8
0
  6
Continuous
 62
     7
100
AcDbCircle
 10
403.5656529094408
 20
-172.6852633363162
 30
0.0
 40
2.0
100
AcDbArc
 50
270.0000000000008
 51
351.0999999999934
  0
ARC
  5
429
330
A
100
AcDbEntity
  8
0
  6
Continuous
 62
     7
100
AcDbCircle
 10
446.9880170883429
 20
-172.6852633363162
 30
0.0
 40
2.000000000000021
100
AcDbArc
 50
188.9000000000017
 51
270.0000000000008
  0
LINE
  5
42A
330
A
100
AcDbEntity
  8
0
  6
Continuous
 62
     7
100
AcDbLine
 10
445.0120973568042
 20
-172.9946841089151
 30
0.0
 11
439.1453709797631
 21
-135.5305529500167
 31
0.0
  0
LINE
  5
42B
330
A
100
AcDbEntity
  8
0
  6
Continuous
 62
     7
100
AcDbLine
 10
411.4082990180206
 20
-135.5305529500167
 30
0.0
 11
405.5415726409795
 21
-172.9946841089151
 31
0.0
  0
ARC
  5
42C
330
A
100
AcDbEntity
  8
0
  6
Continuous
 62
     7
100
AcDbCircle
 10
412.3962588837899
 20
-135.6852633363162
 30
0.0
 40
1.000000000000028
100
AcDbArc
 50
90.0
 51
171.0999999999822
  0
ARC
  5
42D
330
A
100
AcDbEntity
  8
0
  6
Continuous
 62
     7
100
AcDbCircle
 10
438.1574111139938
 20
-135.6852633363162
 30
0.0
 40
1.000000000000043
100
AcDbArc
 50
8.900000000002185
 51
90.0
  0
LINE
  5
42E
330
A
100
AcDbEntity
  8
0
  6
Continuous
 62
     7
100
AcDbLine
 10
431.8775224671473
 20
-188.6852633363162
 30
0.0
 11
431.8775224671473
 21
-186.1852633363161
 31
0.0
  0
LINE
  5
42F
330
A
100
AcDbEntity
  8
0
  6
Continuous
 62
     7
100
AcDbLine
 10
411.8775224671473
 20
-186.1852633363161
 30
0.0
 11
411.8775224671473
 21
-188.6852633363162
 31
0.0
  0
LINE
  5
430
330
A
100
AcDbEntity
  8
0
  6
Continuous
 62
     7
100
AcDbLine
 10
610.6761475306361
 20
-188.6852633363162
 30
0.0
 11
610.6761475306361
 21
-186.1852633363161
 31
0.0
  0
LINE
  5
431
330
A
100
AcDbEntity
  8
0
  6
Continuous
 62
     7
100
AcDbLine
 10
590.6761475306362
 20
-186.1852633363161
 30
0.0
 11
590.6761475306362
 21
-188.6852633363162
 31
0.0
  0
LINE
  5
432
330
A
100
AcDbEntity
  8
0
  6
Continuous
 62
     7
100
AcDbLine
 10
521.2768349988915
 20
-188.6852633363162
 30
0.0
 11
521.2768349988915
 21
-186.1852633363161
 31
0.0
  0
LINE
  5
433
330
A
100
AcDbEntity
  8
0
  6
Continuous
 62
     7
100
AcDbLine
 10
501.2768349988915
 20
-186.1852633363161
 30
0.0
 11
501.2768349988915
 21
-188.6852633363162
 31
0.0
  0
LINE
  5
434
330
A
100
AcDbEntity
  8
0
  6
Continuous
 62
     7
100
AcDbLine
 10
935.2368349988919
 20
298.3147366636838
 30
0.0
 11
957.7368349988912
 21
298.3147366636838
 31
0.0
  0
LINE
  5
435
330
A
100
AcDbEntity
  8
0
  6
Continuous
 62
     7
100
AcDbLine
 10
912.7368349988927
 20
298.3147366636838
 30
0.0
 11
935.2368349988919
 21
298.3147366636838
 31
0.0
  0
LINE
  5
436
330
A
100
AcDbEntity
  8
0
  6
Continuous
 62
     7
100
AcDbLine
 10
935.2368349988919
 20
305.8147366636837
 30
0.0
 11
950.236834998892
 21
305.8147366636837
 31
0.0
  0
LINE
  5
437
330
A
100
AcDbEntity
  8
0
  6
Continuous
 62
     7
100
AcDbLine
 10
920.2368349988921
 20
305.8147366636837
 30
0.0
 11
935.2368349988919
 21
305.8147366636837
 31
0.0
  0
LWPOLYLINE
  5
438
330
A
100
AcDbEntity
  8
0
  6
Continuous
 62
     7
100
AcDbPolyline
 90
       32
 70
   128
 43
0.0
 10
1017.155053847156
 20
497.0848996075979
 10
1016.860065218647
 20
497.1737777887205
 10
1016.214004961072
 20
497.508224292749
 10
1014.55208070278
 20
498.4700098832949
 10
1013.199201934282
 20
499.2932598069454
 10
1011.704404886366
 20
500.2244772164679
 10
1010.138132906254
 20
501.2179156672872
 10
1009.348860699812
 20
501.7245465523133
 10
1008.956047063578
 20
501.9781601594516
 10
1008.760489390553
 20
502.1047859438815
 10
1008.662970273765
 20
502.1680227776682
 10
1008.614281461219
 20
502.1996184030542
 10
1008.589955461221
 20
502.2154100504177
 10
1008.577797152317
 20
502.2233042746288
 10
1008.571719181801
 20
502.2272509796177
 10
1008.56868049392
 20
502.229224229428
 10
1008.567161224498
 20
502.2302108285491
 10
1008.566401608439
 20
502.2307041216495
 10
1008.566021805074
 20
502.2309507665828
 10
1008.565831904559
 20
502.2310740886451
 10
1008.565736954593
 20
502.2311357495751
 10
1008.565689479683
 20
502.2311665800148
 10
1008.565665742246
 20
502.2311819952284
 10
1008.565653873532
 20
502.2311897028337
 10
1008.565642004821
 20
502.2311974104377
 10
1008.140462172726
 20
502.507311934785
 10
1007.370354927348
 20
503.0074250795883
 10
1004.900474139192
 20
504.6113841393718
 10
1003.36266193276
 20
505.610051132725
 10
1001.854627280585
 20
506.5893804954056
 10
1000.669691240774
 20
507.3588873050338
 10
1000.184450200161
 20
507.6740070084293
  0
CIRCLE
  5
45A
330
A
100
AcDbEntity
  8
0
  6
Continuous
 62
     7
100
AcDbCircle
 10
928.7368349988916
 20
389.3147366636839
 30
0.0
 40
12.5
  0
LINE
  5
45B
330
A
100
AcDbEntity
  8
0
  6
Continuous
 62
     7
100
AcDbLine
 10
931.7368349988912
 20
325.8147366636917
 30
0.0
 11
938.7368349988927
 21
325.8147366636917
 31
0.0
  0
LWPOLYLINE
  5
45C
330
A
100
AcDbEntity
  8
0
  6
Continuous
 62
     7
100
AcDbPolyline
 90
        7
 70
   128
 43
0.0
 10
950.7368349988915
 20
389.3147366636839
 10
950.3141111677626
 20
385.022749579329
 10
949.0621847141397
 20
380.8957011516519
 10
947.0291664695476
 20
377.0921915372526
 10
944.2931841849958
 20
373.7583874775798
 10
940.959380125323
 20
371.0224051930278
 10
940.5071478067251
 20
370.7806819827005
  0
LWPOLYLINE
  5
465
330
A
100
AcDbEntity
  8
0
  6
Continuous
 62
     7
100
AcDbPolyline
 90
        9
 70
   128
 43
0.0
 10
930.0976998222708
 20
367.4487701499178
 10
928.7368349988916
 20
367.3147366636838
 10
924.4448479145368
 20
367.7374604948128
 10
920.3177994868596
 20
368.9893869484355
 10
916.5142898724603
 20
371.0224051930278
 10
913.1804858127875
 20
373.7583874775798
 10
910.4445035282356
 20
377.0921915372526
 10
908.4114852836433
 20
380.895701151652
 10
907.5260055417363
 20
383.8147366636839
  0
LWPOLYLINE
  5
470
330
A
100
AcDbEntity
  8
0
  6
Continuous
 62
     7
100
AcDbPolyline
 90
        3
 70
   128
 43
0.0
 10
907.5260055417365
 20
394.8147366636839
 10
908.4114852836433
 20
397.7337721757158
 10
909.0067353289864
 20
398.8474066826645
  0
LWPOLYLINE
  5
475
330
A
100
AcDbEntity
  8
0
  6
Continuous
 62
     7
100
AcDbPolyline
 90
       10
 70
   128
 43
0.0
 10
909.6315881281542
 20
400.0164240466459
 10
910.4445035282356
 20
401.5372817901151
 10
913.1804858127875
 20
404.8710858497878
 10
916.5142898724603
 20
407.6070681343399
 10
920.3177994868596
 20
409.6400863789321
 10
924.4448479145368
 20
410.8920128325549
 10
928.7368349988916
 20
411.3147366636838
 10
933.0288220832464
 20
410.8920128325549
 10
937.1558705109235
 20
409.6400863789321
 10
940.4166222852721
 20
407.8971782439716
  0
LWPOLYLINE
  5
481
330
A
100
AcDbEntity
  8
0
  6
Continuous
 62
     7
100
AcDbPolyline
 90
        4
 70
   128
 43
0.0
 10
948.33840884089
 20
399.0878615941939
 10
949.0621847141397
 20
397.7337721757158
 10
950.3141111677626
 20
393.6067237480387
 10
950.7368349988915
 20
389.3147366636839
  0
LINE
  5
487
330
A
100
AcDbEntity
  8
0
  6
Continuous
 62
     7
100
AcDbLine
 10
878.1860153916435
 20
257.5647366636839
 30
0.0
 11
991.8676546061403
 21
257.5647366636839
 31
0.0
  0
LINE
  5
488
330
A
100
AcDbEntity
  8
0
  6
Continuous
 62
     7
100
AcDbLine
 10
845.0268349988919
 20
122.5647366636838
 30
0.0
 11
1025.026834998892
 21
122.5647366636838
 31
0.0
  0
LINE
  5
489
330
A
100
AcDbEntity
  8
0
  6
Continuous
 62
     7
100
AcDbLine
 10
845.9979692788015
 20
122.3262032061052
 30
0.0
 11
1024.055700718982
 21
122.3262032061052
 31
0.0
  0
CIRCLE
  5
48A
330
A
100
AcDbEntity
  8
0
  6
Continuous
 62
     7
100
AcDbCircle
 10
417.8009133219804
 20
420.2506583405954
 30
0.0
 40
3.0
  0
LWPOLYLINE
  5
48B
330
A
100
AcDbEntity
  8
0
  6
Continuous
 62
     7
100
AcDbPolyline
 90
        6
 70
   128
 43
0.0
 10
412.2122581805101
 20
360.7950559610044
 10
414.0659363838955
 20
361.1173993862535
 10
415.8939257423988
 20
361.7815937135997
 10
418.3158967942207
 20
363.1571509151795
 10
419.464522808786
 20
364.0279485167881
 10
420.4902020162534
 20
365.0784371884602
  0
LWPOLYLINE
  5
493
330
A
100
AcDbEntity
  8
0
  6
Continuous
 62
     7
100
AcDbPolyline
 90
        3
 70
   128
 43
0.0
 10
411.0986460843313
 20
347.0091259623251
 10
412.6959513680463
 20
346.494036786971
 10
413.9166536597669
 20
345.9263238910355
  0
LWPOLYLINE
  5
498
330
A
100
AcDbEntity
  8
0
  6
Continuous
 62
     7
100
AcDbPolyline
 90
        4
 70
   128
 43
0.0
 10
416.7518734255006
 20
344.3147373250062
 10
414.0552772211117
 20
345.8701481958379
 10
412.6201859710609
 20
346.524143090491
 10
411.0986460840352
 20
347.0091259625482
  0
LINE
  5
49E
330
A
100
AcDbEntity
  8
0
  6
Continuous
 62
     7
100
AcDbLine
 10
412.7368349988918
 20
-45.68526333631617
 30
0.0
 11
421.1368349988918
 21
-45.68526333631617
 31
0.0
  0
LINE
  5
49F
330
A
100
AcDbEntity
  8
0
  6
Continuous
 62
     7
100
AcDbLine
 10
412.7368349988918
 20
344.3147366636838
 30
0.0
 11
421.1368349988918
 21
344.3147366636838
 31
0.0
  0
LINE
  5
4A0
330
A
100
AcDbEntity
  8
0
  6
Continuous
 62
     7
100
AcDbLine
 10
883.7368349988919
 20
387.9147366636839
 30
0.0
 11
883.7368349988919
 21
396.3147366636839
 31
0.0
  0
LINE
  5
4A1
330
A
100
AcDbEntity
  8
0
  6
Continuous
 62
     7
100
AcDbLine
 10
493.7368349988918
 20
396.3147366636839
 30
0.0
 11
493.7368349988918
 21
387.9147366636839
 31
0.0
  0
LINE
  5
4A2
330
A
100
AcDbEntity
  8
0
  6
Continuous
 62
     7
100
AcDbLine
 10
430.7368349988919
 20
-45.68526333631617
 30
0.0
 11
421.1368349988918
 21
-45.68526333631617
 31
0.0
  0
LINE
  5
4A3
330
A
100
AcDbEntity
  8
0
  6
Continuous
 62
     7
100
AcDbLine
 10
421.1368349988918
 20
344.3147366636838
 30
0.0
 11
430.7368349988919
 21
344.3147366636838
 31
0.0
  0
LINE
  5
4A4
330
A
100
AcDbEntity
  8
0
  6
Continuous
 62
     7
100
AcDbLine
 10
883.7368349988919
 20
387.9147366636839
 30
0.0
 11
883.7368349988919
 21
378.3147366636839
 31
0.0
  0
LINE
  5
4A5
330
A
100
AcDbEntity
  8
0
  6
Continuous
 62
     7
100
AcDbLine
 10
493.7368349988918
 20
387.9147366636839
 30
0.0
 11
493.7368349988918
 21
378.3147366636839
 31
0.0
  0
LWPOLYLINE
  5
4A6
330
A
100
AcDbEntity
  8
0
  6
Continuous
 62
     7
100
AcDbPolyline
 90
        4
 70
   128
 43
0.0
 10
445.6017515198323
 20
378.6875226434716
 10
444.0015540419135
 20
378.8729660790299
 10
442.3877123548711
 20
378.5279073156225
 10
441.7550332447426
 20
378.1115625279758
  0
LWPOLYLINE
  5
4AC
330
A
100
AcDbEntity
  8
0
  6
Continuous
 62
     7
100
AcDbPolyline
 90
        5
 70
   128
 43
0.0
 10
441.7550360549443
 20
400.5179138142623
 10
442.4697150202101
 20
400.0665119120165
 10
443.7861347904027
 20
399.7698598339395
 10
445.2521893428886
 20
399.8543716431086
 10
445.601752863526
 20
399.9419507370703
  0
LWPOLYLINE
  5
4B3
330
A
100
AcDbEntity
  8
0
  6
Continuous
 62
     7
100
AcDbPolyline
 90
        4
 70
   128
 43
0.0
 10
458.4682483153944
 20
394.6124726646056
 10
459.4687178565942
 20
393.3497538764992
 10
460.8540039537051
 20
392.4526004230921
 10
461.5955549703175
 20
392.2997016778539
  0
LWPOLYLINE
  5
4B9
330
A
100
AcDbEntity
  8
0
  6
Continuous
 62
     7
100
AcDbPolyline
 90
        5
 70
   128
 43
0.0
 10
437.5336580373299
 20
382.3329375812525
 10
437.9850644563563
 20
383.0476259937869
 10
438.2817263401639
 20
384.3641774569493
 10
438.1971819865468
 20
385.8301771400034
 10
438.1096224523546
 20
386.1796523076447
  0
LWPOLYLINE
  5
4C0
330
A
100
AcDbEntity
  8
0
  6
Continuous
 62
     7
100
AcDbPolyline
 90
        4
 70
   128
 43
0.0
 10
438.1096220988639
 20
392.4498198122759
 10
438.2950599158623
 20
394.0501275642546
 10
437.9499166828209
 20
395.6640229903892
 10
437.5336580913098
 20
396.2965357459066
  0
LWPOLYLINE
  5
4C6
330
A
100
AcDbEntity
  8
0
  6
Continuous
 62
     7
100
AcDbPolyline
 90
        5
 70
   128
 43
0.0
 10
461.5955548531075
 20
386.3297717802236
 10
460.7703188208433
 20
386.143318131425
 10
459.6291315884116
 20
385.4214518177047
 10
458.6522677902144
 20
384.324225976932
 10
458.4682485470154
 20
384.0170021734036
  0
CIRCLE
  5
4CD
330
A
100
AcDbEntity
  8
0
  6
Continuous
 62
     7
100
AcDbCircle
 10
419.7368349988919
 20
-89.6852633363162
 30
0.0
 40
11.07999999999998
  0
LINE
  5
4CE
330
A
100
AcDbEntity
  8
0
  6
Continuous
 62
     7
100
AcDbLine
 10
377.5188429975523
 20
-54.76201447052381
 30
0.0
 11
381.4362145653259
 21
-50.84464290275025
 31
0.0
  0
LINE
  5
4CF
330
A
100
AcDbEntity
  8
0
  6
Continuous
 62
     7
100
AcDbLine
 10
386.0324086430385
 20
-55.44083698046281
 30
0.0
 11
382.115037075265
 21
-59.35820854823634
 31
0.0
  0
LWPOLYLINE
  5
4D0
330
A
100
AcDbEntity
  8
0
  6
Continuous
 62
     7
100
AcDbPolyline
 90
       12
 70
   128
 43
0.0
 10
381.436214565326
 20
-50.84464290275029
 10
382.2386759890762
 20
-50.25733284609537
 10
383.1551080504202
 20
-49.94476820262741
 10
384.1751902004041
 20
-49.9227824786277
 10
385.2695882720841
 20
-50.27822854295644
 10
386.0036716483655
 20
-50.81626084437302
 10
386.5611333305143
 20
-51.53912560906371
 10
386.8885068134107
 20
-52.35944396811992
 10
386.9764260697437
 20
-53.36900039373499
 10
386.6917348089992
 20
-54.49038529095135
 10
386.1666241829092
 20
-55.29828059753643
 10
386.0324086430385
 20
-55.44083698046287
  0
LWPOLYLINE
  5
4DE
330
A
100
AcDbEntity
  8
0
  6
Continuous
 62
     7
100
AcDbPolyline
 90
       11
 70
   128
 43
0.0
 10
383.6029442435274
 20
-45.1766294454049
 10
383.6223764222613
 20
-45.19918187133165
 10
383.674675367183
 20
-45.25933493414131
 10
383.788094668487
 20
-45.38706260934228
 10
383.9841065905201
 20
-45.59901402606891
 10
384.2076813341159
 20
-45.82722497807956
 10
384.4625892647987
 20
-46.06997207031837
 10
384.606125147353
 20
-46.19858696805318
 10
384.6942982586062
 20
-46.27474855671026
 10
384.7365023926117
 20
-46.31044366630854
 10
384.7381003715665
 20
-46.31178557344401
  0
LINE
  5
4EB
330
A
100
AcDbEntity
  8
0
  6
Continuous
 62
     7
100
AcDbLine
 10
395.2835337970411
 20
-57.14986693485418
 30
0.0
 11
387.5053592039879
 21
-49.371692341801
 31
0.0
  0
LWPOLYLINE
  5
4EC
330
A
100
AcDbEntity
  8
0
  6
Continuous
 62
     7
100
AcDbPolyline
 90
        5
 70
   128
 43
0.0
 10
415.783871167256
 20
-79.33439492126137
 10
414.8634894637657
 20
-77.1612080328568
 10
414.5669487780708
 20
-76.45748864382529
 10
414.3694319417743
 20
-75.98804441776078
 10
414.3368349988918
 20
-75.91052020076927
  0
LINE
  5
4F3
330
A
100
AcDbEntity
  8
0
  6
Continuous
 62
     7
100
AcDbLine
 10
378.2825183212338
 20
-42.68463064785755
 30
0.0
 11
373.2762026119469
 21
-47.69094635714455
 31
0.0
  0
CIRCLE
  5
4F4
330
A
100
AcDbEntity
  8
0
  6
Continuous
 62
     7
100
AcDbCircle
 10
383.7343116041823
 20
-53.14273994160656
 30
0.0
 40
3.0
  0
CIRCLE
  5
4F5
330
A
100
AcDbEntity
  8
0
  6
Continuous
 62
     7
100
AcDbCircle
 10
412.7368349988918
 20
353.8147366636838
 30
0.0
 40
5.0
  0
CIRCLE
  5
4F6
330
A
100
AcDbEntity
  8
0
  6
Continuous
 62
     7
100
AcDbCircle
 10
448.7368349988918
 20
389.3147366636839
 30
0.0
 40
5.0
  0
LINE
  5
4F7
330
A
100
AcDbEntity
  8
0
  6
Continuous
 62
     7
100
AcDbLine
 10
430.7368349988919
 20
-45.68526333631617
 30
0.0
 11
434.7368349988919
 21
-45.68526333631617
 31
0.0
  0
LINE
  5
4F8
330
A
100
AcDbEntity
  8
0
  6
Continuous
 62
     7
100
AcDbLine
 10
430.7368349988919
 20
344.3147366636838
 30
0.0
 11
434.7368349988919
 21
344.3147366636838
 31
0.0
  0
LINE
  5
4F9
330
A
100
AcDbEntity
  8
0
  6
Continuous
 62
     7
100
AcDbLine
 10
883.7368349988919
 20
378.3147366636839
 30
0.0
 11
883.7368349988919
 21
374.3147366636837
 31
0.0
  0
LINE
  5
4FA
330
A
100
AcDbEntity
  8
0
  6
Continuous
 62
     7
100
AcDbLine
 10
493.7368349988918
 20
378.3147366636839
 30
0.0
 11
493.7368349988918
 21
374.3147366636837
 31
0.0
  0
LINE
  5
4FB
330
A
100
AcDbEntity
  8
0
  6
Continuous
 62
     7
100
AcDbLine
 10
407.4417989775971
 20
425.8014465729092
 30
0.0
 11
408.2165449599513
 21
426.5761925552636
 31
0.0
  0
LWPOLYLINE
  5
4FC
330
A
100
AcDbEntity
  8
0
  6
Continuous
 62
     7
100
AcDbPolyline
 90
        7
 70
   128
 43
0.0
 10
408.2165449599513
 20
426.5761925552636
 10
408.2137702689453
 20
426.5733816465488
 10
408.1275698225905
 20
426.244882575424
 10
408.2742450931048
 20
425.8174771231164
 10
408.5847466280417
 20
425.3286272820477
 10
409.0001197416774
 20
424.8350099573866
 10
409.1494885040839
 20
424.68070897465
  0
LINE
  5
505
330
A
100
AcDbEntity
  8
0
  6
Continuous
 62
     7
100
AcDbLine
 10
411.4753791073114
 20
429.8350267026237
 30
0.0
 11
408.2165449599513
 21
426.5761925552636
 31
0.0
  0
LWPOLYLINE
  5
506
330
A
100
AcDbEntity
  8
0
  6
Continuous
 62
     7
100
AcDbPolyline
 90
        7
 70
   128
 43
0.0
 10
411.4753791073114
 20
429.8350267026237
 10
411.4781900160399
 20
429.8378013936435
 10
411.8066890871342
 20
429.9240018399868
 10
412.2340945396984
 20
429.7773265693483
 10
412.7229443807925
 20
429.4668250343357
 10
413.2165617054428
 20
429.0514519206594
 10
413.370862687925
 20
428.9020831584912
  0
LWPOLYLINE
  5
50F
330
A
100
AcDbEntity
  8
0
  6
Continuous
 62
     7
100
AcDbPolyline
 90
        5
 70
   128
 43
0.0
 10
412.250125089631
 20
430.6097726849432
 10
412.1994870475786
 20
430.5591345281334
 10
412.0472238706596
 20
430.4068714656524
 10
411.8031420302551
 20
430.1627895172751
 10
411.4753791073114
 20
429.8350267026237
  0
LINE
  5
516
330
A
100
AcDbEntity
  8
0
  6
Continuous
 62
     7
100
AcDbLine
 10
429.247193693222
 20
416.1405895257357
 30
0.0
 11
421.4690191001715
 21
423.918764118786
 31
0.0
  0
LINE
  5
517
330
A
100
AcDbEntity
  8
0
  6
Continuous
 62
     7
100
AcDbLine
 10
420.8205833620362
 20
421.4523624843801
 30
0.0
 11
441.7550342893924
 21
400.5179120486397
 31
0.0
  0
LWPOLYLINE
  5
518
330
A
100
AcDbEntity
  8
0
  6
Continuous
 62
     7
100
AcDbPolyline
 90
        4
 70
   128
 43
0.0
 10
419.0026174657651
 20
423.2703283806513
 10
419.7946432940755
 20
422.8172788420271
 10
420.4407096337328
 20
422.1464366589804
 10
420.8205833620362
 20
421.4523624843801
  0
LINE
  5
51E
330
A
100
AcDbEntity
  8
0
  6
Continuous
 62
     7
100
AcDbLine
 10
413.370862687925
 20
428.9020831584912
 30
0.0
 11
419.0026174657652
 21
423.2703283806513
 31
0.0
  0
LINE
  5
51F
330
A
100
AcDbEntity
  8
0
  6
Continuous
 62
     7
100
AcDbLine
 10
417.9883232689157
 20
415.8418742098188
 30
0.0
 11
420.0990103608366
 21
417.9525613017389
 31
0.0
  0
ARC
  5
520
330
A
100
AcDbEntity
  8
0
  6
Continuous
 62
     7
100
AcDbCircle
 10
448.7368349988918
 20
389.3147366636839
 30
0.0
 40
11.07999999999999
100
AcDbArc
 50
28.56366628541135
 51
106.4363300370297
  0
LINE
  5
521
330
A
100
AcDbEntity
  8
0
  6
Continuous
 62
     7
100
AcDbLine
 10
461.5955549347189
 20
392.2996989831696
 30
0.0
 11
493.7368349988918
 21
392.2996989790867
 31
0.0
  0
LINE
  5
522
330
A
100
AcDbEntity
  8
0
  6
Continuous
 62
     7
100
AcDbLine
 10
493.7368349988918
 20
386.3297743523641
 30
0.0
 11
461.5955548530654
 21
386.3297740516879
 31
0.0
  0
ARC
  5
523
330
A
100
AcDbEntity
  8
0
  6
Continuous
 62
     7
100
AcDbCircle
 10
448.7368349988918
 20
389.3147366636839
 30
0.0
 40
11.07999999999999
100
AcDbArc
 50
253.5636662853961
 51
331.4363377692622
  0
LINE
  5
524
330
A
100
AcDbEntity
  8
0
  6
Continuous
 62
     7
100
AcDbLine
 10
441.7550339942211
 20
378.1115617329759
 30
0.0
 11
426.2409203377192
 21
362.5974478186699
 31
0.0
  0
ARC
  5
525
330
A
100
AcDbEntity
  8
0
  6
Continuous
 62
     7
100
AcDbCircle
 10
434.7368349988918
 20
354.1015332280872
 30
0.0
 40
12.01503768868008
100
AcDbArc
 50
135.0000002380265
 51
180.0000000000004
  0
LINE
  5
526
330
A
100
AcDbEntity
  8
0
  6
Continuous
 62
     7
100
AcDbLine
 10
422.7217973102117
 20
354.1015332280872
 30
0.0
 11
422.7217973102117
 21
344.3147366636838
 31
0.0
  0
ARC
  5
527
330
A
100
AcDbEntity
  8
0
  6
Continuous
 62
     7
100
AcDbCircle
 10
412.7368349988918
 20
353.8147366636838
 30
0.0
 40
7.000000000000087
100
AcDbArc
 50
94.29774705665094
 51
256.4657260048277
  0
ARC
  5
528
330
A
100
AcDbEntity
  8
0
  6
Continuous
 62
     7
100
AcDbCircle
 10
434.7368349988906
 20
354.101533228088
 30
0.0
 40
17.98496256096685
100
AcDbArc
 50
135.0000000082911
 51
142.3860687492674
  0
LINE
  5
529
330
A
100
AcDbEntity
  8
0
  6
Continuous
 62
     7
100
AcDbLine
 10
422.0195460108045
 20
366.8188220359655
 30
0.0
 11
437.5336596651644
 21
382.3329359534792
 31
0.0
  0
ARC
  5
52A
330
A
100
AcDbEntity
  8
0
  6
Continuous
 62
     7
100
AcDbCircle
 10
448.7368349988918
 20
389.3147366636839
 30
0.0
 40
11.07999999999995
100
AcDbArc
 50
163.5636662854074
 51
196.4363372632602
  0
LINE
  5
52B
330
A
100
AcDbEntity
  8
0
  6
Continuous
 62
     7
100
AcDbLine
 10
437.5336596879225
 20
396.2965373651334
 30
0.0
 11
417.9883232689157
 21
415.8418742098188
 31
0.0
  0
ARC
  5
52C
330
A
100
AcDbEntity
  8
0
  6
Continuous
 62
     7
100
AcDbCircle
 10
417.8009133219804
 20
420.2506583405954
 30
0.0
 40
3.250000000000026
100
AcDbArc
 50
314.9999999999973
 51
21.7005157676215
  0
LINE
  5
52D
330
A
100
AcDbEntity
  8
0
  6
Continuous
 62
     7
100
AcDbLine
 10
417.9883232689157
 20
415.8418742098188
 30
0.0
 11
416.2806337424288
 21
414.1341846833318
 31
0.0
  0
LINE
  5
52E
330
A
100
AcDbEntity
  8
0
  6
Continuous
 62
     7
100
AcDbLine
 10
413.3921291912032
 20
420.4380682875309
 30
0.0
 11
409.1494885040839
 21
424.68070897465
 31
0.0
  0
LINE
  5
52F
330
A
100
AcDbEntity
  8
0
  6
Continuous
 62
     7
100
AcDbLine
 10
411.6844396647165
 20
418.730378761044
 30
0.0
 11
413.3921291912032
 21
420.4380682875309
 31
0.0
  0
LINE
  5
530
330
A
100
AcDbEntity
  8
0
  6
Continuous
 62
     7
100
AcDbLine
 10
415.5028162831241
 20
422.5487553794517
 30
0.0
 11
413.3921291912032
 21
420.4380682875309
 31
0.0
  0
ARC
  5
531
330
A
100
AcDbEntity
  8
0
  6
Continuous
 62
     7
100
AcDbCircle
 10
417.8009133219804
 20
420.2506583405954
 30
0.0
 40
3.250000000000093
100
AcDbArc
 50
68.29948423237825
 51
134.9999999999995
  0
LINE
  5
532
330
A
100
AcDbEntity
  8
0
  6
Continuous
 62
     7
100
AcDbLine
 10
395.4298577650064
 20
-57.00354296688642
 30
0.0
 11
395.2835337970411
 21
-57.14986693485418
 31
0.0
  0
LINE
  5
533
330
A
100
AcDbEntity
  8
0
  6
Continuous
 62
     7
100
AcDbLine
 10
387.6516831719556
 20
-49.22536837383318
 30
0.0
 11
387.5053592039879
 21
-49.371692341801
 31
0.0
  0
ARC
  5
534
330
A
100
AcDbEntity
  8
0
  6
Continuous
 62
     7
100
AcDbCircle
 10
391.5407704684817
 20
-53.11445567035916
 30
0.0
 40
5.500000000000004
100
AcDbArc
 50
314.9999999999811
 51
135.0000000000004
  0
LINE
  5
535
330
A
100
AcDbEntity
  8
0
  6
Continuous
 62
     7
100
AcDbLine
 10
421.6192899403874
 20
424.0690349590025
 30
0.0
 11
421.4690191001715
 21
423.918764118786
 31
0.0
  0
ARC
  5
536
330
A
100
AcDbEntity
  8
0
  6
Continuous
 62
     7
100
AcDbCircle
 10
425.5083772369133
 20
420.1799476624765
 30
0.0
 40
5.500000000000165
100
AcDbArc
 50
315.000000000023
 51
134.9999999999971
  0
LINE
  5
537
330
A
100
AcDbEntity
  8
0
  6
Continuous
 62
     7
100
AcDbLine
 10
429.247193693222
 20
416.1405895257357
 30
0.0
 11
429.397464533441
 21
416.2908603659519
 31
0.0
  0
ARC
  5
538
330
A
100
AcDbEntity
  8
0
  6
Continuous
 62
     7
100
AcDbCircle
 10
448.7368349988918
 20
389.3147366636839
 30
0.0
 40
18.00000000000011
100
AcDbArc
 50
242.4576031237231
 51
342.5423968762779
  0
ARC
  5
539
330
A
100
AcDbEntity
  8
0
  6
Continuous
 62
     7
100
AcDbCircle
 10
448.7368349988918
 20
389.3147366636839
 30
0.0
 40
18.00000000000003
100
AcDbArc
 50
152.4576031237224
 51
207.5423968762792
  0
ARC
  5
53A
330
A
100
AcDbEntity
  8
0
  6
Continuous
 62
     7
100
AcDbCircle
 10
448.7368349988918
 20
389.3147366636839
 30
0.0
 40
18.0
100
AcDbArc
 50
17.45760312372183
 51
117.5423968762785
  0
ARC
  5
53B
330
A
100
AcDbEntity
  8
0
  6
Continuous
 62
     7
100
AcDbCircle
 10
419.7368349988918
 20
-89.6852633363162
 30
0.0
 40
18.00000000000004
100
AcDbArc
 50
307.9922990426726
 51
0.0
  0
ARC
  5
53C
330
A
100
AcDbEntity
  8
0
  6
Continuous
 62
     7
100
AcDbCircle
 10
419.7368349988918
 20
-89.6852633363162
 30
0.0
 40
18.00000000000001
100
AcDbArc
 50
151.6523934336506
 51
270.0000000000009
  0
ARC
  5
53D
330
A
100
AcDbEntity
  8
0
  6
Continuous
 62
     7
100
AcDbCircle
 10
419.7368349988918
 20
-89.6852633363162
 30
0.0
 40
18.00000000000001
100
AcDbArc
 50
107.457603123722
 51
115.7924563932206
  0
ARC
  5
53E
330
A
100
AcDbEntity
  8
0
  6
Continuous
 62
     7
100
AcDbCircle
 10
419.7368349988918
 20
-89.6852633363162
 30
0.0
 40
18.00000000000002
100
AcDbArc
 50
0.0
 51
72.54239687627782
  0
LINE
  5
53F
330
A
100
AcDbEntity
  8
0
  6
Continuous
 62
     7
100
AcDbLine
 10
625.2768349988919
 20
-186.1852633363161
 30
0.0
 11
397.2768350024799
 21
-186.1852633363161
 31
0.0
  0
LINE
  5
540
330
A
100
AcDbEntity
  8
0
  6
Continuous
 62
     7
100
AcDbLine
 10
397.7768350046312
 20
-174.6852633363161
 30
0.0
 11
624.7768349988919
 21
-174.6852633363161
 31
0.0
  0
LINE
  5
541
330
A
100
AcDbEntity
  8
0
  6
Continuous
 62
     7
100
AcDbLine
 10
446.0250212833996
 20
-188.6852633363162
 30
0.0
 11
466.0250212833996
 21
-188.6852633363162
 31
0.0
  0
LINE
  5
542
330
A
100
AcDbEntity
  8
0
  6
Continuous
 62
     7
100
AcDbLine
 10
556.5286487143845
 20
-188.6852633363162
 30
0.0
 11
576.5286487143845
 21
-188.6852633363162
 31
0.0
  0
LINE
  5
543
330
A
100
AcDbEntity
  8
0
  6
Continuous
 62
     7
100
AcDbLine
 10
412.3962588886622
 20
-134.6852633363162
 30
0.0
 11
438.1574111139938
 21
-134.6852633363162
 31
0.0
  0
LINE
  5
544
330
A
100
AcDbEntity
  8
0
  6
Continuous
 62
     7
100
AcDbLine
 10
411.8775224671473
 20
-188.6852633363162
 30
0.0
 11
431.8775224671473
 21
-188.6852633363162
 31
0.0
  0
LINE
  5
545
330
A
100
AcDbEntity
  8
0
  6
Continuous
 62
     7
100
AcDbLine
 10
590.6761475306362
 20
-188.6852633363162
 30
0.0
 11
610.6761475306361
 21
-188.6852633363162
 31
0.0
  0
LINE
  5
546
330
A
100
AcDbEntity
  8
0
  6
Continuous
 62
     7
100
AcDbLine
 10
501.2768349988915
 20
-188.6852633363162
 30
0.0
 11
521.2768349988915
 21
-188.6852633363162
 31
0.0
  0
LINE
  5
547
330
A
100
AcDbEntity
  8
0
  6
PHANTOM
 62
     7
100
AcDbLine
 10
931.7368349988919
 20
307.3147366636837
 30
0.0
 11
938.736834998892
 21
307.3147366636837
 31
0.0
  0
LWPOLYLINE
  5
548
330
A
100
AcDbEntity
  8
0
  6
PHANTOM
 62
     7
100
AcDbPolyline
 90
        6
 70
   128
 43
0.0
 10
417.1168695078174
 20
364.3824289134518
 10
417.1833541928116
 20
364.4120469808336
 10
417.3858147150359
 20
364.4973683153485
 10
418.127394767333
 20
364.761309857287
 10
419.2078180218813
 20
365.0084367808462
 10
420.4902043205848
 20
365.0784362451048
  0
LINE
  5
550
330
A
100
AcDbEntity
  8
0
  6
PHANTOM
 62
     7
100
AcDbLine
 10
421.1368349988918
 20
-45.68526333631617
 30
0.0
 11
421.1368349988918
 21
344.3147366636838
 31
0.0
  0
LINE
  5
551
330
A
100
AcDbEntity
  8
0
  6
PHANTOM
 62
     7
100
AcDbLine
 10
493.7368349988918
 20
387.9147366636839
 30
0.0
 11
883.7368349988919
 21
387.9147366636839
 31
0.0
  0
LINE
  5
552
330
A
100
AcDbEntity
  8
0
  6
PHANTOM
 62
     7
100
AcDbLine
 10
430.7368349988919
 20
344.3147366636838
 30
0.0
 11
430.7368349988919
 21
-45.68526333631617
 31
0.0
  0
LINE
  5
553
330
A
100
AcDbEntity
  8
0
  6
PHANTOM
 62
     7
100
AcDbLine
 10
883.7368349988919
 20
378.3147366636839
 30
0.0
 11
493.7368349988918
 21
378.3147366636839
 31
0.0
  0
LWPOLYLINE
  5
554
330
A
100
AcDbEntity
  8
0
  6
PHANTOM
 62
     7
100
AcDbPolyline
 90
        6
 70
   128
 43
0.0
 10
444.7447570850511
 20
377.6859055130284
 10
444.486799845781
 20
377.6833100450792
 10
443.8050174184005
 20
377.7087999546014
 10
443.3566256957214
 20
377.7526831548795
 10
442.8571003385465
 20
377.8288181166339
 10
441.7550341043619
 20
378.1115616228352
  0
LWPOLYLINE
  5
55C
330
A
100
AcDbEntity
  8
0
  6
PHANTOM
 62
     7
100
AcDbPolyline
 90
        5
 70
   128
 43
0.0
 10
441.7550340435699
 20
400.5179118028172
 10
442.8596269003889
 20
400.8011165956188
 10
443.804064035846
 20
400.9206036220962
 10
444.4848555618605
 20
400.9461579784526
 10
444.7447571054883
 20
400.9435677939018
  0
LWPOLYLINE
  5
563
330
A
100
AcDbEntity
  8
0
  6
PHANTOM
 62
     7
100
AcDbPolyline
 90
        6
 70
   128
 43
0.0
 10
459.7829813863366
 20
394.714250862477
 10
459.9674967032897
 20
394.533392073
 10
460.4302588561735
 20
394.0346701445193
 10
460.7145689211932
 20
393.6887787765708
 10
461.0130528340611
 20
393.2834678640702
 10
461.5955549347189
 20
392.2996989831696
  0
LWPOLYLINE
  5
56B
330
A
100
AcDbEntity
  8
0
  6
PHANTOM
 62
     7
100
AcDbPolyline
 90
        5
 70
   128
 43
0.0
 10
437.5336598909752
 20
382.3329357276685
 10
437.2499536171077
 20
383.4402794792785
 10
437.1306866753539
 20
384.385819760083
 10
437.1054057445806
 20
385.0657228488468
 10
437.1079904172323
 20
385.3213396931026
  0
LWPOLYLINE
  5
572
330
A
100
AcDbEntity
  8
0
  6
PHANTOM
 62
     7
100
AcDbPolyline
 90
        6
 70
   128
 43
0.0
 10
437.1079900326945
 20
393.3081670710333
 10
437.1054041155386
 20
393.5630982203562
 10
437.1305178640733
 20
394.2413306443863
 10
437.174207512299
 20
394.6905464885178
 10
437.2497492907602
 20
395.1880714440638
 10
437.5336599104474
 20
396.2965375876584
  0
LWPOLYLINE
  5
57A
330
A
100
AcDbEntity
  8
0
  6
PHANTOM
 62
     7
100
AcDbPolyline
 90
        6
 70
   128
 43
0.0
 10
461.5955548530654
 20
386.3297743660433
 10
461.0130145141177
 20
385.3459500814565
 10
460.4282985929087
 20
384.5925348185572
 10
459.9664402894
 20
384.0950191931568
 10
459.7824871986748
 20
383.9147380705122
 10
459.7829813863341
 20
383.9152224648883
  0
LINE
  5
582
330
A
100
AcDbEntity
  8
0
  6
PHANTOM
 62
     7
100
AcDbLine
 10
425.9968474778977
 20
-98.82739896004716
 30
0.0
 11
430.8168349988918
 21
-98.82739896004721
 31
0.0
  0
LINE
  5
583
330
A
100
AcDbEntity
  8
0
  6
PHANTOM
 62
     7
100
AcDbLine
 10
381.11094544598
 20
-42.68463064785748
 30
0.0
 11
373.276202310433
 21
-50.51937378340449
 31
0.0
  0
LINE
  5
584
330
A
100
AcDbEntity
  8
0
  6
PHANTOM
 62
     7
100
AcDbLine
 10
409.1494885040839
 20
424.68070897465
 30
0.0
 11
407.4417989775971
 21
422.9730194481633
 31
0.0
  0
LINE
  5
585
330
A
100
AcDbEntity
  8
0
  6
PHANTOM
 62
     7
100
AcDbLine
 10
409.1494885040839
 20
424.68070897465
 30
0.0
 11
413.370862687925
 21
428.9020831584912
 31
0.0
  0
LINE
  5
586
330
A
100
AcDbEntity
  8
0
  6
PHANTOM
 62
     7
100
AcDbLine
 10
415.0785522144118
 20
430.6097726849781
 30
0.0
 11
413.370862687925
 21
428.9020831584912
 31
0.0
  0
LWPOLYLINE
  5
587
330
A
100
AcDbEntity
  8
0
  6
PHANTOM
 62
     7
100
AcDbPolyline
 90
        5
 70
   128
 43
0.0
 10
422.0195460108045
 20
366.8188220359655
 10
421.3074795583702
 20
367.5308884938374
 10
420.7657571412996
 20
368.0726109268924
 10
420.4270699511153
 20
368.4112981426434
 10
420.3118566616688
 20
368.5265114656958
  0
LINE
  5
58E
330
A
100
AcDbEntity
  8
0
  6
PHANTOM
 62
     7
100
AcDbLine
 10
426.2409203377192
 20
362.5974478186699
 30
0.0
 11
427.9486098799909
 21
360.8897583079681
 31
0.0
  0
LINE
  5
58F
330
A
100
AcDbEntity
  8
0
  6
PHANTOM
 62
     7
100
AcDbLine
 10
422.7217973102117
 20
354.1015332280872
 30
0.0
 11
425.1368349988918
 21
354.1015332280872
 31
0.0
  0
LINE
  5
590
330
A
100
AcDbEntity
  8
0
  6
PHANTOM
 62
     7
100
AcDbLine
 10
396.2768349988919
 20
-185.1852633363162
 30
0.0
 11
626.2768349988919
 21
-185.1852633363162
 31
0.0
  0
LINE
  5
591
330
A
100
AcDbEntity
  8
0
  6
PHANTOM
 62
     7
100
AcDbLine
 10
626.2768349988919
 20
-176.1852633363162
 30
0.0
 11
396.2768349988919
 21
-176.1852633363162
 31
0.0
  0
LINE
  5
592
330
A
100
AcDbEntity
  8
0
  6
PHANTOM
 62
     7
100
AcDbLine
 10
405.5415726409795
 20
-172.9946841089151
 30
0.0
 11
445.0120973568042
 21
-172.9946841089151
 31
0.0
  0
LINE
  5
593
330
A
100
AcDbEntity
  8
0
  6
PHANTOM
 62
     7
100
AcDbLine
 10
439.1453709797631
 20
-135.5305529500167
 30
0.0
 11
411.4082990180206
 21
-135.5305529500167
 31
0.0
  0
ENDSEC
  0
SECTION
  2
OBJECTS
  0
DICTIONARY
  5
19
330
0
100
AcDbDictionary
281
     1
  3
ACAD_COLOR
350
598
  3
ACAD_GROUP
350
1A
  3
ACAD_LAYOUT
350
599
  3
ACAD_MATERIAL
350
597
  3
ACAD_MLINESTYLE
350
1B
  3
ACAD_PLOTSETTINGS
350
59A
  3
ACAD_PLOTSTYLENAME
350
595
  3
ACAD_TABLESTYLE
350
5AF
  3
ACDBHEADERROUNDTRIPXREC
350
5B5
  3
AcDbVariableDictionary
350
5AB
  3
ASE_INDEX_DICTIONARY
350
5A0
  0
DICTIONARY
  5
598
102
{ACAD_REACTORS
330
19
102
}
330
19
100
AcDbDictionary
281
     1
  0
DICTIONARY
  5
1A
102
{ACAD_REACTORS
330
19
102
}
330
19
100
AcDbDictionary
281
     1
  0
DICTIONARY
  5
599
102
{ACAD_REACTORS
330
19
102
}
330
19
100
AcDbDictionary
281
     1
  3
Layout1
350
59C
  3
Model
350
59B
  0
DICTIONARY
  5
597
102
{ACAD_REACTORS
330
19
102
}
330
19
100
AcDbDictionary
281
     1
  0
DICTIONARY
  5
1B
102
{ACAD_REACTORS
330
19
102
}
330
19
100
AcDbDictionary
281
     1
  3
STANDARD
350
1C
  0
DICTIONARY
  5
59A
102
{ACAD_REACTORS
330
19
102
}
330
19
100
AcDbDictionary
281
     1
  0
ACDBDICTIONARYWDFLT
  5
595
102
{ACAD_REACTORS
330
19
102
}
330
19
100
AcDbDictionary
281
     1
  3
Normal
350
596
100
AcDbDictionaryWithDefault
340
596
  0
DICTIONARY
  5
5AF
102
{ACAD_REACTORS
330
19
102
}
330
19
100
AcDbDictionary
281
     1
  3
Standard
350
5B0
  0
DICTIONARY
  5
5B5
102
{ACAD_REACTORS
330
19
102
}
330
19
100
AcDbDictionary
281
     1
  0
DICTIONARY
  5
5AB
102
{ACAD_REACTORS
330
19
102
}
330
19
100
AcDbDictionary
281
     1
  3
CTABLESTYLE
350
5B3
  3
DIMASSOC
350
5AC
  3
PROJECTNAME
350
5AD
  0
DICTIONARY
  5
5A0
102
{ACAD_REACTORS
330
19
102
}
330
19
100
AcDbDictionary
281
     1
  3
ASEBlockHierarchyIndexRecord
350
5A2
1001
DCO15
1040
1521897799.5
  0
LAYOUT
  5
59C
102
{ACAD_XDICTIONARY
360
5B8
102
}
102
{ACAD_REACTORS
330
599
102
}
330
599
100
AcDbPlotSettings
  1

  2
ProgeSOFT PDF Wizard
  4

  6

 40
0.0
 41
0.0
 42
0.0
 43
0.0
 44
0.0
 45
0.0
 46
0.0
 47
0.0
 48
0.0
 49
0.0
140
0.0
141
0.0
142
1.0
143
1.0
 70
   688
 72
     0
 73
     0
 74
     5
  7

 75
    16
147
1.0
148
0.0
149
0.0
100
AcDbLayout
  1
Layout1
 70
     1
 71
     1
 10
0.0
 20
0.0
 11
12.0
 21
9.0
 12
0.0
 22
0.0
 32
0.0
 14
1.000000000000000E+20
 24
1.000000000000000E+20
 34
1.000000000000000E+20
 15
-1.000000000000000E+20
 25
-1.000000000000000E+20
 35
-1.000000000000000E+20
146
0.0
 13
0.0
 23
0.0
 33
0.0
 16
1.0
 26
0.0
 36
0.0
 17
0.0
 27
1.0
 37
0.0
 76
     0
330
B
  0
LAYOUT
  5
59B
102
{ACAD_XDICTIONARY
360
5B6
102
}
102
{ACAD_REACTORS
330
599
102
}
330
599
100
AcDbPlotSettings
  1

  2
ProgeSOFT PDF Wizard
  4

  6

 40
0.0
 41
0.0
 42
0.0
 43
0.0
 44
0.0
 45
0.0
 46
0.0
 47
0.0
 48
0.0
 49
0.0
140
0.0
141
0.0
142
1.0
143
1.0
 70
  1712
 72
     0
 73
     0
 74
     0
  7

 75
     0
147
1.0
148
0.0
149
0.0
100
AcDbLayout
  1
Model
 70
     1
 71
     0
 10
0.0
 20
0.0
 11
12.0
 21
9.0
 12
0.0
 22
0.0
 32
0.0
 14
0.0
 24
0.0
 34
0.0
 15
0.0
 25
0.0
 35
0.0
146
0.0
 13
0.0
 23
0.0
 33
0.0
 16
1.0
 26
0.0
 36
0.0
 17
0.0
 27
1.0
 37
0.0
 76
     0
330
A
  0
MLINESTYLE
  5
1C
102
{ACAD_REACTORS
330
1B
102
}
330
1B
100
AcDbMlineStyle
  2
STANDARD
 70
     0
  3

 62
     0
 51
90.0
 52
90.0
 71
     2
 49
0.5
 62
   256
  6
BYLAYER
 49
-0.5
 62
   256
  6
BYLAYER
  0
ACDBPLACEHOLDER
  5
596
102
{ACAD_REACTORS
330
595
102
}
330
595
  0
TABLESTYLE
  5
5B0
102
{ACAD_REACTORS
330
5AF
102
}
330
5AF
100
AcDbTableStyle
  3
Standard
 70
     0
 71
     0
 40
0.06
 41
0.06
280
     0
281
     0
  7
STANDARD
140
0.18
170
     2
 62
     0
 63
     7
283
     0
274
    -2
284
     1
 64
     0
275
    -2
285
     1
 65
     0
276
    -2
286
     1
 66
     0
277
    -2
287
     1
 67
     0
278
    -2
288
     1
 68
     0
279
    -2
289
     1
 69
     0
  7
STANDARD
140
0.25
170
     5
 62
     0
 63
     7
283
     0
274
    -2
284
     1
 64
     0
275
    -2
285
     1
 65
     0
276
    -2
286
     1
 66
     0
277
    -2
287
     1
 67
     0
278
    -2
288
     1
 68
     0
279
    -2
289
     1
 69
     0
  7
STANDARD
140
0.18
170
     5
 62
     0
 63
     7
283
     0
274
    -2
284
     1
 64
     0
275
    -2
285
     1
 65
     0
276
    -2
286
     1
 66
     0
277
    -2
287
     1
 67
     0
278
    -2
288
     1
 68
     0
279
    -2
289
     1
 69
     0
  0
DICTIONARYVAR
  5
5B3
102
{ACAD_REACTORS
330
5AB
102
}
330
5AB
100
DictionaryVariables
280
     0
  1
STANDARD
  0
DICTIONARYVAR
  5
5AC
102
{ACAD_REACTORS
330
5AB
102
}
330
5AB
100
DictionaryVariables
280
     0
  1
1
  0
DICTIONARYVAR
  5
5AD
102
{ACAD_REACTORS
330
5AB
102
}
330
5AB
100
DictionaryVariables
280
     0
  1

  0
XRECORD
  5
5A2
102
{ACAD_REACTORS
330
5A0
102
}
330
5A0
100
AcDbXrecord
280
     1
  0
DICTIONARY
  5
5B8
330
59C
100
AcDbDictionary
280
     1
281
     1
  3
ACAD_XREC_ROUNDTRIP
360
5B9
  0
DICTIONARY
  5
5B6
330
59B
100
AcDbDictionary
280
     1
281
     1
  3
ACAD_XREC_ROUNDTRIP
360
5B7
  0
XRECORD
  5
5B9
102
{ACAD_REACTORS
330
5B8
102
}
330
5B8
100
AcDbXrecord
280
     1
102
SHADEPLOT
 70
     0
102
SHADEPLOTRESLEVEL
 70
     2
102
SHADEPLOTCUSTOMDPI
 70
   300
  0
XRECORD
  5
5B7
102
{ACAD_REACTORS
330
5B6
102
}
330
5B6
100
AcDbXrecord
280
     1
102
SHADEPLOT
 70
     0
102
SHADEPLOTRESLEVEL
 70
     2
102
SHADEPLOTCUSTOMDPI
 70
   300
  0
ENDSEC
  0
EOF
