  0
SECTION
  2
HEADER
  9
$ACADVER
  1
AC1015
  9
$ACADMAINTVER
 70
    20
  9
$DWGCODEPAGE
  3
ANSI_1252
  9
$INSBASE
 10
0.0
 20
0.0
 30
0.0
  9
$EXTMIN
 10
-714.1499999999999
 20
-846.1941755172064
 30
0.0
  9
$EXTMAX
 10
1479.727872038393
 20
565.5442667287893
 30
0.0
  9
$LIMMIN
 10
0.0
 20
0.0
  9
$LIMMAX
 10
0.0
 20
0.0
  9
$ORTHOMODE
 70
     0
  9
$REGENMODE
 70
     1
  9
$FILLMODE
 70
     1
  9
$QTEXTMODE
 70
     0
  9
$MIRRTEXT
 70
     1
  9
$LTSCALE
 40
1.0
  9
$ATTMODE
 70
     1
  9
$TEXTSIZE
 40
0.0
  9
$TRACEWID
 40
0.05
  9
$TEXTSTYLE
  7
STANDARD
  9
$CLAYER
  8
0
  9
$CELTYPE
  6
CONTINUOUS
  9
$CECOLOR
 62
   256
  9
$CELTSCALE
 40
1.0
  9
$DISPSILH
 70
     0
  9
$DIMSCALE
 40
1.0
  9
$DIMASZ
 40
6.0
  9
$DIMEXO
 40
1.0
  9
$DIMDLI
 40
0.38
  9
$DIMRND
 40
0.0
  9
$DIMDLE
 40
1.0
  9
$DIMEXE
 40
0.18
  9
$DIMTP
 40
0.0
  9
$DIMTM
 40
0.0
  9
$DIMTXT
 40
3.5
  9
$DIMCEN
 40
0.09
  9
$DIMTSZ
 40
0.0
  9
$DIMTOL
 70
     0
  9
$DIMLIM
 70
     0
  9
$DIMTIH
 70
     1
  9
$DIMTOH
 70
     1
  9
$DIMSE1
 70
     0
  9
$DIMSE2
 70
     0
  9
$DIMTAD
 70
     1
  9
$DIMZIN
 70
     0
  9
$DIMBLK
  1

  9
$DIMASO
 70
     1
  9
$DIMSHO
 70
     1
  9
$DIMPOST
  1

  9
$DIMAPOST
  1

  9
$DIMALT
 70
     0
  9
$DIMALTD
 70
     2
  9
$DIMALTF
 40
0.0394
  9
$DIMLFAC
 40
20.0
  9
$DIMTOFL
 70
     0
  9
$DIMTVP
 40
0.0
  9
$DIMTIX
 70
     0
  9
$DIMSOXD
 70
     0
  9
$DIMSAH
 70
     0
  9
$DIMBLK1
  1

  9
$DIMBLK2
  1

  9
$DIMSTYLE
  2
STANDARD
  9
$DIMCLRD
 70
     0
  9
$DIMCLRE
 70
     0
  9
$DIMCLRT
 70
     0
  9
$DIMTFAC
 40
1.0
  9
$DIMGAP
 40
1.0
  9
$DIMJUST
 70
     0
  9
$DIMSD1
 70
     0
  9
$DIMSD2
 70
     0
  9
$DIMTOLJ
 70
     1
  9
$DIMTZIN
 70
     0
  9
$DIMALTZ
 70
     0
  9
$DIMALTTZ
 70
     0
  9
$DIMUPT
 70
     0
  9
$DIMDEC
 70
     4
  9
$DIMTDEC
 70
     4
  9
$DIMALTU
 70
     2
  9
$DIMALTTD
 70
     2
  9
$DIMTXSTY
  7
STANDARD
  9
$DIMAUNIT
 70
     0
  9
$DIMADEC
 70
     0
  9
$DIMALTRND
 40
0.0
  9
$DIMAZIN
 70
     0
  9
$DIMDSEP
 70
    46
  9
$DIMATFIT
 70
     3
  9
$DIMFRAC
 70
     0
  9
$DIMLDRBLK
  1

  9
$DIMLUNIT
 70
     2
  9
$DIMLWD
 70
    -2
  9
$DIMLWE
 70
    -2
  9
$DIMTMOVE
 70
     0
  9
$LUNITS
 70
     2
  9
$LUPREC
 70
     2
  9
$SKETCHINC
 40
0.1
  9
$FILLETRAD
 40
0.0
  9
$AUNITS
 70
     0
  9
$AUPREC
 70
     2
  9
$MENU
  1
acad
  9
$ELEVATION
 40
0.0
  9
$PELEVATION
 40
0.0
  9
$THICKNESS
 40
0.0
  9
$LIMCHECK
 70
     0
  9
$CHAMFERA
 40
0.0
  9
$CHAMFERB
 40
0.0
  9
$CHAMFERC
 40
0.0
  9
$CHAMFERD
 40
0.0
  9
$SKPOLY
 70
     0
  9
$TDCREATE
 40
2444972.041666667
  9
$TDUCREATE
 40
2444972.000000000
  9
$TDUPDATE
 40
2453768.831465023
  9
$TDUUPDATE
 40
2453768.789798357
  9
$TDINDWG
 40
0.0057921065
  9
$TDUSRTIMER
 40
0.0057921065
  9
$USRTIMER
 70
     1
  9
$ANGBASE
 50
0.0
  9
$ANGDIR
 70
     0
  9
$PDMODE
 70
     0
  9
$PDSIZE
 40
-1.0
  9
$PLINEWID
 40
0.0
  9
$SPLFRAME
 70
     0
  9
$SPLINETYPE
 70
     6
  9
$SPLINESEGS
 70
     8
  9
$HANDSEED
  5
406
  9
$SURFTAB1
 70
     6
  9
$SURFTAB2
 70
     6
  9
$SURFTYPE
 70
     6
  9
$SURFU
 70
     6
  9
$SURFV
 70
     6
  9
$UCSBASE
  2

  9
$UCSNAME
  2

  9
$UCSORG
 10
0.0
 20
0.0
 30
0.0
  9
$UCSXDIR
 10
1.0
 20
0.0
 30
0.0
  9
$UCSYDIR
 10
0.0
 20
1.0
 30
0.0
  9
$UCSORTHOREF
  2

  9
$UCSORTHOVIEW
 70
     1
  9
$UCSORGTOP
 10
0.0
 20
0.0
 30
0.0
  9
$UCSORGBOTTOM
 10
0.0
 20
0.0
 30
0.0
  9
$UCSORGLEFT
 10
0.0
 20
0.0
 30
0.0
  9
$UCSORGRIGHT
 10
0.0
 20
0.0
 30
0.0
  9
$UCSORGFRONT
 10
0.0
 20
0.0
 30
0.0
  9
$UCSORGBACK
 10
0.0
 20
0.0
 30
0.0
  9
$PUCSBASE
  2

  9
$PUCSNAME
  2

  9
$PUCSORG
 10
0.0
 20
0.0
 30
0.0
  9
$PUCSXDIR
 10
1.0
 20
0.0
 30
0.0
  9
$PUCSYDIR
 10
0.0
 20
1.0
 30
0.0
  9
$PUCSORTHOREF
  2

  9
$PUCSORTHOVIEW
 70
     0
  9
$PUCSORGTOP
 10
0.0
 20
0.0
 30
0.0
  9
$PUCSORGBOTTOM
 10
0.0
 20
0.0
 30
0.0
  9
$PUCSORGLEFT
 10
0.0
 20
0.0
 30
0.0
  9
$PUCSORGRIGHT
 10
0.0
 20
0.0
 30
0.0
  9
$PUCSORGFRONT
 10
0.0
 20
0.0
 30
0.0
  9
$PUCSORGBACK
 10
0.0
 20
0.0
 30
0.0
  9
$USERI1
 70
     0
  9
$USERI2
 70
     0
  9
$USERI3
 70
     0
  9
$USERI4
 70
     0
  9
$USERI5
 70
     0
  9
$USERR1
 40
0.0
  9
$USERR2
 40
0.0
  9
$USERR3
 40
0.0
  9
$USERR4
 40
0.0
  9
$USERR5
 40
0.0
  9
$WORLDVIEW
 70
     1
  9
$SHADEDGE
 70
     3
  9
$SHADEDIF
 70
    70
  9
$TILEMODE
 70
     1
  9
$MAXACTVP
 70
    16
  9
$PINSBASE
 10
0.0
 20
0.0
 30
0.0
  9
$PLIMCHECK
 70
     0
  9
$PEXTMIN
 10
1.000000000000000E+20
 20
1.000000000000000E+20
 30
1.000000000000000E+20
  9
$PEXTMAX
 10
-1.000000000000000E+20
 20
-1.000000000000000E+20
 30
-1.000000000000000E+20
  9
$PLIMMIN
 10
0.0
 20
0.0
  9
$PLIMMAX
 10
12.0
 20
9.0
  9
$UNITMODE
 70
     0
  9
$VISRETAIN
 70
     0
  9
$PLINEGEN
 70
     1
  9
$PSLTSCALE
 70
     1
  9
$TREEDEPTH
 70
  3020
  9
$CMLSTYLE
  2
STANDARD
  9
$CMLJUST
 70
     0
  9
$CMLSCALE
 40
1.0
  9
$PROXYGRAPHICS
 70
     0
  9
$MEASUREMENT
 70
     0
  9
$CELWEIGHT
370
    -1
  9
$ENDCAPS
280
     0
  9
$JOINSTYLE
280
     0
  9
$LWDISPLAY
290
     0
  9
$INSUNITS
 70
     0
  9
$HYPERLINKBASE
  1

  9
$STYLESHEET
  1

  9
$XEDIT
290
     1
  9
$CEPSNTYPE
380
     0
  9
$PSTYLEMODE
290
     1
  9
$FINGERPRINTGUID
  2
{42ECCA9A-07CA-45CF-9CC4-2D68CBB31E3D}
  9
$VERSIONGUID
  2
{7174F496-9DA2-440D-848B-E3BCAA61B1C4}
  9
$EXTNAMES
290
     1
  9
$PSVPSCALE
 40
0.0
  9
$OLESTARTUP
290
     0
  0
ENDSEC
  0
SECTION
  2
CLASSES
  0
CLASS
  1
IMAGE
  2
AcDbRasterImage
  3
ISM
 90
    32895
280
     0
281
     1
  0
CLASS
  1
DICTIONARYVAR
  2
AcDbDictionaryVar
  3
ObjectDBX Classes
 90
        0
280
     0
281
     0
  0
CLASS
  1
RASTERVARIABLES
  2
AcDbRasterVariables
  3
ISM
 90
    32768
280
     0
281
     0
  0
CLASS
  1
IMAGEDEF
  2
AcDbRasterImageDef
  3
ISM
 90
    32768
280
     0
281
     0
  0
CLASS
  1
IMAGEDEF_REACTOR
  2
AcDbRasterImageDefReactor
  3
ISM
 90
    32769
280
     0
281
     0
  0
CLASS
  1
IDBUFFER
  2
AcDbIdBuffer
  3
ObjectDBX Classes
 90
    32768
280
     0
281
     0
  0
CLASS
  1
SPATIAL_FILTER
  2
AcDbSpatialFilter
  3
ObjectDBX Classes
 90
    32768
280
     0
281
     0
  0
CLASS
  1
SORTENTSTABLE
  2
AcDbSortentsTable
  3
ObjectDBX Classes
 90
    32768
280
     0
281
     0
  0
CLASS
  1
LAYER_INDEX
  2
AcDbLayerIndex
  3
ObjectDBX Classes
 90
    32768
280
     0
281
     0
  0
CLASS
  1
SPATIAL_INDEX
  2
AcDbSpatialIndex
  3
ObjectDBX Classes
 90
    32768
280
     0
281
     0
  0
CLASS
  1
OBJECT_PTR
  2
CAseDLPNTableRecord
  3
ASE-LPNTableRecord
 90
    32769
280
     0
281
     0
  0
CLASS
  1
LAYOUT
  2
AcDbLayout
  3
ObjectDBX Classes
 90
        0
280
     0
281
     0
  0
CLASS
  1
PLOTSETTINGS
  2
AcDbPlotSettings
  3
ObjectDBX Classes
 90
    32768
280
     0
281
     0
  0
CLASS
  1
ACDBDICTIONARYWDFLT
  2
AcDbDictionaryWithDefault
  3
ObjectDBX Classes
 90
        0
280
     0
281
     0
  0
CLASS
  1
ACDBPLACEHOLDER
  2
AcDbPlaceHolder
  3
ObjectDBX Classes
 90
        0
280
     0
281
     0
  0
CLASS
  1
VBA_PROJECT
  2
AcDbVbaProject
  3
acad
 90
    32768
280
     0
281
     0
  0
CLASS
  1
WIPEOUT
  2
AcDbWipeout
  3
"WipeOut|Product Desc: Object Enabler for WipeOut entity^I^I^I^I^I^I|Company: Autodesk, Inc.^I^I^I^I^I^I|WEB Address: www.autodesk.com"
 90
    32895
280
     0
281
     1
  0
CLASS
  1
WIPEOUTVARIABLES
  2
AcDbWipeoutVariables
  3
"WipeOut|Product Desc:     WipeOut Dbx Application|Company:          Autodesk, Inc.|WEB Address:      www.autodesk.com"
 90
    32768
280
     0
281
     0
  0
CLASS
  1
RTEXT
  2
RText
  3
RText|AutoCAD Express Tool|expresstools@autodesk.com
 90
    32768
280
     0
281
     1
  0
CLASS
  1
ARCALIGNEDTEXT
  2
AcDbArcAlignedText
  3
ATEXT|AutoCAD Express Tool|expresstools@autodesk.com
 90
    32768
280
     0
281
     1
  0
ENDSEC
  0
SECTION
  2
TABLES
  0
TABLE
  2
VPORT
  5
7
330
0
100
AcDbSymbolTable
 70
     2
  0
VPORT
  5
3FE
330
7
100
AcDbSymbolTableRecord
100
AcDbViewportTableRecord
  2
*Active
 70
     0
 10
0.0
 20
0.0
 11
1.0
 21
1.0
 12
382.7889360191963
 22
-94.17876793157587
 13
0.0
 23
0.0
 14
1.0
 24
1.0
 15
0.0
 25
0.0
 16
0.0
 26
0.0
 36
1.0
 17
0.0
 27
0.0
 37
0.0
 40
1516.360958438585
 41
1.569570871261378
 42
50.0
 43
0.0
 44
0.0
 50
0.0
 51
0.0
 71
     0
 72
  2000
 73
     1
 74
     1
 75
     0
 76
     0
 77
     0
 78
     0
281
     0
 65
     1
110
0.0
120
0.0
130
0.0
111
1.0
121
0.0
131
0.0
112
0.0
122
1.0
132
0.0
 79
     1
146
0.0
  0
ENDTAB
  0
TABLE
  2
LTYPE
  5
4
330
0
100
AcDbSymbolTable
 70
     6
  0
LTYPE
  5
11
330
4
100
AcDbSymbolTableRecord
100
AcDbLinetypeTableRecord
  2
BYBLOCK
 70
     0
  3

 72
    65
 73
     0
 40
0.0
  0
LTYPE
  5
12
330
4
100
AcDbSymbolTableRecord
100
AcDbLinetypeTableRecord
  2
BYLAYER
 70
     0
  3

 72
    65
 73
     0
 40
0.0
  0
LTYPE
  5
13
330
4
100
AcDbSymbolTableRecord
100
AcDbLinetypeTableRecord
  2
CONTINUOUS
 70
     0
  3
Solid line
 72
    65
 73
     0
 40
0.0
  0
LTYPE
  5
1E
330
4
100
AcDbSymbolTableRecord
100
AcDbLinetypeTableRecord
  2
HIDDEN
 70
     0
  3
Hidden __ __ __ __ __ __ __ __ __ __ __ __ __ __
 72
    65
 73
     2
 40
1.905
 49
1.27
 74
     0
 49
-0.635
 74
     0
  0
LTYPE
  5
1F
330
4
100
AcDbSymbolTableRecord
100
AcDbLinetypeTableRecord
  2
PHANTOM
 70
     0
  3
Phantom ______  __  __  ______  __  __  ______
 72
    65
 73
     6
 40
12.7
 49
6.349999999999999
 74
     0
 49
-1.27
 74
     0
 49
1.27
 74
     0
 49
-1.27
 74
     0
 49
1.27
 74
     0
 49
-1.27
 74
     0
  0
LTYPE
  5
20
330
4
100
AcDbSymbolTableRecord
100
AcDbLinetypeTableRecord
  2
CENTER
 70
     0
  3
Center ____ _ ____ _ ____ _ ____ _ ____ _ ____
 72
    65
 73
     4
 40
10.16
 49
6.349999999999999
 74
     0
 49
-1.27
 74
     0
 49
1.27
 74
     0
 49
-1.27
 74
     0
  0
LTYPE
  5
21
330
4
100
AcDbSymbolTableRecord
100
AcDbLinetypeTableRecord
  2
CENTERX2
 70
     0
  3
Center (2x) ________  __  ________  __  _____
 72
    65
 73
     4
 40
20.32
 49
12.7
 74
     0
 49
-2.54
 74
     0
 49
2.54
 74
     0
 49
-2.54
 74
     0
  0
LTYPE
  5
22
330
4
100
AcDbSymbolTableRecord
100
AcDbLinetypeTableRecord
  2
DOT2
 70
     0
  3
Dot (.5x) ........................................
 72
    65
 73
     2
 40
0.635
 49
0.0
 74
     0
 49
-0.635
 74
     0
  0
ENDTAB
  0
TABLE
  2
LAYER
  5
2
330
0
100
AcDbSymbolTable
 70
     2
  0
LAYER
  5
14
330
2
100
AcDbSymbolTableRecord
100
AcDbLayerTableRecord
  2
0
 70
     0
 62
     7
  6
CONTINUOUS
370
    -3
390
3E3
  0
LAYER
  5
26
330
2
100
AcDbSymbolTableRecord
100
AcDbLayerTableRecord
  2
DEFPOINTS
 70
     0
 62
     7
  6
CONTINUOUS
290
     0
370
    -3
390
3E3
  0
ENDTAB
  0
TABLE
  2
STYLE
  5
3
330
0
100
AcDbSymbolTable
 70
     1
  0
STYLE
  5
17
330
3
100
AcDbSymbolTableRecord
100
AcDbTextStyleTableRecord
  2
STANDARD
 70
     0
 40
0.0
 41
1.0
 50
0.0
 71
     0
 42
0.0
  3
Century Gothic
  4

  0
ENDTAB
  0
TABLE
  2
VIEW
  5
5
330
0
100
AcDbSymbolTable
 70
     0
  0
ENDTAB
  0
TABLE
  2
UCS
  5
6
330
0
100
AcDbSymbolTable
 70
     0
  0
ENDTAB
  0
TABLE
  2
APPID
  5
8
330
0
100
AcDbSymbolTable
 70
     2
  0
APPID
  5
16
330
8
100
AcDbSymbolTableRecord
100
AcDbRegAppTableRecord
  2
ACAD
 70
     0
  0
APPID
  5
3EE
330
8
100
AcDbSymbolTableRecord
100
AcDbRegAppTableRecord
  2
DCO15
 70
     0
  0
ENDTAB
  0
TABLE
  2
DIMSTYLE
  5
9
330
0
100
AcDbSymbolTable
 70
     1
100
AcDbDimStyleTable
 71
     0
  0
DIMSTYLE
105
18
330
9
100
AcDbSymbolTableRecord
100
AcDbDimStyleTableRecord
  2
STANDARD
 70
     0
289
     0
340
17
  0
ENDTAB
  0
TABLE
  2
BLOCK_RECORD
  5
1
330
0
100
AcDbSymbolTable
 70
     0
  0
BLOCK_RECORD
  5
A
330
1
100
AcDbSymbolTableRecord
100
AcDbBlockTableRecord
  2
*MODEL_SPACE
340
3E8
  0
BLOCK_RECORD
  5
B
330
1
100
AcDbSymbolTableRecord
100
AcDbBlockTableRecord
  2
*PAPER_SPACE
340
3E9
  0
ENDTAB
  0
ENDSEC
  0
SECTION
  2
BLOCKS
  0
BLOCK
  5
D
330
A
100
AcDbEntity
  8
0
100
AcDbBlockBegin
  2
*MODEL_SPACE
 70
     0
 10
0.0
 20
0.0
 30
0.0
  3
*MODEL_SPACE
  1

  0
ENDBLK
  5
E
330
A
100
AcDbEntity
  8
0
100
AcDbBlockEnd
  0
BLOCK
  5
F
330
B
100
AcDbEntity
 67
     1
  8
0
100
AcDbBlockBegin
  2
*PAPER_SPACE
 70
     0
 10
0.0
 20
0.0
 30
0.0
  3
*PAPER_SPACE
  1

  0
ENDBLK
  5
10
330
B
100
AcDbEntity
 67
     1
  8
0
100
AcDbBlockEnd
  0
ENDSEC
  0
SECTION
  2
ENTITIES
  0
LINE
  5
27
330
A
100
AcDbEntity
  8
0
  6
Continuous
 62
     7
100
AcDbLine
 10
-569.1103327115667
 20
-75.45573327121075
 30
0.0
 11
-571.5477808792695
 21
-35.60380799876234
 31
0.0
  0
LINE
  5
28
330
A
100
AcDbEntity
  8
0
  6
Continuous
 62
     7
100
AcDbLine
 10
-616.5477808792681
 20
-35.60380799876234
 30
0.0
 11
-618.9852290469712
 21
-75.45573327121075
 31
0.0
  0
LINE
  5
29
330
A
100
AcDbEntity
  8
0
  6
Continuous
 62
     7
100
AcDbLine
 10
-571.5477808792695
 20
-35.60380799876234
 30
0.0
 11
-579.0477808792689
 21
-28.10380799876239
 31
0.0
  0
LINE
  5
2A
330
A
100
AcDbEntity
  8
0
  6
Continuous
 62
     7
100
AcDbLine
 10
-609.0477808792687
 20
-28.10380799876239
 30
0.0
 11
-616.5477808792681
 21
-35.60380799876234
 31
0.0
  0
LINE
  5
2B
330
A
100
AcDbEntity
  8
0
  6
Continuous
 62
     7
100
AcDbLine
 10
-73.16671594385812
 20
77.49692443043738
 30
0.0
 11
-68.51791506471046
 21
67.52753877303419
 31
0.0
  0
LINE
  5
2C
330
A
100
AcDbEntity
  8
0
  6
Continuous
 62
     7
100
AcDbLine
 10
-53.11068268508742
 20
74.71204922262598
 30
0.0
 11
-57.75948356423508
 21
84.68143488002915
 31
0.0
  0
ARC
  5
2D
330
A
100
AcDbEntity
  8
0
  6
Continuous
 62
     7
100
AcDbCircle
 10
-667.5740506062972
 20
168.61671867387
 30
0.0
 40
10.0000000000003
100
AcDbArc
 50
32.99999999999984
 51
213.0000000000042
  0
LINE
  5
2E
330
A
100
AcDbEntity
  8
0
  6
Continuous
 62
     7
100
AcDbLine
 10
-675.7577796898593
 20
162.8698431500002
 30
0.0
 11
-607.2127840382091
 21
65.25964224741759
 31
0.0
  0
LINE
  5
2F
330
A
100
AcDbEntity
  8
0
  6
Continuous
 62
     7
100
AcDbLine
 10
-599.2541802855932
 20
74.02306004016506
 30
0.0
 11
-658.9953961824725
 21
173.755462279786
 31
0.0
  0
LINE
  5
30
330
A
100
AcDbEntity
  8
0
  6
Continuous
 62
     7
100
AcDbLine
 10
696.107821751166
 20
437.8705994597146
 30
0.0
 11
-47.06456361888808
 21
91.32362483234292
 31
0.0
  0
LINE
  5
31
330
A
100
AcDbEntity
  8
0
  6
Continuous
 62
     7
100
AcDbLine
 10
-152.5477808792686
 20
62.39619200123764
 30
0.0
 11
-542.5477808792687
 21
62.39619200123764
 31
0.0
  0
LINE
  5
32
330
A
100
AcDbEntity
  8
0
  6
Continuous
 62
     7
100
AcDbLine
 10
-599.3159742171602
 20
36.80830278373898
 30
0.0
 11
-597.5477808792678
 21
-8.103807998754374
 31
0.0
  0
LINE
  5
33
330
A
100
AcDbEntity
  8
0
  6
Continuous
 62
     7
100
AcDbLine
 10
-590.5477808792698
 20
-8.103807998754374
 30
0.0
 11
-588.9122551242232
 21
33.43854617945491
 31
0.0
  0
LINE
  5
34
330
A
100
AcDbEntity
  8
0
  6
Continuous
 62
     7
100
AcDbLine
 10
-46.43063622627705
 20
89.96416315178779
 30
0.0
 11
-57.75948356423508
 21
84.68143488002915
 31
0.0
  0
LINE
  5
35
330
A
100
AcDbEntity
  8
0
  6
Continuous
 62
     7
100
AcDbLine
 10
-73.16671594385812
 20
77.49692443043738
 30
0.0
 11
-90.5665490073216
 21
69.38324902232579
 31
0.0
  0
LINE
  5
36
330
A
100
AcDbEntity
  8
0
  6
Continuous
 62
     7
100
AcDbLine
 10
-85.91774812817396
 20
59.41386336492266
 30
0.0
 11
-68.51791506471046
 21
67.52753877303419
 31
0.0
  0
LINE
  5
37
330
A
100
AcDbEntity
  8
0
  6
Continuous
 62
     7
100
AcDbLine
 10
-53.11068268508742
 20
74.71204922262598
 30
0.0
 11
-41.78183534712939
 21
79.99477749438466
 31
0.0
  0
LINE
  5
38
330
A
100
AcDbEntity
  8
0
  6
Continuous
 62
     7
100
AcDbLine
 10
718.2199672489054
 20
446.5265953651042
 30
0.0
 11
696.7417491437768
 21
436.5111377791595
 31
0.0
  0
LINE
  5
39
330
A
100
AcDbEntity
  8
0
  6
Continuous
 62
     7
100
AcDbLine
 10
701.3905500229244
 20
426.5417521217562
 30
0.0
 11
722.8687681280531
 21
436.557209707701
 31
0.0
  0
LINE
  5
3A
330
A
100
AcDbEntity
  8
0
  6
Continuous
 62
     7
100
AcDbLine
 10
-542.5477808792687
 20
60.89619200123769
 30
0.0
 11
-566.2463724751279
 21
60.89619200123769
 31
0.0
  0
LINE
  5
3B
330
A
100
AcDbEntity
  8
0
  6
Continuous
 62
     7
100
AcDbLine
 10
-566.2463724751279
 20
49.8961920012378
 30
0.0
 11
-542.5477808792687
 21
49.8961920012378
 31
0.0
  0
LINE
  5
3C
330
A
100
AcDbEntity
  8
0
  6
Continuous
 62
     7
100
AcDbLine
 10
-128.8491892834094
 20
60.89619200123769
 30
0.0
 11
-152.5477808792686
 21
60.89619200123769
 31
0.0
  0
LINE
  5
3D
330
A
100
AcDbEntity
  8
0
  6
Continuous
 62
     7
100
AcDbLine
 10
-152.5477808792686
 20
49.8961920012378
 30
0.0
 11
-128.8491892834094
 21
49.8961920012378
 31
0.0
  0
ARC
  5
3E
330
A
100
AcDbEntity
  8
0
  6
Continuous
 62
     7
100
AcDbCircle
 10
-599.0477808792689
 20
-26.60380799876244
 30
0.0
 40
1.5
100
AcDbArc
 50
270.0000000000008
 51
0.0
  0
ARC
  5
3F
330
A
100
AcDbEntity
  8
0
  6
Continuous
 62
     7
100
AcDbCircle
 10
-589.0477808792685
 20
-26.60380799876244
 30
0.0
 40
1.500000000000341
100
AcDbArc
 50
180.0000000000004
 51
269.9999999999921
  0
LINE
  5
40
330
A
100
AcDbEntity
  8
0
  6
Continuous
 62
     7
100
AcDbLine
 10
-37.76696186059256
 20
71.3848535175366
 30
0.0
 11
705.4054235094617
 21
417.9318281449083
 31
0.0
  0
LINE
  5
41
330
A
100
AcDbEntity
  8
0
  6
Continuous
 62
     7
100
AcDbLine
 10
-542.5477808792687
 20
40.39619200123784
 30
0.0
 11
-152.5477808792686
 21
40.39619200123784
 31
0.0
  0
LINE
  5
42
330
A
100
AcDbEntity
  8
0
  6
Continuous
 62
     7
100
AcDbLine
 10
-597.5477808792678
 20
-8.103807998754374
 30
0.0
 11
-597.547780879269
 21
-26.60380799876244
 31
0.0
  0
LINE
  5
43
330
A
100
AcDbEntity
  8
0
  6
Continuous
 62
     7
100
AcDbLine
 10
-590.5477808792689
 20
-26.60380799876244
 30
0.0
 11
-590.5477808792698
 21
-8.103807998754374
 31
0.0
  0
LINE
  5
44
330
A
100
AcDbEntity
  8
0
  6
Continuous
 62
     7
100
AcDbLine
 10
-96.52239378521807
 20
101.7691182837843
 30
0.0
 11
-569.1646549725042
 21
67.48174874869673
 31
0.0
  0
LINE
  5
45
330
A
100
AcDbEntity
  8
0
  6
Continuous
 62
     7
100
AcDbLine
 10
-568.2944826078956
 20
66.0409327530615
 30
0.0
 11
-97.0846290158299
 21
100.2243896832567
 31
0.0
  0
LINE
  5
46
330
A
100
AcDbEntity
  8
0
  6
Continuous
 62
     7
100
AcDbLine
 10
-91.28385498835465
 20
102.1491429457787
 30
0.0
 11
-91.54072013205846
 21
102.1305089157181
 31
0.0
  0
LINE
  5
47
330
A
100
AcDbEntity
  8
0
  6
Continuous
 62
     7
100
AcDbLine
 10
-91.4321893067281
 20
100.6344403812073
 30
0.0
 11
-91.17532416302429
 21
100.6530744112678
 31
0.0
  0
LINE
  5
48
330
A
100
AcDbEntity
  8
0
  6
Continuous
 62
     7
100
AcDbLine
 10
625.85
 20
547.0442667287892
 30
0.0
 11
625.85
 21
545.5442667287893
 31
0.0
  0
LINE
  5
49
330
A
100
AcDbEntity
  8
0
  6
Continuous
 62
     7
100
AcDbLine
 10
853.85
 20
545.5442667287893
 30
0.0
 11
853.85
 21
547.0442667287892
 31
0.0
  0
LINE
  5
4A
330
A
100
AcDbEntity
  8
0
  6
Continuous
 62
     7
100
AcDbLine
 10
643.85
 20
565.5442667287893
 30
0.0
 11
643.85
 21
564.0442667287892
 31
0.0
  0
LINE
  5
4B
330
A
100
AcDbEntity
  8
0
  6
Continuous
 62
     7
100
AcDbLine
 10
835.8500000000001
 20
564.0442667287892
 30
0.0
 11
835.8500000000001
 21
565.5442667287893
 31
0.0
  0
ARC
  5
4C
330
A
100
AcDbEntity
  8
0
  6
Continuous
 62
     7
100
AcDbCircle
 10
834.6784271247463
 20
543.5442667287893
 30
0.0
 40
2.0
100
AcDbArc
 50
90.0
 51
135.0000000000004
  0
ARC
  5
4D
330
A
100
AcDbEntity
  8
0
  6
Continuous
 62
     7
100
AcDbCircle
 10
645.0215728752537
 20
543.5442667287893
 30
0.0
 40
2.000000000000015
100
AcDbArc
 50
44.99999999999539
 51
90.0
  0
LINE
  5
4E
330
A
100
AcDbEntity
  8
0
  6
Continuous
 62
     7
100
AcDbLine
 10
646.4357864376268
 20
544.9584802911623
 30
0.0
 11
675.264213562373
 21
516.1300531664161
 31
0.0
  0
LINE
  5
4F
330
A
100
AcDbEntity
  8
0
  6
Continuous
 62
     7
100
AcDbLine
 10
804.4357864376269
 20
516.1300531664161
 30
0.0
 11
833.264213562373
 21
544.9584802911623
 31
0.0
  0
ARC
  5
50
330
A
100
AcDbEntity
  8
0
  6
Continuous
 62
     7
100
AcDbCircle
 10
826.6784271247463
 20
562.0442667287892
 30
0.0
 40
2.000000000000096
100
AcDbArc
 50
90.0
 51
134.9999999999977
  0
ARC
  5
51
330
A
100
AcDbEntity
  8
0
  6
Continuous
 62
     7
100
AcDbCircle
 10
653.0215728752537
 20
562.0442667287892
 30
0.0
 40
2.000000000000176
100
AcDbArc
 50
45.0
 51
90.0
  0
LINE
  5
52
330
A
100
AcDbEntity
  8
0
  6
Continuous
 62
     7
100
AcDbLine
 10
654.4357864376268
 20
563.4584802911624
 30
0.0
 11
667.4357864376268
 21
550.4584802911621
 31
0.0
  0
LINE
  5
53
330
A
100
AcDbEntity
  8
0
  6
Continuous
 62
     7
100
AcDbLine
 10
812.2642135623731
 20
550.4584802911621
 30
0.0
 11
825.264213562373
 21
563.4584802911624
 31
0.0
  0
ARC
  5
54
330
A
100
AcDbEntity
  8
0
  6
Continuous
 62
     7
100
AcDbCircle
 10
666.0215728752538
 20
549.0442667287892
 30
0.0
 40
2.0
100
AcDbArc
 50
270.0000000000008
 51
44.99999999999953
  0
ARC
  5
55
330
A
100
AcDbEntity
  8
0
  6
Continuous
 62
     7
100
AcDbCircle
 10
813.6784271247462
 20
549.0442667287892
 30
0.0
 40
2.0
100
AcDbArc
 50
135.0000000000004
 51
270.0000000000008
  0
ARC
  5
56
330
A
100
AcDbEntity
  8
0
  6
Continuous
 62
     7
100
AcDbCircle
 10
803.0215728752539
 20
517.5442667287892
 30
0.0
 40
2.000000000000015
100
AcDbArc
 50
270.0000000000008
 51
315.0000000000008
  0
ARC
  5
57
330
A
100
AcDbEntity
  8
0
  6
Continuous
 62
     7
100
AcDbCircle
 10
676.6784271247461
 20
517.5442667287892
 30
0.0
 40
2.000000000000015
100
AcDbArc
 50
225.0000000000008
 51
270.0000000000008
  0
LINE
  5
58
330
A
100
AcDbEntity
  8
0
  6
Continuous
 62
     7
100
AcDbLine
 10
718.85
 20
515.5442667287892
 30
0.0
 11
718.85
 21
513.5442667287892
 31
0.0
  0
LINE
  5
59
330
A
100
AcDbEntity
  8
0
  6
Continuous
 62
     7
100
AcDbLine
 10
760.85
 20
513.5442667287892
 30
0.0
 11
760.85
 21
515.5442667287892
 31
0.0
  0
LINE
  5
5A
330
A
100
AcDbEntity
  8
0
  6
Continuous
 62
     7
100
AcDbLine
 10
718.85
 20
513.5442667287892
 30
0.0
 11
731.35
 21
472.5442667287892
 31
0.0
  0
LINE
  5
5B
330
A
100
AcDbEntity
  8
0
  6
Continuous
 62
     7
100
AcDbLine
 10
748.35
 20
472.5442667287892
 30
0.0
 11
760.85
 21
513.5442667287892
 31
0.0
  0
LINE
  5
5C
330
A
100
AcDbEntity
  8
0
  6
Continuous
 62
     7
100
AcDbLine
 10
731.35
 20
472.5442667287892
 30
0.0
 11
731.35
 21
470.8358906164923
 31
0.0
  0
LINE
  5
5D
330
A
100
AcDbEntity
  8
0
  6
Continuous
 62
     7
100
AcDbLine
 10
748.35
 20
470.8358906164923
 30
0.0
 11
748.35
 21
472.5442667287892
 31
0.0
  0
LINE
  5
5E
330
A
100
AcDbEntity
  8
0
  6
Continuous
 62
     7
100
AcDbLine
 10
-474.1500000000004
 20
-241.4557332712107
 30
0.0
 11
-514.9235107051612
 21
-75.45573327121075
 31
0.0
  0
LINE
  5
5F
330
A
100
AcDbEntity
  8
0
  6
Continuous
 62
     7
100
AcDbLine
 10
-673.3764892948389
 20
-75.45573327121075
 30
0.0
 11
-714.1499999999999
 21
-241.4557332712107
 31
0.0
  0
LINE
  5
60
330
A
100
AcDbEntity
  8
0
  6
Continuous
 62
     7
100
AcDbLine
 10
-714.1499999999999
 20
-241.4557332712107
 30
0.0
 11
-713.1788657200902
 21
-241.6942667287893
 31
0.0
  0
LINE
  5
61
330
A
100
AcDbEntity
  8
0
  6
Continuous
 62
     7
100
AcDbLine
 10
-475.1211342799098
 20
-241.6942667287893
 30
0.0
 11
-474.1500000000004
 21
-241.4557332712107
 31
0.0
  0
LINE
  5
62
330
A
100
AcDbEntity
  8
0
  6
Continuous
 62
     7
100
AcDbLine
 10
-616.5477808792681
 20
-35.60380799876234
 30
0.0
 11
-571.5477808792695
 21
-35.60380799876234
 31
0.0
  0
LINE
  5
63
330
A
100
AcDbEntity
  8
0
  6
Continuous
 62
     7
100
AcDbLine
 10
-609.0477808792687
 20
-28.10380799876239
 30
0.0
 11
-579.0477808792689
 21
-28.10380799876239
 31
0.0
  0
CIRCLE
  5
64
330
A
100
AcDbEntity
  8
0
  6
Continuous
 62
     7
100
AcDbCircle
 10
-587.5477808792687
 20
55.39619200123774
 30
0.0
 40
4.999999999999886
  0
CIRCLE
  5
65
330
A
100
AcDbEntity
  8
0
  6
Continuous
 62
     7
100
AcDbCircle
 10
-587.5477808792687
 20
55.39619200123774
 30
0.0
 40
22.0
  0
CIRCLE
  5
66
330
A
100
AcDbEntity
  8
0
  6
Continuous
 62
     7
100
AcDbCircle
 10
-107.5477808792686
 20
55.39619200123762
 30
0.0
 40
5.000000000000014
  0
CIRCLE
  5
67
330
A
100
AcDbEntity
  8
0
  6
Continuous
 62
     7
100
AcDbCircle
 10
-107.5477808792686
 20
55.39619200123762
 30
0.0
 40
22.00000000000001
  0
LINE
  5
68
330
A
100
AcDbEntity
  8
0
  6
Continuous
 62
     7
100
AcDbLine
 10
-57.75948356423508
 20
84.68143488002915
 30
0.0
 11
-73.16671594385812
 21
77.49692443043738
 31
0.0
  0
LINE
  5
69
330
A
100
AcDbEntity
  8
0
  6
Continuous
 62
     7
100
AcDbLine
 10
-68.51791506471046
 20
67.52753877303419
 30
0.0
 11
-53.11068268508742
 21
74.71204922262598
 31
0.0
  0
LINE
  5
6A
330
A
100
AcDbEntity
  8
0
  6
Continuous
 62
     7
100
AcDbLine
 10
699.8729662648558
 20
429.796220993388
 30
0.0
 11
696.107821751166
 21
437.8705994597146
 31
0.0
  0
LINE
  5
6B
330
A
100
AcDbEntity
  8
0
  6
Continuous
 62
     7
100
AcDbLine
 10
-47.06456361888808
 20
91.32362483234292
 30
0.0
 11
-43.29941910519816
 21
83.24924636601632
 31
0.0
  0
LINE
  5
6C
330
A
100
AcDbEntity
  8
0
  6
Continuous
 62
     7
100
AcDbLine
 10
-542.5477808792687
 20
62.39619200123764
 30
0.0
 11
-542.5477808792687
 21
53.48710109214688
 31
0.0
  0
LINE
  5
6D
330
A
100
AcDbEntity
  8
0
  6
Continuous
 62
     7
100
AcDbLine
 10
-152.5477808792686
 20
53.48710109214688
 30
0.0
 11
-152.5477808792686
 21
62.39619200123764
 31
0.0
  0
LINE
  5
6E
330
A
100
AcDbEntity
  8
0
  6
Continuous
 62
     7
100
AcDbLine
 10
704.1759885662157
 20
420.5683598890148
 30
0.0
 11
699.8729662648558
 21
429.796220993388
 31
0.0
  0
LINE
  5
6F
330
A
100
AcDbEntity
  8
0
  6
Continuous
 62
     7
100
AcDbLine
 10
-38.99639680383812
 20
74.0213852616432
 30
0.0
 11
-43.29941910519816
 21
83.24924636601632
 31
0.0
  0
LINE
  5
70
330
A
100
AcDbEntity
  8
0
  6
Continuous
 62
     7
100
AcDbLine
 10
-152.5477808792686
 20
43.30528291032869
 30
0.0
 11
-152.5477808792686
 21
53.48710109214688
 31
0.0
  0
LINE
  5
71
330
A
100
AcDbEntity
  8
0
  6
Continuous
 62
     7
100
AcDbLine
 10
-542.5477808792687
 20
43.30528291032869
 30
0.0
 11
-542.5477808792687
 21
53.48710109214688
 31
0.0
  0
LINE
  5
72
330
A
100
AcDbEntity
  8
0
  6
Continuous
 62
     7
100
AcDbLine
 10
-594.0477808792689
 20
-8.103807998754374
 30
0.0
 11
-590.5477808792698
 21
-8.103807998754374
 31
0.0
  0
LINE
  5
73
330
A
100
AcDbEntity
  8
0
  6
Continuous
 62
     7
100
AcDbLine
 10
-597.5477808792678
 20
-8.103807998754374
 30
0.0
 11
-594.0477808792689
 21
-8.103807998754374
 31
0.0
  0
LINE
  5
74
330
A
100
AcDbEntity
  8
0
  6
Continuous
 62
     7
100
AcDbLine
 10
-93.73397233901634
 20
109.4302432431467
 30
0.0
 11
-105.4305795381681
 21
77.29407907924684
 31
0.0
  0
LINE
  5
75
330
A
100
AcDbEntity
  8
0
  6
Continuous
 62
     7
100
AcDbLine
 10
-87.20375216138185
 20
95.21002732347099
 30
0.0
 11
-89.05932015880322
 21
97.42140715070069
 31
0.0
  0
LINE
  5
76
330
A
100
AcDbEntity
  8
0
  6
Continuous
 62
     7
100
AcDbLine
 10
-95.09396070952332
 20
73.53185750266455
 30
0.0
 11
-87.20375216138185
 21
95.21002732347099
 31
0.0
  0
LINE
  5
77
330
A
100
AcDbEntity
  8
0
  6
Continuous
 62
     7
100
AcDbLine
 10
-84.63670167775614
 20
102.2629405618324
 30
0.0
 11
-83.39735351037145
 21
105.6680216665643
 31
0.0
  0
LINE
  5
78
330
A
100
AcDbEntity
  8
0
  6
Continuous
 62
     7
100
AcDbLine
 10
-85.84282087608006
 20
103.7003374495318
 30
0.0
 11
-84.63670167775614
 21
102.2629405618324
 31
0.0
  0
LWPOLYLINE
  5
79
330
A
100
AcDbEntity
  8
0
  6
Continuous
 62
     7
100
AcDbPolyline
 90
        3
 70
   128
 43
0.0
 10
-86.54613319206104
 20
104.3263315926926
 10
-85.96800830082292
 20
103.8410407149528
 10
-85.84282087608016
 20
103.7003374495317
  0
ARC
  5
7E
330
A
100
AcDbEntity
  8
0
  6
Continuous
 62
     7
100
AcDbCircle
 10
-85.74658506233632
 20
106.5230720248786
 30
0.0
 40
2.500000000000124
100
AcDbArc
 50
340.0000000000001
 51
0.0
  0
ARC
  5
7F
330
A
100
AcDbEntity
  8
0
  6
Continuous
 62
     7
100
AcDbCircle
 10
-85.74658506233632
 20
106.5230720248787
 30
0.0
 40
2.499999999999957
100
AcDbArc
 50
360.0000000000008
 51
69.99999999999786
  0
ARC
  5
80
330
A
100
AcDbEntity
  8
0
  6
Continuous
 62
     7
100
AcDbCircle
 10
-91.38474078705147
 20
108.5751928848326
 30
0.0
 40
2.5000000000001
100
AcDbArc
 50
70.00000000000461
 51
160.0000000000008
  0
LINE
  5
81
330
A
100
AcDbEntity
  8
0
  6
Continuous
 62
     7
100
AcDbLine
 10
-89.05932015880322
 20
97.42140715070069
 30
0.0
 11
-90.8221097563536
 21
99.52221798656907
 31
0.0
  0
ARC
  5
82
330
A
100
AcDbEntity
  8
0
  6
Continuous
 62
     7
100
AcDbCircle
 10
-88.33246531621695
 20
101.6112777180504
 30
0.0
 40
3.250000000000218
100
AcDbArc
 50
56.65763620290928
 51
220.000000000006
  0
LINE
  5
83
330
A
100
AcDbEntity
  8
0
  6
Continuous
 62
     7
100
AcDbLine
 10
-84.89153470402207
 20
108.8723035768433
 30
0.0
 11
-90.52969042873746
 21
110.9244244367974
 31
0.0
  0
LINE
  5
84
330
A
100
AcDbEntity
  8
0
  6
Continuous
 62
     7
100
AcDbLine
 10
705.4054235094617
 20
417.9318281449083
 30
0.0
 11
704.1759885662157
 21
420.5683598890148
 31
0.0
  0
LINE
  5
85
330
A
100
AcDbEntity
  8
0
  6
Continuous
 62
     7
100
AcDbLine
 10
-37.76696186059256
 20
71.3848535175366
 30
0.0
 11
-38.99639680383812
 21
74.0213852616432
 31
0.0
  0
LINE
  5
86
330
A
100
AcDbEntity
  8
0
  6
Continuous
 62
     7
100
AcDbLine
 10
-152.5477808792686
 20
40.39619200123784
 30
0.0
 11
-152.5477808792686
 21
43.30528291032869
 31
0.0
  0
LINE
  5
87
330
A
100
AcDbEntity
  8
0
  6
Continuous
 62
     7
100
AcDbLine
 10
-542.5477808792687
 20
43.30528291032869
 30
0.0
 11
-542.5477808792687
 21
40.39619200123784
 31
0.0
  0
CIRCLE
  5
88
330
A
100
AcDbEntity
  8
0
  6
Continuous
 62
     7
100
AcDbCircle
 10
-88.33246531621695
 20
101.6112777180504
 30
0.0
 40
3.0
  0
LINE
  5
89
330
A
100
AcDbEntity
  8
0
  6
Continuous
 62
     7
100
AcDbLine
 10
625.85
 20
545.5442667287893
 30
0.0
 11
853.85
 21
545.5442667287893
 31
0.0
  0
LINE
  5
8A
330
A
100
AcDbEntity
  8
0
  6
Continuous
 62
     7
100
AcDbLine
 10
625.85
 20
547.0442667287892
 30
0.0
 11
853.85
 21
547.0442667287892
 31
0.0
  0
LINE
  5
8B
330
A
100
AcDbEntity
  8
0
  6
Continuous
 62
     7
100
AcDbLine
 10
643.85
 20
565.5442667287893
 30
0.0
 11
835.8500000000001
 21
565.5442667287893
 31
0.0
  0
LINE
  5
8C
330
A
100
AcDbEntity
  8
0
  6
Continuous
 62
     7
100
AcDbLine
 10
643.85
 20
564.0442667287892
 30
0.0
 11
835.8500000000001
 21
564.0442667287892
 31
0.0
  0
LINE
  5
8D
330
A
100
AcDbEntity
  8
0
  6
Continuous
 62
     7
100
AcDbLine
 10
676.6784271247461
 20
515.5442667287892
 30
0.0
 11
803.0215728752539
 21
515.5442667287892
 31
0.0
  0
LINE
  5
8E
330
A
100
AcDbEntity
  8
0
  6
Continuous
 62
     7
100
AcDbLine
 10
718.85
 20
513.5442667287892
 30
0.0
 11
760.85
 21
513.5442667287892
 31
0.0
  0
LINE
  5
8F
330
A
100
AcDbEntity
  8
0
  6
Continuous
 62
     7
100
AcDbLine
 10
731.35
 20
472.5442667287892
 30
0.0
 11
748.35
 21
472.5442667287892
 31
0.0
  0
CIRCLE
  5
90
330
A
100
AcDbEntity
  8
0
  6
Continuous
 62
     7
100
AcDbCircle
 10
739.85
 20
450.5442667287892
 30
0.0
 40
22.0
  0
CIRCLE
  5
91
330
A
100
AcDbEntity
  8
0
  6
Continuous
 62
     7
100
AcDbCircle
 10
739.85
 20
450.5442667287892
 30
0.0
 40
5.0
  0
LINE
  5
92
330
A
100
AcDbEntity
  8
0
  6
Continuous
 62
     7
100
AcDbLine
 10
-714.1499999999999
 20
-241.4557332712107
 30
0.0
 11
-474.1500000000004
 21
-241.4557332712107
 31
0.0
  0
LINE
  5
93
330
A
100
AcDbEntity
  8
0
  6
Continuous
 62
     7
100
AcDbLine
 10
-514.9235107051612
 20
-75.45573327121075
 30
0.0
 11
-673.3764892948389
 21
-75.45573327121075
 31
0.0
  0
LINE
  5
94
330
A
100
AcDbEntity
  8
0
  6
Continuous
 62
     7
100
AcDbLine
 10
-594.1500000000001
 20
-241.6942667287893
 30
0.0
 11
-475.1211342799098
 21
-241.6942667287893
 31
0.0
  0
LINE
  5
95
330
A
100
AcDbEntity
  8
0
  6
Continuous
 62
     7
100
AcDbLine
 10
-713.1788657200902
 20
-241.6942667287893
 30
0.0
 11
-594.1500000000001
 21
-241.6942667287893
 31
0.0
  0
LINE
  5
96
330
A
100
AcDbEntity
  8
0
  6
PHANTOM
 62
     7
100
AcDbLine
 10
-658.9953961824725
 20
173.755462279786
 30
0.0
 11
-675.7577796898593
 21
162.8698431500002
 31
0.0
  0
LINE
  5
97
330
A
100
AcDbEntity
  8
0
  6
PHANTOM
 62
     7
100
AcDbLine
 10
-43.29941910519816
 20
83.24924636601632
 30
0.0
 11
699.8729662648558
 21
429.796220993388
 31
0.0
  0
LINE
  5
98
330
A
100
AcDbEntity
  8
0
  6
PHANTOM
 62
     7
100
AcDbLine
 10
-542.5477808792687
 20
53.48710109214688
 30
0.0
 11
-152.5477808792686
 21
53.48710109214688
 31
0.0
  0
LINE
  5
99
330
A
100
AcDbEntity
  8
0
  6
PHANTOM
 62
     7
100
AcDbLine
 10
704.1759885662157
 20
420.5683598890148
 30
0.0
 11
-38.99639680383812
 21
74.0213852616432
 31
0.0
  0
LINE
  5
9A
330
A
100
AcDbEntity
  8
0
  6
PHANTOM
 62
     7
100
AcDbLine
 10
-152.5477808792686
 20
43.30528291032869
 30
0.0
 11
-542.5477808792687
 21
43.30528291032869
 31
0.0
  0
LINE
  5
9B
330
A
100
AcDbEntity
  8
0
  6
PHANTOM
 62
     7
100
AcDbLine
 10
-594.0477808792689
 20
-26.60380799876244
 30
0.0
 11
-590.5477808792689
 21
-26.60380799876244
 31
0.0
  0
LINE
  5
9C
330
A
100
AcDbEntity
  8
0
  6
PHANTOM
 62
     7
100
AcDbLine
 10
-597.547780879269
 20
-26.60380799876244
 30
0.0
 11
-594.0477808792689
 21
-26.60380799876244
 31
0.0
  0
LINE
  5
9D
330
A
100
AcDbEntity
  8
0
  6
PHANTOM
 62
     7
100
AcDbLine
 10
-91.38474078705158
 20
108.5751928848326
 30
0.0
 11
-93.73397233901634
 21
109.4302432431467
 31
0.0
  0
LINE
  5
9E
330
A
100
AcDbEntity
  8
0
  6
PHANTOM
 62
     7
100
AcDbLine
 10
-102.9127025345668
 20
76.90237829119794
 30
0.0
 11
-91.38474078705158
 21
108.5751928848326
 31
0.0
  0
LINE
  5
9F
330
A
100
AcDbEntity
  8
0
  6
PHANTOM
 62
     7
100
AcDbLine
 10
-89.05932015880322
 20
97.42140715070069
 30
0.0
 11
-97.27454680985147
 21
74.85025743124402
 31
0.0
  0
LINE
  5
A0
330
A
100
AcDbEntity
  8
0
  6
PHANTOM
 62
     7
100
AcDbLine
 10
-86.54613319206092
 20
104.3263315926926
 30
0.0
 11
-85.74658506233632
 21
106.5230720248786
 31
0.0
  0
LINE
  5
A1
330
A
100
AcDbEntity
  8
0
  6
PHANTOM
 62
     7
100
AcDbLine
 10
-83.39735351037145
 20
105.6680216665643
 30
0.0
 11
-85.74658506233632
 21
106.5230720248786
 31
0.0
  0
LINE
  5
A2
330
A
100
AcDbEntity
  8
0
  6
PHANTOM
 62
     7
100
AcDbLine
 10
-85.74658506233632
 20
106.5230720248786
 30
0.0
 11
-84.89153470402207
 21
108.8723035768433
 31
0.0
  0
LINE
  5
A3
330
A
100
AcDbEntity
  8
0
  6
PHANTOM
 62
     7
100
AcDbLine
 10
-91.38474078705158
 20
108.5751928848326
 30
0.0
 11
-90.52969042873746
 21
110.9244244367974
 31
0.0
  0
LINE
  5
A4
330
A
100
AcDbEntity
  8
0
  6
PHANTOM
 62
     7
100
AcDbLine
 10
-85.74658506233632
 20
106.5230720248786
 30
0.0
 11
-91.38474078705158
 21
108.5751928848326
 31
0.0
  0
LINE
  5
A5
330
A
100
AcDbEntity
  8
0
  6
PHANTOM
 62
     7
100
AcDbLine
 10
833.264213562373
 20
544.9584802911623
 30
0.0
 11
646.4357864376268
 21
544.9584802911623
 31
0.0
  0
LINE
  5
A6
330
A
100
AcDbEntity
  8
0
  6
PHANTOM
 62
     7
100
AcDbLine
 10
675.264213562373
 20
516.1300531664161
 30
0.0
 11
804.4357864376269
 21
516.1300531664161
 31
0.0
  0
LINE
  5
A7
330
A
100
AcDbEntity
  8
0
  6
PHANTOM
 62
     7
100
AcDbLine
 10
825.264213562373
 20
563.4584802911624
 30
0.0
 11
654.4357864376268
 21
563.4584802911624
 31
0.0
  0
LINE
  5
A8
330
A
100
AcDbEntity
  8
0
  6
PHANTOM
 62
     7
100
AcDbLine
 10
667.4357864376268
 20
550.4584802911621
 30
0.0
 11
812.2642135623729
 21
550.4584802911621
 31
0.0
  0
LINE
  5
A9
330
A
100
AcDbEntity
  8
0
  6
Continuous
 62
     7
100
AcDbLine
 10
626.0651152393254
 20
-719.1941755172088
 30
0.0
 11
-44.1062357867031
 21
-719.1941755172077
 31
0.0
  0
LINE
  5
AA
330
A
100
AcDbEntity
  8
0
  6
Continuous
 62
     7
100
AcDbLine
 10
-44.1062357867031
 20
-733.1941755172078
 30
0.0
 11
626.0651152393254
 21
-733.1941755172088
 31
0.0
  0
LWPOLYLINE
  5
AB
330
A
100
AcDbEntity
  8
0
  6
Continuous
 62
     7
100
AcDbPolyline
 90
       12
 70
   128
 43
0.0
 10
-666.8937013111744
 20
-716.2376563574026
 10
-667.1644034730916
 20
-716.2025695789087
 10
-668.9357944537724
 20
-716.2873266895604
 10
-670.6808212428717
 20
-716.6890202732514
 10
-672.344698960431
 20
-717.4054944852671
 10
-673.8758912644332
 20
-718.4297177563941
 10
-675.0837639162685
 20
-719.5908274268798
 10
-676.0740832190654
 20
-720.9264012640842
 10
-676.811162379351
 20
-722.3632792654012
 10
-677.2068076950738
 20
-723.5090329011407
 10
-677.4383791789768
 20
-724.5525233584928
 10
-677.5740506062971
 20
-726.194175517208
  0
LWPOLYLINE
  5
B9
330
A
100
AcDbEntity
  8
0
  6
Continuous
 62
     7
100
AcDbPolyline
 90
       12
 70
   128
 43
0.0
 10
-677.5740506062971
 20
-726.194175517208
 10
-677.405609555553
 20
-728.0218649403064
 10
-677.2364392897173
 20
-728.7706546905208
 10
-676.8224516550944
 20
-729.9977367485548
 10
-676.2056236976535
 20
-731.2435265615077
 10
-675.3405609201695
 20
-732.4934863957496
 10
-674.2312514865893
 20
-733.6561910920669
 10
-672.8990362138441
 20
-734.6584846017946
 10
-671.3813116359376
 20
-735.4410540960681
 10
-669.7252489727572
 20
-735.9600521080798
 10
-667.9836977394971
 20
-736.1857814555073
 10
-666.8970561637578
 20
-736.133788077829
  0
LINE
  5
C7
330
A
100
AcDbEntity
  8
0
  6
Continuous
 62
     7
100
AcDbLine
 10
-666.9050087670772
 20
-736.1717701345558
 30
0.0
 11
-598.0531802348594
 21
-731.5782305989016
 31
0.0
  0
LINE
  5
C8
330
A
100
AcDbEntity
  8
0
  6
Continuous
 62
     7
100
AcDbLine
 10
-598.0476890932317
 20
-720.8104867841886
 30
0.0
 11
-666.9052850774325
 21
-716.2165624654545
 31
0.0
  0
ARC
  5
C9
330
A
100
AcDbEntity
  8
0
  6
Continuous
 62
     7
100
AcDbCircle
 10
-85.74658506233632
 20
-724.1941755172078
 30
0.0
 40
2.5
100
AcDbArc
 50
0.0
 51
90.0
  0
ARC
  5
CA
330
A
100
AcDbEntity
  8
0
  6
Continuous
 62
     7
100
AcDbCircle
 10
-85.74658506233632
 20
-728.1941755172077
 30
0.0
 40
2.5
100
AcDbArc
 50
270.0000000000008
 51
0.0
  0
LINE
  5
CB
330
A
100
AcDbEntity
  8
0
  6
Continuous
 62
     7
100
AcDbLine
 10
-83.24658506233637
 20
-728.1941755172077
 30
0.0
 11
-83.24658506233637
 21
-724.1941755172078
 31
0.0
  0
LINE
  5
CC
330
A
100
AcDbEntity
  8
0
  6
Continuous
 62
     7
100
AcDbLine
 10
-96.80351140052399
 20
-725.4441755172077
 30
0.0
 11
-580.7615358143774
 21
-725.4441755172076
 31
0.0
  0
LINE
  5
CD
330
A
100
AcDbEntity
  8
0
  6
Continuous
 62
     7
100
AcDbLine
 10
-580.7544053682184
 20
-726.9441755172076
 30
0.0
 11
-96.80351140052399
 21
-726.9441755172078
 31
0.0
  0
LINE
  5
CE
330
A
100
AcDbEntity
  8
0
  6
Continuous
 62
     7
100
AcDbLine
 10
-71.99857814907248
 20
-720.6941755172076
 30
0.0
 11
-98.5188202179048
 21
-720.6941755172075
 31
0.0
  0
LINE
  5
CF
330
A
100
AcDbEntity
  8
0
  6
Continuous
 62
     7
100
AcDbLine
 10
-45.93622654055648
 20
-720.6941755172076
 30
0.0
 11
-56.60473772490146
 21
-720.6941755172076
 31
0.0
  0
LINE
  5
D0
330
A
100
AcDbEntity
  8
0
  6
Continuous
 62
     7
100
AcDbLine
 10
-56.62911777873834
 20
-731.6941755172076
 30
0.0
 11
-45.93622654055648
 21
-731.6941755172076
 31
0.0
  0
LINE
  5
D1
330
A
100
AcDbEntity
  8
0
  6
Continuous
 62
     7
100
AcDbLine
 10
-98.49980323858417
 20
-731.6941755172076
 30
0.0
 11
-71.99857814907248
 21
-731.6941755172076
 31
0.0
  0
LINE
  5
D2
330
A
100
AcDbEntity
  8
0
  6
Continuous
 62
     7
100
AcDbLine
 10
-60.81429887489906
 20
-707.6941755172076
 30
0.0
 11
-65.46309975404671
 21
-707.6941755172076
 31
0.0
  0
LINE
  5
D3
330
A
100
AcDbEntity
  8
0
  6
Continuous
 62
     7
100
AcDbLine
 10
-65.46309975404648
 20
-744.6941755172077
 30
0.0
 11
-60.81429887489884
 21
-744.6941755172076
 31
0.0
  0
LINE
  5
D4
330
A
100
AcDbEntity
  8
0
  6
Continuous
 62
     7
100
AcDbLine
 10
-609.5477808792687
 20
-741.1941755172076
 30
0.0
 11
-609.5477808792687
 21
-746.1941755172077
 31
0.0
  0
LINE
  5
D5
330
A
100
AcDbEntity
  8
0
  6
Continuous
 62
     7
100
AcDbLine
 10
-565.5477808792686
 20
-746.1941755172077
 30
0.0
 11
-565.5477808792686
 21
-741.1941755172076
 31
0.0
  0
LINE
  5
D6
330
A
100
AcDbEntity
  8
0
  6
Continuous
 62
     7
100
AcDbLine
 10
-129.5477808792686
 20
-741.1941755172076
 30
0.0
 11
-129.5477808792686
 21
-746.1941755172077
 31
0.0
  0
LINE
  5
D7
330
A
100
AcDbEntity
  8
0
  6
Continuous
 62
     7
100
AcDbLine
 10
-85.54778087926859
 20
-746.1941755172077
 30
0.0
 11
-85.54778087926859
 21
-741.1941755172076
 31
0.0
  0
LINE
  5
D8
330
A
100
AcDbEntity
  8
0
  6
Continuous
 62
     7
100
AcDbLine
 10
-600.0477808792687
 20
-731.7113029822102
 30
0.0
 11
-600.0477808792687
 21
-736.1941755172076
 31
0.0
  0
LINE
  5
D9
330
A
100
AcDbEntity
  8
0
  6
Continuous
 62
     7
100
AcDbLine
 10
-600.0477808792687
 20
-716.1941755172076
 30
0.0
 11
-600.0477808792687
 21
-720.6770480522051
 31
0.0
  0
LINE
  5
DA
330
A
100
AcDbEntity
  8
0
  6
Continuous
 62
     7
100
AcDbLine
 10
-575.0477808792687
 20
-720.6941755172075
 30
0.0
 11
-575.0477808792687
 21
-716.1941755172076
 31
0.0
  0
LINE
  5
DB
330
A
100
AcDbEntity
  8
0
  6
Continuous
 62
     7
100
AcDbLine
 10
-575.0477808792687
 20
-736.1941755172076
 30
0.0
 11
-575.0477808792687
 21
-731.6941755172076
 31
0.0
  0
LINE
  5
DC
330
A
100
AcDbEntity
  8
0
  6
Continuous
 62
     7
100
AcDbLine
 10
-117.5477808792686
 20
-731.6941755172076
 30
0.0
 11
-117.5477808792686
 21
-736.1941755172076
 31
0.0
  0
LINE
  5
DD
330
A
100
AcDbEntity
  8
0
  6
Continuous
 62
     7
100
AcDbLine
 10
-117.5477808792686
 20
-716.1941755172076
 30
0.0
 11
-117.5477808792686
 21
-720.6941755172076
 31
0.0
  0
LINE
  5
DE
330
A
100
AcDbEntity
  8
0
  6
Continuous
 62
     7
100
AcDbLine
 10
-97.5477808792686
 20
-720.6941755172076
 30
0.0
 11
-97.5477808792686
 21
-716.1941755172076
 31
0.0
  0
LINE
  5
DF
330
A
100
AcDbEntity
  8
0
  6
Continuous
 62
     7
100
AcDbLine
 10
-97.5477808792686
 20
-736.1941755172076
 30
0.0
 11
-97.5477808792686
 21
-731.6941755172076
 31
0.0
  0
LINE
  5
E0
330
A
100
AcDbEntity
  8
0
  6
Continuous
 62
     7
100
AcDbLine
 10
-152.5477808792686
 20
-719.1941755172076
 30
0.0
 11
-542.5477808792687
 21
-719.1941755172076
 31
0.0
  0
LINE
  5
E1
330
A
100
AcDbEntity
  8
0
  6
Continuous
 62
     7
100
AcDbLine
 10
-542.5477808792687
 20
-733.1941755172075
 30
0.0
 11
-152.5477808792686
 21
-733.1941755172075
 31
0.0
  0
LINE
  5
E2
330
A
100
AcDbEntity
  8
0
  6
Continuous
 62
     7
100
AcDbLine
 10
-117.5477808792686
 20
-720.6941755172075
 30
0.0
 11
-152.5477808792686
 21
-720.6941755172075
 31
0.0
  0
LINE
  5
E3
330
A
100
AcDbEntity
  8
0
  6
Continuous
 62
     7
100
AcDbLine
 10
-152.5477808792686
 20
-731.6941755172076
 30
0.0
 11
-117.5477808792686
 21
-731.6941755172076
 31
0.0
  0
LINE
  5
E4
330
A
100
AcDbEntity
  8
0
  6
Continuous
 62
     7
100
AcDbLine
 10
-542.5477808792687
 20
-720.6941755172075
 30
0.0
 11
-575.0477808792687
 21
-720.6941755172075
 31
0.0
  0
LINE
  5
E5
330
A
100
AcDbEntity
  8
0
  6
Continuous
 62
     7
100
AcDbLine
 10
-575.0477808792687
 20
-731.6941755172076
 30
0.0
 11
-542.5477808792687
 21
-731.6941755172076
 31
0.0
  0
LINE
  5
E6
330
A
100
AcDbEntity
  8
0
  6
Continuous
 62
     7
100
AcDbLine
 10
-592.5477808792686
 20
-736.1941755172076
 30
0.0
 11
-592.5477808792686
 21
-741.1941755172076
 31
0.0
  0
LINE
  5
E7
330
A
100
AcDbEntity
  8
0
  6
Continuous
 62
     7
100
AcDbLine
 10
-582.5477808792689
 20
-741.1941755172076
 30
0.0
 11
-582.5477808792689
 21
-736.1941755172076
 31
0.0
  0
LINE
  5
E8
330
A
100
AcDbEntity
  8
0
  6
Continuous
 62
     7
100
AcDbLine
 10
-112.5477808792686
 20
-736.1941755172076
 30
0.0
 11
-112.5477808792686
 21
-741.1941755172076
 31
0.0
  0
LINE
  5
E9
330
A
100
AcDbEntity
  8
0
  6
Continuous
 62
     7
100
AcDbLine
 10
-102.5477808792686
 20
-741.1941755172076
 30
0.0
 11
-102.5477808792686
 21
-736.1941755172076
 31
0.0
  0
LINE
  5
EA
330
A
100
AcDbEntity
  8
0
  6
Continuous
 62
     7
100
AcDbLine
 10
-555.8915426963019
 20
-657.9285836479958
 30
0.0
 11
-578.0233799358184
 21
-696.262050211684
 31
0.0
  0
LINE
  5
EB
330
A
100
AcDbEntity
  8
0
  6
Continuous
 62
     7
100
AcDbLine
 10
-576.2622591625071
 20
-697.2116995540438
 30
0.0
 11
-554.1594918887329
 21
-658.9285836479959
 31
0.0
  0
LINE
  5
EC
330
A
100
AcDbEntity
  8
0
  6
Continuous
 62
     7
100
AcDbLine
 10
-554.1594918887321
 20
-793.4597673864176
 30
0.0
 11
-576.2913291282491
 21
-755.1263008227299
 31
0.0
  0
LINE
  5
ED
330
A
100
AcDbEntity
  8
0
  6
Continuous
 62
     7
100
AcDbLine
 10
-577.9943099700756
 20
-756.1766514803699
 30
0.0
 11
-555.891542696301
 21
-794.4597673864177
 31
0.0
  0
LWPOLYLINE
  5
EE
330
A
100
AcDbEntity
  8
0
  6
Continuous
 62
     7
100
AcDbPolyline
 90
       15
 70
   128
 43
0.0
 10
-44.1062357867031
 20
-719.1941755172077
 10
-44.65194842751304
 20
-719.3143040197735
 10
-45.30281158908985
 20
-719.7923385693091
 10
-45.8901745914709
 20
-720.6101072706854
 10
-46.38286712009484
 20
-721.7242125868477
 10
-46.7547428548208
 20
-723.0755309212831
 10
-46.98606700884364
 20
-724.5923502026049
 10
-47.06456361888808
 20
-726.1941755172077
 10
-46.98606700884364
 20
-727.7960008318106
 10
-46.7547428548208
 20
-729.3128201131324
 10
-46.38286712009484
 20
-730.6641384475677
 10
-45.8901745914709
 20
-731.77824376373
 10
-45.30281158908963
 20
-732.5960124651063
 10
-44.65194842751283
 20
-733.0740470146419
 10
-44.1062357867031
 20
-733.1941755172078
  0
LWPOLYLINE
  5
FF
330
A
100
AcDbEntity
  8
0
  6
Continuous
 62
     7
100
AcDbPolyline
 90
       12
 70
   128
 43
0.0
 10
-598.0508377221594
 20
-720.8768824069136
 10
-597.6239318430923
 20
-720.888593126818
 10
-596.4679803248115
 20
-721.5138837880203
 10
-595.4757060070786
 20
-722.5935193898337
 10
-594.739442661552
 20
-724.0399603841305
 10
-594.3842655305864
 20
-725.7704479066841
 10
-594.3704063771125
 20
-726.1941755172077
 10
-594.6234007435618
 20
-727.9867412944124
 10
-595.3322685987344
 20
-729.5775177249123
 10
-596.3391307816908
 20
-730.7669504985009
 10
-597.4011503936485
 20
-731.4251534962002
 10
-598.0587473953814
 20
-731.5291723803765
  0
LINE
  5
10D
330
A
100
AcDbEntity
  8
0
  6
Continuous
 62
     7
100
AcDbLine
 10
-85.74658506233632
 20
-730.6941755172077
 30
0.0
 11
-91.38474078705158
 21
-730.6941755172077
 31
0.0
  0
LINE
  5
10E
330
A
100
AcDbEntity
  8
0
  6
Continuous
 62
     7
100
AcDbLine
 10
-85.74658506233621
 20
-721.6941755172078
 30
0.0
 11
-91.38474078705158
 21
-721.6941755172078
 31
0.0
  0
LINE
  5
10F
330
A
100
AcDbEntity
  8
0
  6
Continuous
 62
     7
100
AcDbLine
 10
-107.1041945177003
 20
-730.6941755172077
 30
0.0
 11
-91.38474078705158
 21
-730.6941755172077
 31
0.0
  0
LWPOLYLINE
  5
110
330
A
100
AcDbEntity
  8
0
  6
Continuous
 62
     7
100
AcDbPolyline
 90
        6
 70
   128
 43
0.0
 10
-107.1041945177002
 20
-730.6941755172077
 10
-108.0293130054403
 20
-730.538384348688
 10
-108.8535148113725
 20
-730.1000538835852
 10
-109.5093966558433
 20
-729.3870255756948
 10
-109.8036401340007
 20
-728.6824492996979
 10
-109.859658945523
 20
-728.1941755172076
  0
LINE
  5
118
330
A
100
AcDbEntity
  8
0
  6
Continuous
 62
     7
100
AcDbLine
 10
-109.859658945523
 20
-728.1941755172076
 30
0.0
 11
-109.859658945523
 21
-726.9441755172078
 31
0.0
  0
LINE
  5
119
330
A
100
AcDbEntity
  8
0
  6
Continuous
 62
     7
100
AcDbLine
 10
-109.859658945523
 20
-725.4441755172077
 30
0.0
 11
-109.859658945523
 21
-724.1941755172076
 31
0.0
  0
LWPOLYLINE
  5
11A
330
A
100
AcDbEntity
  8
0
  6
Continuous
 62
     7
100
AcDbPolyline
 90
       10
 70
   128
 43
0.0
 10
-96.52239378521819
 20
-726.1941755172077
 10
-96.52666459346246
 20
-726.0639393839576
 10
-96.53934725184818
 20
-725.9376604097135
 10
-96.56005640421781
 20
-725.8191755172077
 10
-96.58816281345602
 20
-725.7120848099429
 10
-96.6228124805408
 20
-725.6196421848685
 10
-96.66295259287103
 20
-725.5446564643693
 10
-96.70736351344574
 20
-725.4894060516184
 10
-96.75469583891603
 20
-725.4555697024486
 10
-96.80351140052399
 20
-725.4441755172077
  0
LWPOLYLINE
  5
126
330
A
100
AcDbEntity
  8
0
  6
Continuous
 62
     7
100
AcDbPolyline
 90
       10
 70
   128
 43
0.0
 10
-96.80351140052399
 20
-726.9441755172078
 10
-96.75469583891603
 20
-726.9327813319669
 10
-96.70736351344574
 20
-726.8989449827972
 10
-96.66295259287103
 20
-726.8436945700462
 10
-96.6228124805408
 20
-726.768708849547
 10
-96.58816281345602
 20
-726.6762662244726
 10
-96.56005640421781
 20
-726.5691755172078
 10
-96.53934725184818
 20
-726.450690624702
 10
-96.52666459346246
 20
-726.324411650458
 10
-96.52239378521819
 20
-726.1941755172077
  0
LWPOLYLINE
  5
132
330
A
100
AcDbEntity
  8
0
  6
Continuous
 62
     7
100
AcDbPolyline
 90
        6
 70
   128
 43
0.0
 10
-109.859658945523
 20
-724.1941755172076
 10
-109.7295226848977
 20
-723.4541919077511
 10
-109.3703161333919
 20
-722.8005729730488
 10
-108.7891371518199
 20
-722.2408066541106
 10
-107.9598475262341
 20
-721.8271605804865
 10
-107.1041945177001
 20
-721.6941755172077
  0
LINE
  5
13A
330
A
100
AcDbEntity
  8
0
  6
Continuous
 62
     7
100
AcDbLine
 10
-91.38474078705158
 20
-721.6941755172078
 30
0.0
 11
-107.1041945177003
 21
-721.6941755172077
 31
0.0
  0
LINE
  5
13B
330
A
100
AcDbEntity
  8
0
  6
Continuous
 62
     7
100
AcDbLine
 10
-90.8221097563536
 20
-721.6941755172078
 30
0.0
 11
-91.58246531621713
 21
-721.6941755172078
 31
0.0
  0
LINE
  5
13C
330
A
100
AcDbEntity
  8
0
  6
Continuous
 62
     7
100
AcDbLine
 10
-90.8221097563536
 20
-730.6941755172077
 30
0.0
 11
-91.58246531621713
 21
-730.6941755172077
 31
0.0
  0
LWPOLYLINE
  5
13D
330
A
100
AcDbEntity
  8
0
  6
Continuous
 62
     7
100
AcDbPolyline
 90
        6
 70
   128
 43
0.0
 10
-581.9178809015869
 20
-726.1941755172077
 10
-581.8960800048457
 20
-726.3309274088257
 10
-581.8201287375571
 20
-726.4804691236427
 10
-581.6429274923092
 20
-726.6604066529088
 10
-581.2624050545033
 20
-726.858585783948
 10
-580.7542013079803
 20
-726.9304006722066
  0
LWPOLYLINE
  5
145
330
A
100
AcDbEntity
  8
0
  6
Continuous
 62
     7
100
AcDbPolyline
 90
        7
 70
   128
 43
0.0
 10
-580.7616991495689
 20
-725.4605475874191
 10
-580.8747966796434
 20
-725.4490671374385
 10
-581.3997044816521
 20
-725.5841937260422
 10
-581.6517434416105
 20
-725.7347610302844
 10
-581.824910984747
 20
-725.9147667621134
 10
-581.8937416328676
 20
-726.0503253925024
 10
-581.9178809015869
 20
-726.1941755172077
  0
LINE
  5
14E
330
A
100
AcDbEntity
  8
0
  6
Continuous
 62
     7
100
AcDbLine
 10
-89.05932015880322
 20
-721.6941755172078
 30
0.0
 11
-90.8221097563536
 21
-721.6941755172078
 31
0.0
  0
LINE
  5
14F
330
A
100
AcDbEntity
  8
0
  6
Continuous
 62
     7
100
AcDbLine
 10
-89.05932015880322
 20
-730.6941755172077
 30
0.0
 11
-90.8221097563536
 21
-730.6941755172077
 31
0.0
  0
LWPOLYLINE
  5
150
330
A
100
AcDbEntity
  8
0
  6
Continuous
 62
     7
100
AcDbPolyline
 90
        9
 70
   128
 43
0.0
 10
-56.60485907671539
 20
-720.6968030677757
 10
-56.61333280341604
 20
-720.6942272611534
 10
-57.39508874360774
 20
-720.9201927062036
 10
-58.38009806145347
 20
-721.5344374884524
 10
-59.52824960795375
 20
-722.3788353289513
 10
-60.85130203670638
 20
-723.2776873667956
 10
-62.84192953988673
 20
-724.2452862669924
 10
-64.93336486168153
 20
-724.6803028331605
 10
-65.36122858111944
 20
-724.6320179952984
  0
LWPOLYLINE
  5
15B
330
A
100
AcDbEntity
  8
0
  6
Continuous
 62
     7
100
AcDbPolyline
 90
        8
 70
   128
 43
0.0
 10
-65.37465166538168
 20
-727.6955162128181
 10
-65.36542948877674
 20
-727.6941820550185
 10
-62.80907209314332
 20
-728.1547201404471
 10
-60.832804752986
 20
-729.1220263954151
 10
-59.37093033736793
 20
-730.1250342974444
 10
-58.07865409731547
 20
-731.0627317062079
 10
-57.13059823250096
 20
-731.5835943334716
 10
-56.62798242340425
 20
-731.6489764531167
  0
LWPOLYLINE
  5
165
330
A
100
AcDbEntity
  8
0
  6
Continuous
 62
     7
100
AcDbPolyline
 90
        4
 70
   128
 43
0.0
 10
-100.2356964323969
 20
-730.6941755172077
 10
-99.51491935697617
 20
-731.316449744971
 10
-98.58663531935139
 20
-731.6891417683914
 10
-98.50123029761002
 20
-731.6635636734915
  0
LWPOLYLINE
  5
16B
330
A
100
AcDbEntity
  8
0
  6
Continuous
 62
     7
100
AcDbPolyline
 90
        4
 70
   128
 43
0.0
 10
-98.51968125202979
 20
-720.7629629302285
 10
-98.81308797732932
 20
-720.741662889313
 10
-99.68031398354613
 20
-721.1842416794368
 10
-100.2479445560862
 20
-721.6941755172077
  0
LWPOLYLINE
  5
171
330
A
100
AcDbEntity
  8
0
  6
Continuous
 62
     7
100
AcDbPolyline
 90
       31
 70
   128
 43
0.0
 10
-73.16671594385812
 20
-716.1941755172076
 10
-72.99837344708478
 20
-714.4269261452567
 10
-72.50070333167089
 20
-712.7369140510634
 10
-71.69545616974613
 20
-711.1980008727216
 10
-70.61782512629108
 20
-709.8774445006498
 10
-69.3149078489523
 20
-708.83295958504
 10
-67.8436480748403
 20
-708.1101951286989
 10
-66.26834691597136
 20
-707.7407394065773
 10
-64.65785259212172
 20
-707.7407394065773
 10
-63.08255143325278
 20
-708.110195128699
 10
-61.61129165914078
 20
-708.83295958504
 10
-60.30837438180212
 20
-709.8774445006499
 10
-59.23074333834708
 20
-711.1980008727218
 10
-58.42549617642231
 20
-712.7369140510634
 10
-57.92782606100829
 20
-714.4269261452568
 10
-57.75948356423508
 20
-716.1941755172078
 10
-57.92782606100841
 20
-717.9614248891587
 10
-58.42549617642231
 20
-719.6514369833521
 10
-59.23074333834708
 20
-721.1903501616937
 10
-60.30837438180212
 20
-722.5109065337655
 10
-61.6112916591409
 20
-723.5553914493755
 10
-63.0825514332529
 20
-724.2781559057164
 10
-64.65785259212184
 20
-724.647611627838
 10
-66.26834691597148
 20
-724.6476116278379
 10
-67.84364807484042
 20
-724.2781559057164
 10
-69.31490784895242
 20
-723.5553914493753
 10
-70.61782512629119
 20
-722.5109065337655
 10
-71.69545616974613
 20
-721.1903501616936
 10
-72.50070333167099
 20
-719.6514369833518
 10
-72.9983734470849
 20
-717.9614248891586
 10
-73.16671594385812
 20
-716.1941755172076
  0
LWPOLYLINE
  5
192
330
A
100
AcDbEntity
  8
0
  6
Continuous
 62
     7
100
AcDbPolyline
 90
       12
 70
   128
 43
0.0
 10
-54.27882047987306
 20
-720.6941755172076
 10
-53.77669529727466
 20
-719.651436983352
 10
-53.27902518186064
 20
-717.9614248891586
 10
-53.11068268508742
 20
-716.1941755172076
 10
-53.27902518186075
 20
-714.4269261452567
 10
-53.77669529727466
 20
-712.7369140510633
 10
-54.58194245919942
 20
-711.1980008727216
 10
-55.65957350265446
 20
-709.8774445006498
 10
-56.96249077999324
 20
-708.8329595850399
 10
-58.43375055410524
 20
-708.1101951286989
 10
-60.00905171297418
 20
-707.7407394065772
 10
-60.81429887489906
 20
-707.6941755172076
  0
LWPOLYLINE
  5
1A0
330
A
100
AcDbEntity
  8
0
  6
Continuous
 62
     7
100
AcDbPolyline
 90
       31
 70
   128
 43
0.0
 10
-73.16671594385812
 20
-736.1941755172076
 10
-72.99837344708478
 20
-734.4269261452567
 10
-72.50070333167089
 20
-732.7369140510634
 10
-71.69545616974613
 20
-731.1980008727216
 10
-70.61782512629108
 20
-729.8774445006499
 10
-69.3149078489523
 20
-728.83295958504
 10
-67.8436480748403
 20
-728.1101951286989
 10
-66.26834691597136
 20
-727.7407394065773
 10
-64.65785259212172
 20
-727.7407394065775
 10
-63.08255143325278
 20
-728.1101951286989
 10
-61.61129165914078
 20
-728.83295958504
 10
-60.30837438180212
 20
-729.8774445006499
 10
-59.23074333834708
 20
-731.1980008727218
 10
-58.42549617642231
 20
-732.7369140510634
 10
-57.92782606100829
 20
-734.4269261452568
 10
-57.75948356423508
 20
-736.1941755172077
 10
-57.92782606100841
 20
-737.9614248891587
 10
-58.42549617642231
 20
-739.6514369833521
 10
-59.23074333834708
 20
-741.1903501616937
 10
-60.30837438180212
 20
-742.5109065337656
 10
-61.6112916591409
 20
-743.5553914493754
 10
-63.0825514332529
 20
-744.2781559057165
 10
-64.65785259212184
 20
-744.647611627838
 10
-66.26834691597148
 20
-744.647611627838
 10
-67.84364807484042
 20
-744.2781559057164
 10
-69.31490784895242
 20
-743.5553914493753
 10
-70.61782512629119
 20
-742.5109065337655
 10
-71.69545616974613
 20
-741.1903501616937
 10
-72.50070333167099
 20
-739.6514369833519
 10
-72.9983734470849
 20
-737.9614248891584
 10
-73.16671594385812
 20
-736.1941755172076
  0
LWPOLYLINE
  5
1C1
330
A
100
AcDbEntity
  8
0
  6
Continuous
 62
     7
100
AcDbPolyline
 90
       12
 70
   128
 43
0.0
 10
-60.81429887489884
 20
-744.6941755172076
 10
-60.00905171297407
 20
-744.647611627838
 10
-58.43375055410513
 20
-744.2781559057164
 10
-56.96249077999313
 20
-743.5553914493753
 10
-55.65957350265446
 20
-742.5109065337655
 10
-54.58194245919942
 20
-741.1903501616937
 10
-53.77669529727466
 20
-739.6514369833519
 10
-53.27902518186064
 20
-737.9614248891585
 10
-53.11068268508742
 20
-736.1941755172076
 10
-53.27902518186075
 20
-734.4269261452567
 10
-53.77669529727466
 20
-732.7369140510633
 10
-54.27882047987306
 20
-731.6941755172076
  0
LINE
  5
1CF
330
A
100
AcDbEntity
  8
0
  6
Continuous
 62
     7
100
AcDbLine
 10
-609.5477808792687
 20
-746.1941755172077
 30
0.0
 11
-565.5477808792686
 21
-746.1941755172077
 31
0.0
  0
LINE
  5
1D0
330
A
100
AcDbEntity
  8
0
  6
Continuous
 62
     7
100
AcDbLine
 10
-565.5477808792686
 20
-741.1941755172076
 30
0.0
 11
-609.5477808792687
 21
-741.1941755172076
 31
0.0
  0
LINE
  5
1D1
330
A
100
AcDbEntity
  8
0
  6
Continuous
 62
     7
100
AcDbLine
 10
-85.54778087926859
 20
-741.1941755172076
 30
0.0
 11
-129.5477808792686
 21
-741.1941755172076
 31
0.0
  0
LINE
  5
1D2
330
A
100
AcDbEntity
  8
0
  6
Continuous
 62
     7
100
AcDbLine
 10
-129.5477808792686
 20
-746.1941755172077
 30
0.0
 11
-85.54778087926859
 21
-746.1941755172077
 31
0.0
  0
LINE
  5
1D3
330
A
100
AcDbEntity
  8
0
  6
Continuous
 62
     7
100
AcDbLine
 10
-600.0477808792687
 20
-736.1941755172076
 30
0.0
 11
-575.0477808792687
 21
-736.1941755172076
 31
0.0
  0
LWPOLYLINE
  5
1D4
330
A
100
AcDbEntity
  8
0
  6
Continuous
 62
     7
100
AcDbPolyline
 90
        6
 70
   128
 43
0.0
 10
-575.0477808792687
 20
-731.6941755172076
 10
-575.1677179563507
 20
-731.4158570447821
 10
-575.479784613004
 20
-730.6254884019607
 10
-575.8895464773313
 20
-729.3428942043115
 10
-576.2337190997394
 20
-727.6112125495415
 10
-576.2634789298312
 20
-726.9441755172076
  0
LWPOLYLINE
  5
1DC
330
A
100
AcDbEntity
  8
0
  6
Continuous
 62
     7
100
AcDbPolyline
 90
        6
 70
   128
 43
0.0
 10
-576.2786327171943
 20
-725.4441755172076
 10
-576.1393891673264
 20
-724.1566766943574
 10
-575.7938884822683
 20
-722.7079187165308
 10
-575.3817981328749
 20
-721.5025727862045
 10
-575.0955461256604
 20
-720.8036142886371
 10
-575.0477808792687
 20
-720.6941755172075
  0
LINE
  5
1E4
330
A
100
AcDbEntity
  8
0
  6
Continuous
 62
     7
100
AcDbLine
 10
-575.0477808792687
 20
-716.1941755172076
 30
0.0
 11
-600.0477808792687
 21
-716.1941755172076
 31
0.0
  0
LWPOLYLINE
  5
1E5
330
A
100
AcDbEntity
  8
0
  6
Continuous
 62
     7
100
AcDbPolyline
 90
        6
 70
   128
 43
0.0
 10
-117.5477808792686
 20
-720.6941755172075
 10
-117.4056076876343
 20
-720.9571201056491
 10
-117.0330610593246
 20
-721.6974500314608
 10
-116.5194188850114
 20
-722.9169375786242
 10
-116.0403351181856
 20
-724.6535660595746
 10
-115.9825928051093
 20
-725.4441755172077
  0
LWPOLYLINE
  5
1ED
330
A
100
AcDbEntity
  8
0
  6
Continuous
 62
     7
100
AcDbPolyline
 90
        6
 70
   128
 43
0.0
 10
-115.9614156808206
 20
-726.9441755172078
 10
-116.1021853050209
 20
-728.0456168690553
 10
-116.5056671500223
 20
-729.4335776904114
 10
-117.0353080047726
 20
-730.6956387190093
 10
-117.4514714165465
 20
-731.5170587827101
 10
-117.5477808792686
 20
-731.6941755172076
  0
LINE
  5
1F5
330
A
100
AcDbEntity
  8
0
  6
Continuous
 62
     7
100
AcDbLine
 10
-97.5477808792686
 20
-716.1941755172076
 30
0.0
 11
-117.5477808792686
 21
-716.1941755172076
 31
0.0
  0
LINE
  5
1F6
330
A
100
AcDbEntity
  8
0
  6
Continuous
 62
     7
100
AcDbLine
 10
-117.5477808792686
 20
-736.1941755172076
 30
0.0
 11
-97.5477808792686
 21
-736.1941755172076
 31
0.0
  0
LINE
  5
1F7
330
A
100
AcDbEntity
  8
0
  6
Continuous
 62
     7
100
AcDbLine
 10
-152.5477808792686
 20
-733.1941755172075
 30
0.0
 11
-152.5477808792686
 21
-726.9441755172078
 31
0.0
  0
LINE
  5
1F8
330
A
100
AcDbEntity
  8
0
  6
Continuous
 62
     7
100
AcDbLine
 10
-152.5477808792686
 20
-725.4441755172077
 30
0.0
 11
-152.5477808792686
 21
-719.1941755172076
 31
0.0
  0
LINE
  5
1F9
330
A
100
AcDbEntity
  8
0
  6
Continuous
 62
     7
100
AcDbLine
 10
-542.5477808792687
 20
-719.1941755172076
 30
0.0
 11
-542.5477808792687
 21
-725.4441755172076
 31
0.0
  0
LINE
  5
1FA
330
A
100
AcDbEntity
  8
0
  6
Continuous
 62
     7
100
AcDbLine
 10
-542.5477808792687
 20
-726.9441755172076
 30
0.0
 11
-542.5477808792687
 21
-733.1941755172075
 31
0.0
  0
ARC
  5
1FB
330
A
100
AcDbEntity
  8
0
  6
Continuous
 62
     7
100
AcDbCircle
 10
-594.0477808792689
 20
-726.1941755172073
 30
0.0
 40
14.99999999999988
100
AcDbArc
 50
90.0
 51
156.2839606673738
  0
ARC
  5
1FC
330
A
100
AcDbEntity
  8
0
  6
Continuous
 62
     7
100
AcDbCircle
 10
-594.0477808792689
 20
-726.1941755172073
 30
0.0
 40
14.99999999999997
100
AcDbArc
 50
203.7160393326299
 51
275.7391704772685
  0
ARC
  5
1FD
330
A
100
AcDbEntity
  8
0
  6
Continuous
 62
     7
100
AcDbCircle
 10
-594.0477808792689
 20
-726.1941755172073
 30
0.0
 40
14.99999999999989
100
AcDbArc
 50
41.81031489577897
 51
90.0
  0
ARC
  5
1FE
330
A
100
AcDbEntity
  8
0
  6
Continuous
 62
     7
100
AcDbCircle
 10
-594.0477808792689
 20
-726.1941755172073
 30
0.0
 40
22.49999999999933
100
AcDbArc
 50
90.0
 51
163.0678625776783
  0
ARC
  5
1FF
330
A
100
AcDbEntity
  8
0
  6
Continuous
 62
     7
100
AcDbCircle
 10
-594.0477808792689
 20
-726.1941755172073
 30
0.0
 40
22.49999999999935
100
AcDbArc
 50
196.9321374223246
 51
226.4577809718438
  0
ARC
  5
200
330
A
100
AcDbEntity
  8
0
  6
Continuous
 62
     7
100
AcDbCircle
 10
-594.0477808792689
 20
-726.1941755172073
 30
0.0
 40
22.49999999999927
100
AcDbArc
 50
242.7339555492716
 51
297.26604445073
  0
ARC
  5
201
330
A
100
AcDbEntity
  8
0
  6
Continuous
 62
     7
100
AcDbCircle
 10
-594.0477808792689
 20
-726.1941755172073
 30
0.0
 40
22.49999999999924
100
AcDbArc
 50
318.1896851042205
 51
345.8509954910642
  0
ARC
  5
202
330
A
100
AcDbEntity
  8
0
  6
Continuous
 62
     7
100
AcDbCircle
 10
-594.0477808792689
 20
-726.1941755172073
 30
0.0
 40
22.49999999999932
100
AcDbArc
 50
14.14900450893506
 51
90.0
  0
CIRCLE
  5
203
330
A
100
AcDbEntity
  8
0
  6
Continuous
 62
     7
100
AcDbCircle
 10
739.85
 20
-726.1941755172094
 30
0.0
 40
96.0
  0
CIRCLE
  5
204
330
A
100
AcDbEntity
  8
0
  6
Continuous
 62
     7
100
AcDbCircle
 10
739.85
 20
-726.1941755172093
 30
0.0
 40
114.0
  0
ARC
  5
205
330
A
100
AcDbEntity
  8
0
  6
Continuous
 62
     7
100
AcDbCircle
 10
-594.1500000000001
 20
-726.1941755172065
 30
0.0
 40
119.9999999999999
100
AcDbArc
 50
90.0
 51
356.6558477955447
  0
ARC
  5
206
330
A
100
AcDbEntity
  8
0
  6
Continuous
 62
     7
100
AcDbCircle
 10
-594.1500000000001
 20
-726.1941755172065
 30
0.0
 40
120.0
100
AcDbArc
 50
3.344152204455089
 51
90.0
  0
ARC
  5
207
330
A
100
AcDbEntity
  8
0
  6
Continuous
 62
     7
100
AcDbCircle
 10
-594.1500000000001
 20
-726.1941755172072
 30
0.0
 40
79.22648929483887
100
AcDbArc
 50
5.068937505773835
 51
90.0
  0
ARC
  5
208
330
A
100
AcDbEntity
  8
0
  6
Continuous
 62
     7
100
AcDbCircle
 10
-594.1500000000001
 20
-726.1941755172072
 30
0.0
 40
79.22648929483893
100
AcDbArc
 50
186.2029230089418
 51
354.9310624942265
  0
ARC
  5
209
330
A
100
AcDbEntity
  8
0
  6
Continuous
 62
     7
100
AcDbCircle
 10
-594.1500000000001
 20
-726.1941755172072
 30
0.0
 40
79.2264892948389
100
AcDbArc
 50
90.0
 51
173.8338839730226
  0
ARC
  5
20A
330
A
100
AcDbEntity
  8
0
  6
Continuous
 62
     7
100
AcDbCircle
 10
-594.1500000000001
 20
-726.1941755172072
 30
0.0
 40
78.25535501492926
100
AcDbArc
 50
270.0000000000008
 51
354.867990207441
  0
ARC
  5
20B
330
A
100
AcDbEntity
  8
0
  6
Continuous
 62
     7
100
AcDbCircle
 10
-594.1500000000001
 20
-726.1941755172072
 30
0.0
 40
78.25535501492931
100
AcDbArc
 50
5.132009792560212
 51
173.3404289951076
  0
ARC
  5
20C
330
A
100
AcDbEntity
  8
0
  6
Continuous
 62
     7
100
AcDbCircle
 10
-594.1500000000001
 20
-726.1941755172072
 30
0.0
 40
78.25535501492925
100
AcDbArc
 50
186.6230832426291
 51
270.0000000000008
  0
LWPOLYLINE
  5
20D
330
A
100
AcDbEntity
  8
0
  6
Continuous
 62
     7
100
AcDbPolyline
 90
        7
 70
   128
 43
0.0
 10
-555.7397396909685
 20
-658.0138815177215
 10
-555.6620583934621
 20
-658.1372023313146
 10
-555.4306152383402
 20
-658.3780614730251
 10
-555.1211896666276
 20
-658.594293060835
 10
-554.7792148326268
 20
-658.7541476726137
 10
-554.454903119611
 20
-658.8341537536258
 10
-554.3092635134287
 20
-658.839767323867
  0
LWPOLYLINE
  5
216
330
A
100
AcDbEntity
  8
0
  6
Continuous
 62
     7
100
AcDbPolyline
 90
        7
 70
   128
 43
0.0
 10
-554.3092634930749
 20
-793.5485837116135
 10
-554.45490311961
 20
-793.5541972807879
 10
-554.7792148326261
 20
-793.6342033618
 10
-555.1211896666262
 20
-793.7940579735788
 10
-555.430615238339
 20
-794.0102895613887
 10
-555.6620583934607
 20
-794.2511487030992
 10
-555.7397397002407
 20
-794.3744695348921
  0
ARC
  5
21F
330
A
100
AcDbEntity
  8
0
  6
Continuous
 62
     7
100
AcDbCircle
 10
-594.1500000000001
 20
-726.194175517207
 30
0.0
 40
34.00000000000017
100
AcDbArc
 50
9.309340921636234
 51
90.0
  0
ARC
  5
220
330
A
100
AcDbEntity
  8
0
  6
Continuous
 62
     7
100
AcDbCircle
 10
-594.1500000000001
 20
-726.194175517207
 30
0.0
 40
34.00000000000011
100
AcDbArc
 50
327.2714773963975
 51
350.6906590783628
  0
ARC
  5
221
330
A
100
AcDbEntity
  8
0
  6
Continuous
 62
     7
100
AcDbCircle
 10
-594.1500000000001
 20
-726.194175517207
 30
0.0
 40
34.0
100
AcDbArc
 50
192.4647715950843
 51
323.9681209275302
  0
ARC
  5
222
330
A
100
AcDbEntity
  8
0
  6
Continuous
 62
     7
100
AcDbCircle
 10
-594.1500000000001
 20
-726.194175517207
 30
0.0
 40
34.00000000000002
100
AcDbArc
 50
90.0
 51
167.535228404919
  0
LWPOLYLINE
  5
223
330
A
100
AcDbEntity
  8
0
  6
PHANTOM
 62
     7
100
AcDbPolyline
 90
       18
 70
   128
 43
0.0
 10
-666.8986524019885
 20
-716.2170117187099
 10
-666.1838199289812
 20
-716.3024687209471
 10
-664.6353685514757
 20
-716.7503802775445
 10
-663.1859919828685
 20
-717.5396151996718
 10
-661.8880744686625
 20
-718.6416484809119
 10
-660.7885261295124
 20
-720.016649767161
 10
-659.9270875072403
 20
-721.6149229294032
 10
-659.3348932381116
 20
-723.3787022112948
 10
-659.0333467659595
 20
-725.2442400341063
 10
-659.0333467659595
 20
-727.1441110003098
 10
-659.3348932381116
 20
-729.0096488231213
 10
-659.9270875072403
 20
-730.7734281050129
 10
-660.7885261295124
 20
-732.3717012672552
 10
-661.8880744686626
 20
-733.7467025535041
 10
-663.1859919828685
 20
-734.8487358347442
 10
-664.635368551476
 20
-735.6379707568716
 10
-666.1838199289812
 20
-736.0858823134689
 10
-666.8981231241409
 20
-736.1713032491828
  0
LINE
  5
237
330
A
100
AcDbEntity
  8
0
  6
PHANTOM
 62
     7
100
AcDbLine
 10
-93.73397233901634
 20
-728.1941755172077
 30
0.0
 11
-90.52969042873746
 21
-728.1941755172077
 31
0.0
  0
LWPOLYLINE
  5
238
330
A
100
AcDbEntity
  8
0
  6
PHANTOM
 62
     7
100
AcDbPolyline
 90
        9
 70
   128
 43
0.0
 10
-91.38474078705158
 20
-730.6941755172077
 10
-91.21792873730802
 20
-730.6461387182159
 10
-91.05752718108693
 20
-730.503874348486
 10
-90.90970026023944
 20
-730.2728495479641
 10
-90.7801288804316
 20
-729.9619424701742
 10
-90.67379239712488
 20
-729.5831010997567
 10
-90.59477726173867
 20
-729.1508840981204
 10
-90.54611998161352
 20
-728.6819013222481
 10
-90.52969042873746
 20
-728.1941755172077
  0
LWPOLYLINE
  5
243
330
A
100
AcDbEntity
  8
0
  6
PHANTOM
 62
     7
100
AcDbPolyline
 90
        9
 70
   128
 43
0.0
 10
-91.38474078705158
 20
-730.6941755172077
 10
-91.84305312701487
 20
-730.6461387182159
 10
-92.28375278077781
 20
-730.503874348486
 10
-92.68990390779361
 20
-730.2728495479641
 10
-93.04589834802321
 20
-729.9619424701742
 10
-93.33805543477266
 20
-729.5831010997567
 10
-93.55514773504156
 20
-729.1508840981204
 10
-93.68883251347744
 20
-728.6819013222481
 10
-93.73397233901634
 20
-728.1941755172077
  0
LINE
  5
24E
330
A
100
AcDbEntity
  8
0
  6
PHANTOM
 62
     7
100
AcDbLine
 10
-93.73397233901634
 20
-724.1941755172078
 30
0.0
 11
-90.52969042873746
 21
-724.1941755172078
 31
0.0
  0
LINE
  5
24F
330
A
100
AcDbEntity
  8
0
  6
PHANTOM
 62
     7
100
AcDbLine
 10
-90.52969042873746
 20
-728.1941755172077
 30
0.0
 11
-90.52969042873746
 21
-724.1941755172078
 31
0.0
  0
LINE
  5
250
330
A
100
AcDbEntity
  8
0
  6
PHANTOM
 62
     7
100
AcDbLine
 10
-93.73397233901634
 20
-724.1941755172078
 30
0.0
 11
-93.73397233901634
 21
-728.1941755172077
 31
0.0
  0
LWPOLYLINE
  5
251
330
A
100
AcDbEntity
  8
0
  6
PHANTOM
 62
     7
100
AcDbPolyline
 90
        9
 70
   128
 43
0.0
 10
-93.73397233901634
 20
-724.1941755172078
 10
-93.68883251347744
 20
-723.7064497121674
 10
-93.55514773504156
 20
-723.237466936295
 10
-93.33805543477266
 20
-722.8052499346588
 10
-93.04589834802321
 20
-722.4264085642414
 10
-92.68990390779361
 20
-722.1155014864514
 10
-92.28375278077781
 20
-721.8844766859295
 10
-91.84305312701487
 20
-721.7422123161997
 10
-91.38474078705158
 20
-721.6941755172078
  0
LWPOLYLINE
  5
25C
330
A
100
AcDbEntity
  8
0
  6
PHANTOM
 62
     7
100
AcDbPolyline
 90
        9
 70
   128
 43
0.0
 10
-91.38474078705158
 20
-721.6941755172078
 10
-91.21792873730802
 20
-721.7422123161997
 10
-91.05752718108693
 20
-721.8844766859295
 10
-90.90970026023944
 20
-722.1155014864514
 10
-90.7801288804316
 20
-722.4264085642414
 10
-90.67379239712488
 20
-722.8052499346588
 10
-90.59477726173867
 20
-723.237466936295
 10
-90.54611998161352
 20
-723.7064497121674
 10
-90.52969042873746
 20
-724.1941755172078
  0
LINE
  5
267
330
A
100
AcDbEntity
  8
0
  6
PHANTOM
 62
     7
100
AcDbLine
 10
-84.89153470402207
 20
-728.1941755172077
 30
0.0
 11
-90.52969042873746
 21
-728.1941755172077
 31
0.0
  0
LWPOLYLINE
  5
268
330
A
100
AcDbEntity
  8
0
  6
PHANTOM
 62
     7
100
AcDbPolyline
 90
        9
 70
   128
 43
0.0
 10
-85.74658506233632
 20
-730.6941755172077
 10
-85.57977301259276
 20
-730.6461387182159
 10
-85.41937145637165
 20
-730.503874348486
 10
-85.27154453552418
 20
-730.2728495479642
 10
-85.14197315571633
 20
-729.9619424701742
 10
-85.03563667240962
 20
-729.5831010997568
 10
-84.9566215370234
 20
-729.1508840981204
 10
-84.90796425689826
 20
-728.6819013222481
 10
-84.89153470402207
 20
-728.1941755172077
  0
LINE
  5
273
330
A
100
AcDbEntity
  8
0
  6
PHANTOM
 62
     7
100
AcDbLine
 10
-84.89153470402207
 20
-724.1941755172078
 30
0.0
 11
-84.89153470402207
 21
-728.1941755172077
 31
0.0
  0
LINE
  5
274
330
A
100
AcDbEntity
  8
0
  6
PHANTOM
 62
     7
100
AcDbLine
 10
-90.52969042873746
 20
-724.1941755172078
 30
0.0
 11
-84.89153470402207
 21
-724.1941755172078
 31
0.0
  0
LWPOLYLINE
  5
275
330
A
100
AcDbEntity
  8
0
  6
PHANTOM
 62
     7
100
AcDbPolyline
 90
        9
 70
   128
 43
0.0
 10
-84.89153470402207
 20
-724.1941755172078
 10
-84.90796425689826
 20
-723.7064497121674
 10
-84.9566215370233
 20
-723.237466936295
 10
-85.03563667240962
 20
-722.8052499346588
 10
-85.14197315571623
 20
-722.4264085642414
 10
-85.27154453552407
 20
-722.1155014864514
 10
-85.41937145637144
 20
-721.8844766859295
 10
-85.57977301259255
 20
-721.7422123161997
 10
-85.74658506233621
 20
-721.6941755172078
  0
LINE
  5
280
330
A
100
AcDbEntity
  8
0
  6
PHANTOM
 62
     7
100
AcDbLine
 10
-93.73397233901634
 20
-728.1941755172077
 30
0.0
 11
-109.859658945523
 21
-728.1941755172076
 31
0.0
  0
LINE
  5
281
330
A
100
AcDbEntity
  8
0
  6
PHANTOM
 62
     7
100
AcDbLine
 10
-109.859658945523
 20
-724.1941755172076
 30
0.0
 11
-93.73397233901634
 21
-724.1941755172078
 31
0.0
  0
LINE
  5
282
330
A
100
AcDbEntity
  8
0
  6
PHANTOM
 62
     7
100
AcDbLine
 10
-84.89153470402207
 20
-724.1941755172078
 30
0.0
 11
-83.24658506233637
 21
-724.1941755172078
 31
0.0
  0
LINE
  5
283
330
A
100
AcDbEntity
  8
0
  6
PHANTOM
 62
     7
100
AcDbLine
 10
-83.24658506233637
 20
-728.1941755172077
 30
0.0
 11
-84.89153470402207
 21
-728.1941755172077
 31
0.0
  0
LWPOLYLINE
  5
284
330
A
100
AcDbEntity
  8
0
  6
PHANTOM
 62
     7
100
AcDbPolyline
 90
        3
 70
   128
 43
0.0
 10
-594.0477808792689
 20
-715.475812372926
 10
-595.998126953864
 20
-715.6547514967972
 10
-597.8742366098916
 20
-716.1941755172076
  0
LWPOLYLINE
  5
289
330
A
100
AcDbEntity
  8
0
  6
PHANTOM
 62
     7
100
AcDbPolyline
 90
        4
 70
   128
 43
0.0
 10
-600.0477808792687
 20
-717.3324612114005
 10
-601.6268081418102
 20
-718.615148254666
 10
-603.0190027186433
 20
-720.3289826643327
 10
-603.0940340416196
 20
-720.4738132996186
  0
LWPOLYLINE
  5
28F
330
A
100
AcDbEntity
  8
0
  6
PHANTOM
 62
     7
100
AcDbPolyline
 90
        4
 70
   128
 43
0.0
 10
-603.0940340416194
 20
-731.9145377347966
 10
-603.0190027186433
 20
-732.0593683700819
 10
-601.6268081418102
 20
-733.7732027797486
 10
-600.0477808792687
 20
-735.0558898230141
  0
LWPOLYLINE
  5
295
330
A
100
AcDbEntity
  8
0
  6
PHANTOM
 62
     7
100
AcDbPolyline
 90
        3
 70
   128
 43
0.0
 10
-597.8742366098892
 20
-736.1941755172076
 10
-595.998126953864
 20
-736.7335995376175
 10
-594.0477808792689
 20
-736.9125386614886
  0
LINE
  5
29A
330
A
100
AcDbEntity
  8
0
  6
PHANTOM
 62
     7
100
AcDbLine
 10
-594.0477808792689
 20
-736.9125386614886
 30
0.0
 11
-592.5477808792686
 21
-736.7749176057678
 31
0.0
  0
LWPOLYLINE
  5
29B
330
A
100
AcDbEntity
  8
0
  6
PHANTOM
 62
     7
100
AcDbPolyline
 90
        3
 70
   128
 43
0.0
 10
-590.2213251486462
 20
-716.1941755172076
 10
-592.0974348046733
 20
-715.6547514967972
 10
-594.0477808792689
 20
-715.475812372926
  0
ARC
  5
2A0
330
A
100
AcDbEntity
  8
0
  6
PHANTOM
 62
     7
100
AcDbCircle
 10
-594.0477808792689
 20
-726.1941755172073
 30
0.0
 40
9.549678817091738
100
AcDbArc
 50
216.1352676032916
 51
231.0756767176997
  0
ARC
  5
2A1
330
A
100
AcDbEntity
  8
0
  6
PHANTOM
 62
     7
100
AcDbCircle
 10
-594.0477808792689
 20
-726.1941755172073
 30
0.0
 40
9.54967881709177
100
AcDbArc
 50
128.9243232823009
 51
143.8647323967136
  0
ARC
  5
2A2
330
A
100
AcDbEntity
  8
0
  6
PHANTOM
 62
     7
100
AcDbCircle
 10
-594.0477808792689
 20
-726.1941755172073
 30
0.0
 40
9.243442456779584
100
AcDbArc
 50
217.3442806367107
 51
229.5255558372337
  0
ARC
  5
2A3
330
A
100
AcDbEntity
  8
0
  6
PHANTOM
 62
     7
100
AcDbCircle
 10
-594.0477808792689
 20
-726.1941755172073
 30
0.0
 40
9.243442456779584
100
AcDbArc
 50
130.4744441627671
 51
142.6557193632948
  0
LWPOLYLINE
  5
2A4
330
A
100
AcDbEntity
  8
0
  6
Continuous
 62
     7
100
AcDbPolyline
 90
       12
 70
   128
 43
0.0
 10
1359.727872038393
 20
178.6167186738699
 10
1357.927757470845
 20
178.4533638104853
 10
1357.198969262054
 20
178.2916683247892
 10
1356.016576317668
 20
177.9025295740193
 10
1354.833533675153
 20
177.3371230214969
 10
1353.644485451612
 20
176.5534943186629
 10
1352.521802772864
 20
175.5501569075603
 10
1351.523611562788
 20
174.3342452412265
 10
1350.704318446872
 20
172.9266468149137
 10
1350.111420968605
 20
171.3596858305027
 10
1349.784027762243
 20
169.6750007778818
 10
1349.756826562067
 20
168.1807026349238
  0
LWPOLYLINE
  5
2B2
330
A
100
AcDbEntity
  8
0
  6
Continuous
 62
     7
100
AcDbPolyline
 90
       12
 70
   128
 43
0.0
 10
1369.683003555206
 20
168.1785012233302
 10
1369.703644240909
 20
169.312397452837
 10
1369.41901357683
 20
171.0828443158396
 10
1368.8039766897
 20
172.8148521113071
 10
1367.975602127705
 20
174.271358217984
 10
1366.921612249432
 20
175.5629479945929
 10
1365.682937775454
 20
176.6502230192528
 10
1364.325252434905
 20
177.4972644617012
 10
1363.00940696677
 20
178.0629628224107
 10
1362.044546442268
 20
178.3446691109573
 10
1360.953307232035
 20
178.5413500819467
 10
1359.727872038393
 20
178.6167186738699
  0
LINE
  5
2C0
330
A
100
AcDbEntity
  8
0
  6
Continuous
 62
     7
100
AcDbLine
 10
1349.734421580298
 20
168.2491047145861
 30
0.0
 11
1354.344497778837
 21
61.70805727324818
 31
0.0
  0
LINE
  5
2C1
330
A
100
AcDbEntity
  8
0
  6
Continuous
 62
     7
100
AcDbLine
 10
1365.112406222425
 20
61.73486367804742
 30
0.0
 11
1369.721322496488
 21
168.2491047145861
 31
0.0
  0
LINE
  5
2C2
330
A
100
AcDbEntity
  8
0
  6
Continuous
 62
     7
100
AcDbLine
 10
1384.665320206095
 20
-75.45573327121075
 30
0.0
 11
1382.227872038392
 21
-35.60380799876234
 31
0.0
  0
LINE
  5
2C3
330
A
100
AcDbEntity
  8
0
  6
Continuous
 62
     7
100
AcDbLine
 10
1337.227872038393
 20
-35.60380799876234
 30
0.0
 11
1334.79042387069
 21
-75.45573327121075
 31
0.0
  0
LINE
  5
2C4
330
A
100
AcDbEntity
  8
0
  6
Continuous
 62
     7
100
AcDbLine
 10
1382.227872038392
 20
-35.60380799876234
 30
0.0
 11
1374.727872038392
 21
-28.10380799876239
 31
0.0
  0
LINE
  5
2C5
330
A
100
AcDbEntity
  8
0
  6
Continuous
 62
     7
100
AcDbLine
 10
1344.727872038393
 20
-28.10380799876239
 30
0.0
 11
1337.227872038393
 21
-35.60380799876234
 31
0.0
  0
LINE
  5
2C6
330
A
100
AcDbEntity
  8
0
  6
Continuous
 62
     7
100
AcDbLine
 10
1374.727872038393
 20
33.39619200123773
 30
0.0
 11
1379.727872038392
 21
33.39619200123773
 31
0.0
  0
LINE
  5
2C7
330
A
100
AcDbEntity
  8
0
  6
Continuous
 62
     7
100
AcDbLine
 10
1379.727872038392
 20
77.39619200123776
 30
0.0
 11
1374.727872038393
 21
77.39619200123776
 31
0.0
  0
LINE
  5
2C8
330
A
100
AcDbEntity
  8
0
  6
Continuous
 62
     7
100
AcDbLine
 10
1349.727872038392
 20
42.89619200123778
 30
0.0
 11
1354.219998022647
 21
42.89619200123778
 31
0.0
  0
LINE
  5
2C9
330
A
100
AcDbEntity
  8
0
  6
Continuous
 62
     7
100
AcDbLine
 10
1365.235746054138
 20
42.89619200123778
 30
0.0
 11
1369.727872038392
 21
42.89619200123778
 31
0.0
  0
LINE
  5
2CA
330
A
100
AcDbEntity
  8
0
  6
Continuous
 62
     7
100
AcDbLine
 10
1369.727872038392
 20
67.8961920012377
 30
0.0
 11
1365.379009505726
 21
67.8961920012377
 31
0.0
  0
LINE
  5
2CB
330
A
100
AcDbEntity
  8
0
  6
Continuous
 62
     7
100
AcDbLine
 10
1354.07673457106
 20
67.8961920012377
 30
0.0
 11
1349.727872038392
 21
67.8961920012377
 31
0.0
  0
LINE
  5
2CC
330
A
100
AcDbEntity
  8
0
  6
Continuous
 62
     7
100
AcDbLine
 10
1354.148229449893
 20
44.71911374920639
 30
0.0
 11
1356.227872038394
 21
-8.103807998754374
 31
0.0
  0
LINE
  5
2CD
330
A
100
AcDbEntity
  8
0
  6
Continuous
 62
     7
100
AcDbLine
 10
1363.227872038392
 20
-8.103807998754374
 30
0.0
 11
1365.307514626893
 21
44.71911374920695
 31
0.0
  0
ARC
  5
2CE
330
A
100
AcDbEntity
  8
0
  6
Continuous
 62
     7
100
AcDbCircle
 10
1354.727872038393
 20
-26.60380799876244
 30
0.0
 40
1.5
100
AcDbArc
 50
270.0000000000008
 51
0.0
  0
ARC
  5
2CF
330
A
100
AcDbEntity
  8
0
  6
Continuous
 62
     7
100
AcDbCircle
 10
1364.727872038393
 20
-26.60380799876244
 30
0.0
 40
1.499999999999946
100
AcDbArc
 50
180.0000000000004
 51
270.0000000000008
  0
LINE
  5
2D0
330
A
100
AcDbEntity
  8
0
  6
Continuous
 62
     7
100
AcDbLine
 10
1356.227872038394
 20
-8.103807998754374
 30
0.0
 11
1356.227872038393
 21
-26.60380799876244
 31
0.0
  0
LINE
  5
2D1
330
A
100
AcDbEntity
  8
0
  6
Continuous
 62
     7
100
AcDbLine
 10
1363.227872038393
 20
-26.60380799876244
 30
0.0
 11
1363.227872038392
 21
-8.103807998754374
 31
0.0
  0
LINE
  5
2D2
330
A
100
AcDbEntity
  8
0
  6
Continuous
 62
     7
100
AcDbLine
 10
1369.727872038392
 20
50.39619200123785
 30
0.0
 11
1374.727872038393
 21
50.39619200123785
 31
0.0
  0
LINE
  5
2D3
330
A
100
AcDbEntity
  8
0
  6
Continuous
 62
     7
100
AcDbLine
 10
1374.727872038393
 20
60.39619200123763
 30
0.0
 11
1369.727872038392
 21
60.39619200123763
 31
0.0
  0
LINE
  5
2D4
330
A
100
AcDbEntity
  8
0
  6
Continuous
 62
     7
100
AcDbLine
 10
1341.227872038391
 20
81.08917965523326
 30
0.0
 11
1341.227872038391
 21
71.11979399783014
 31
0.0
  0
LINE
  5
2D5
330
A
100
AcDbEntity
  8
0
  6
Continuous
 62
     7
100
AcDbLine
 10
1378.227872038391
 20
77.39619200123765
 30
0.0
 11
1378.227872038391
 21
81.08917965523326
 31
0.0
  0
LINE
  5
2D6
330
A
100
AcDbEntity
  8
0
  6
Continuous
 62
     7
100
AcDbLine
 10
1352.727872038388
 20
431.526444950458
 30
0.0
 11
1352.72787203839
 21
175.7343202578057
 31
0.0
  0
LINE
  5
2D7
330
A
100
AcDbEntity
  8
0
  6
Continuous
 62
     7
100
AcDbLine
 10
1352.727872038391
 20
99.06904487739755
 30
0.0
 11
1352.727872038391
 21
84.97947032308628
 31
0.0
  0
LINE
  5
2D8
330
A
100
AcDbEntity
  8
0
  6
Continuous
 62
     7
100
AcDbLine
 10
1366.727872038391
 20
84.97947032308639
 30
0.0
 11
1366.727872038391
 21
99.06904487729933
 31
0.0
  0
LINE
  5
2D9
330
A
100
AcDbEntity
  8
0
  6
Continuous
 62
     7
100
AcDbLine
 10
1366.72787203839
 20
175.7330079233022
 30
0.0
 11
1366.727872038388
 21
431.5264449504581
 31
0.0
  0
LINE
  5
2DA
330
A
100
AcDbEntity
  8
0
  6
Continuous
 62
     7
100
AcDbLine
 10
1354.227872038388
 20
446.3180841113823
 30
0.0
 11
1354.227872038388
 21
435.450872786565
 31
0.0
  0
LINE
  5
2DB
330
A
100
AcDbEntity
  8
0
  6
Continuous
 62
     7
100
AcDbLine
 10
1365.227872038388
 20
435.450872786565
 30
0.0
 11
1365.227872038388
 21
446.3180841113823
 31
0.0
  0
LINE
  5
2DC
330
A
100
AcDbEntity
  8
0
  6
Continuous
 62
     7
100
AcDbLine
 10
1245.727872038388
 20
547.0442667287892
 30
0.0
 11
1245.727872038388
 21
545.5442667287893
 31
0.0
  0
LINE
  5
2DD
330
A
100
AcDbEntity
  8
0
  6
Continuous
 62
     7
100
AcDbLine
 10
1473.727872038388
 20
545.5442667287893
 30
0.0
 11
1473.727872038388
 21
547.0442667287892
 31
0.0
  0
LINE
  5
2DE
330
A
100
AcDbEntity
  8
0
  6
Continuous
 62
     7
100
AcDbLine
 10
1263.727872038388
 20
565.5442667287893
 30
0.0
 11
1263.727872038388
 21
564.0442667287892
 31
0.0
  0
LINE
  5
2DF
330
A
100
AcDbEntity
  8
0
  6
Continuous
 62
     7
100
AcDbLine
 10
1455.727872038388
 20
564.0442667287892
 30
0.0
 11
1455.727872038388
 21
565.5442667287893
 31
0.0
  0
ARC
  5
2E0
330
A
100
AcDbEntity
  8
0
  6
Continuous
 62
     7
100
AcDbCircle
 10
1454.556299163134
 20
543.5442667287893
 30
0.0
 40
2.000000000000096
100
AcDbArc
 50
90.0
 51
135.0000000000069
  0
ARC
  5
2E1
330
A
100
AcDbEntity
  8
0
  6
Continuous
 62
     7
100
AcDbCircle
 10
1264.899444913642
 20
543.5442667287893
 30
0.0
 40
2.0
100
AcDbArc
 50
44.99999999999953
 51
90.0
  0
LINE
  5
2E2
330
A
100
AcDbEntity
  8
0
  6
Continuous
 62
     7
100
AcDbLine
 10
1266.313658476015
 20
544.9584802911623
 30
0.0
 11
1295.142085600761
 21
516.1300531664161
 31
0.0
  0
LINE
  5
2E3
330
A
100
AcDbEntity
  8
0
  6
Continuous
 62
     7
100
AcDbLine
 10
1424.313658476015
 20
516.1300531664161
 30
0.0
 11
1453.142085600761
 21
544.9584802911623
 31
0.0
  0
ARC
  5
2E4
330
A
100
AcDbEntity
  8
0
  6
Continuous
 62
     7
100
AcDbCircle
 10
1446.556299163134
 20
562.0442667287892
 30
0.0
 40
2.000000000000257
100
AcDbArc
 50
90.0
 51
135.0000000000023
  0
ARC
  5
2E5
330
A
100
AcDbEntity
  8
0
  6
Continuous
 62
     7
100
AcDbCircle
 10
1272.899444913642
 20
562.0442667287892
 30
0.0
 40
2.000000000000096
100
AcDbArc
 50
45.0000000000023
 51
90.0
  0
LINE
  5
2E6
330
A
100
AcDbEntity
  8
0
  6
Continuous
 62
     7
100
AcDbLine
 10
1274.313658476015
 20
563.4584802911624
 30
0.0
 11
1287.313658476015
 21
550.4584802911621
 31
0.0
  0
LINE
  5
2E7
330
A
100
AcDbEntity
  8
0
  6
Continuous
 62
     7
100
AcDbLine
 10
1432.142085600761
 20
550.4584802911621
 30
0.0
 11
1445.142085600761
 21
563.4584802911624
 31
0.0
  0
ARC
  5
2E8
330
A
100
AcDbEntity
  8
0
  6
Continuous
 62
     7
100
AcDbCircle
 10
1285.899444913642
 20
549.0442667287892
 30
0.0
 40
2.0
100
AcDbArc
 50
270.0000000000008
 51
45.00000000000875
  0
ARC
  5
2E9
330
A
100
AcDbEntity
  8
0
  6
Continuous
 62
     7
100
AcDbCircle
 10
1433.556299163134
 20
549.0442667287892
 30
0.0
 40
2.0
100
AcDbArc
 50
134.9999999999912
 51
270.0000000000008
  0
ARC
  5
2EA
330
A
100
AcDbEntity
  8
0
  6
Continuous
 62
     7
100
AcDbCircle
 10
1422.899444913642
 20
517.5442667287892
 30
0.0
 40
2.000000000000015
100
AcDbArc
 50
270.0000000000008
 51
315.0000000000008
  0
ARC
  5
2EB
330
A
100
AcDbEntity
  8
0
  6
Continuous
 62
     7
100
AcDbCircle
 10
1296.556299163134
 20
517.5442667287892
 30
0.0
 40
2.000000000000015
100
AcDbArc
 50
225.0000000000008
 51
270.0000000000008
  0
LINE
  5
2EC
330
A
100
AcDbEntity
  8
0
  6
Continuous
 62
     7
100
AcDbLine
 10
1374.727872038388
 20
428.5442667287892
 30
0.0
 11
1379.727872038388
 21
428.5442667287892
 31
0.0
  0
LINE
  5
2ED
330
A
100
AcDbEntity
  8
0
  6
Continuous
 62
     7
100
AcDbLine
 10
1379.727872038388
 20
472.5442667287892
 30
0.0
 11
1374.727872038388
 21
472.5442667287892
 31
0.0
  0
LINE
  5
2EE
330
A
100
AcDbEntity
  8
0
  6
Continuous
 62
     7
100
AcDbLine
 10
1338.727872038388
 20
515.5442667287892
 30
0.0
 11
1338.727872038388
 21
513.5442667287892
 31
0.0
  0
LINE
  5
2EF
330
A
100
AcDbEntity
  8
0
  6
Continuous
 62
     7
100
AcDbLine
 10
1380.727872038388
 20
513.5442667287892
 30
0.0
 11
1380.727872038388
 21
515.5442667287892
 31
0.0
  0
LINE
  5
2F0
330
A
100
AcDbEntity
  8
0
  6
Continuous
 62
     7
100
AcDbLine
 10
1338.727872038388
 20
513.5442667287892
 30
0.0
 11
1351.227872038388
 21
472.5442667287892
 31
0.0
  0
LINE
  5
2F1
330
A
100
AcDbEntity
  8
0
  6
Continuous
 62
     7
100
AcDbLine
 10
1368.227872038388
 20
472.5442667287892
 30
0.0
 11
1380.727872038388
 21
513.5442667287892
 31
0.0
  0
LINE
  5
2F2
330
A
100
AcDbEntity
  8
0
  6
Continuous
 62
     7
100
AcDbLine
 10
1349.727872038388
 20
440.5442667287893
 30
0.0
 11
1354.227872038388
 21
440.5442667287893
 31
0.0
  0
LINE
  5
2F3
330
A
100
AcDbEntity
  8
0
  6
Continuous
 62
     7
100
AcDbLine
 10
1365.227872038388
 20
440.5442667287893
 30
0.0
 11
1369.727872038388
 21
440.5442667287893
 31
0.0
  0
LINE
  5
2F4
330
A
100
AcDbEntity
  8
0
  6
Continuous
 62
     7
100
AcDbLine
 10
1351.310232825607
 20
460.5442667287892
 30
0.0
 11
1349.727872038388
 21
460.5442667287892
 31
0.0
  0
LINE
  5
2F5
330
A
100
AcDbEntity
  8
0
  6
Continuous
 62
     7
100
AcDbLine
 10
1369.727872038388
 20
460.5442667287892
 30
0.0
 11
1368.145511251169
 21
460.5442667287892
 31
0.0
  0
LINE
  5
2F6
330
A
100
AcDbEntity
  8
0
  6
Continuous
 62
     7
100
AcDbLine
 10
1351.227872038388
 20
472.5442667287892
 30
0.0
 11
1351.227872038388
 21
460.4743548461455
 31
0.0
  0
LINE
  5
2F7
330
A
100
AcDbEntity
  8
0
  6
Continuous
 62
     7
100
AcDbLine
 10
1368.227872038388
 20
460.4743548461455
 30
0.0
 11
1368.227872038388
 21
472.5442667287892
 31
0.0
  0
LINE
  5
2F8
330
A
100
AcDbEntity
  8
0
  6
Continuous
 62
     7
100
AcDbLine
 10
1369.727872038388
 20
445.5442667287893
 30
0.0
 11
1374.727872038388
 21
445.5442667287893
 31
0.0
  0
LINE
  5
2F9
330
A
100
AcDbEntity
  8
0
  6
Continuous
 62
     7
100
AcDbLine
 10
1374.727872038388
 20
455.5442667287892
 30
0.0
 11
1369.727872038388
 21
455.5442667287892
 31
0.0
  0
LINE
  5
2FA
330
A
100
AcDbEntity
  8
0
  6
Continuous
 62
     7
100
AcDbLine
 10
1479.727872038393
 20
-241.4557332712107
 30
0.0
 11
1438.954361333231
 21
-75.45573327121075
 31
0.0
  0
LINE
  5
2FB
330
A
100
AcDbEntity
  8
0
  6
Continuous
 62
     7
100
AcDbLine
 10
1280.501382743554
 20
-75.45573327121075
 30
0.0
 11
1239.727872038393
 21
-241.4557332712107
 31
0.0
  0
LINE
  5
2FC
330
A
100
AcDbEntity
  8
0
  6
Continuous
 62
     7
100
AcDbLine
 10
1239.727872038393
 20
-241.4557332712107
 30
0.0
 11
1240.699006318302
 21
-241.6942667287893
 31
0.0
  0
LINE
  5
2FD
330
A
100
AcDbEntity
  8
0
  6
Continuous
 62
     7
100
AcDbLine
 10
1478.756737758483
 20
-241.6942667287893
 30
0.0
 11
1479.727872038393
 21
-241.4557332712107
 31
0.0
  0
LWPOLYLINE
  5
2FE
330
A
100
AcDbEntity
  8
0
  6
Continuous
 62
     7
100
AcDbPolyline
 90
        5
 70
   128
 43
0.0
 10
1358.312106855048
 20
55.3961920012373
 10
1356.730466194146
 20
56.60265831257421
 10
1355.19981771909
 20
58.78338492402685
 10
1354.394942911792
 20
61.19596940549526
 10
1354.403721138594
 20
61.7087943612365
  0
LWPOLYLINE
  5
305
330
A
100
AcDbEntity
  8
0
  6
Continuous
 62
     7
100
AcDbPolyline
 90
       10
 70
   128
 43
0.0
 10
1365.103634248399
 20
61.73459699369282
 10
1365.109608551023
 20
61.67875837611742
 10
1364.786297766183
 20
60.04774729071743
 10
1363.907941816397
 20
58.16022105937863
 10
1362.26571721041
 20
56.16061371266717
 10
1361.143637221737
 20
55.39619200123741
 10
1360.105144395697
 20
55.0743027226755
 10
1359.727872038393
 20
55.04961203690012
 10
1358.659868764561
 20
55.24710201519694
 10
1358.312106855048
 20
55.3961920012373
  0
LINE
  5
311
330
A
100
AcDbEntity
  8
0
  6
Continuous
 62
     7
100
AcDbLine
 10
1337.227872038393
 20
-35.60380799876234
 30
0.0
 11
1382.227872038392
 21
-35.60380799876234
 31
0.0
  0
LINE
  5
312
330
A
100
AcDbEntity
  8
0
  6
Continuous
 62
     7
100
AcDbLine
 10
1344.727872038393
 20
-28.10380799876239
 30
0.0
 11
1374.727872038392
 21
-28.10380799876239
 31
0.0
  0
LINE
  5
313
330
A
100
AcDbEntity
  8
0
  6
Continuous
 62
     7
100
AcDbLine
 10
1374.727872038393
 20
55.39619200123774
 30
0.0
 11
1374.727872038393
 21
33.39619200123773
 31
0.0
  0
LINE
  5
314
330
A
100
AcDbEntity
  8
0
  6
Continuous
 62
     7
100
AcDbLine
 10
1374.727872038393
 20
77.39619200123776
 30
0.0
 11
1374.727872038393
 21
55.39619200123774
 31
0.0
  0
LINE
  5
315
330
A
100
AcDbEntity
  8
0
  6
Continuous
 62
     7
100
AcDbLine
 10
1379.727872038393
 20
55.39619200123774
 30
0.0
 11
1379.727872038392
 21
77.39619200123776
 31
0.0
  0
LINE
  5
316
330
A
100
AcDbEntity
  8
0
  6
Continuous
 62
     7
100
AcDbLine
 10
1379.727872038392
 20
33.39619200123773
 30
0.0
 11
1379.727872038393
 21
55.39619200123774
 31
0.0
  0
LWPOLYLINE
  5
317
330
A
100
AcDbEntity
  8
0
  6
Continuous
 62
     7
100
AcDbPolyline
 90
       19
 70
   128
 43
0.0
 10
1354.148229449893
 20
44.71911374920429
 10
1354.507511512631
 20
46.36959546292202
 10
1355.813856048785
 20
48.94529598935044
 10
1357.051557380433
 20
50.92937535337277
 10
1358.437734187028
 20
52.96698717528609
 10
1358.965863783376
 20
53.69694063711111
 10
1359.454695466368
 20
54.27450285421525
 10
1359.557540697443
 20
54.3552724164435
 10
1359.678716579515
 20
54.40835797570281
 10
1359.761741216515
 20
54.41103297692324
 10
1359.840960766954
 20
54.38701004775076
 10
1359.976747405621
 20
54.29589790733352
 10
1360.461475268937
 20
53.73453639066022
 10
1362.120238003682
 20
51.35416685766086
 10
1363.38539245918
 20
49.37596616318734
 10
1364.440240435178
 20
47.49627602062028
 10
1365.205035645951
 20
45.57156500571451
 10
1365.307514626892
 20
44.71911374920417
 10
1365.307514626893
 20
44.71911374920629
  0
LINE
  5
32C
330
A
100
AcDbEntity
  8
0
  6
Continuous
 62
     7
100
AcDbLine
 10
1349.727872038393
 20
55.39619200123774
 30
0.0
 11
1349.727872038392
 21
42.89619200123778
 31
0.0
  0
LINE
  5
32D
330
A
100
AcDbEntity
  8
0
  6
Continuous
 62
     7
100
AcDbLine
 10
1349.727872038392
 20
67.8961920012377
 30
0.0
 11
1349.727872038393
 21
55.39619200123774
 31
0.0
  0
LINE
  5
32E
330
A
100
AcDbEntity
  8
0
  6
Continuous
 62
     7
100
AcDbLine
 10
1369.727872038392
 20
55.39619200123774
 30
0.0
 11
1369.727872038392
 21
67.8961920012377
 31
0.0
  0
LINE
  5
32F
330
A
100
AcDbEntity
  8
0
  6
Continuous
 62
     7
100
AcDbLine
 10
1369.727872038392
 20
42.89619200123778
 30
0.0
 11
1369.727872038392
 21
55.39619200123774
 31
0.0
  0
LINE
  5
330
330
A
100
AcDbEntity
  8
0
  6
Continuous
 62
     7
100
AcDbLine
 10
1356.227872038394
 20
-8.103807998754374
 30
0.0
 11
1363.227872038392
 21
-8.103807998754374
 31
0.0
  0
LWPOLYLINE
  5
331
330
A
100
AcDbEntity
  8
0
  6
Continuous
 62
     7
100
AcDbPolyline
 90
       19
 70
   128
 43
0.0
 10
1349.727872038391
 20
77.49692443043738
 10
1347.96062266644
 20
77.57542382587567
 10
1346.270610572246
 20
77.80749121192809
 10
1344.731697393905
 20
78.18298413024122
 10
1343.411141021833
 20
78.68549173846983
 10
1342.366656106223
 20
79.29305204283533
 10
1341.643891649882
 20
79.97911174263916
 10
1341.274435927761
 20
80.71368673692013
 10
1341.274435927761
 20
81.4646725735464
 10
1341.643891649882
 20
82.19924756782743
 10
1342.366656106223
 20
82.88530726763122
 10
1343.411141021833
 20
83.49286757199676
 10
1344.731697393905
 20
83.99537518022539
 10
1346.270610572246
 20
84.37086809853843
 10
1347.96062266644
 20
84.60293548459086
 10
1349.727872038391
 20
84.68143488002915
 10
1351.495121410342
 20
84.60293548459086
 10
1353.185133504535
 20
84.37086809853843
 10
1353.36538224884
 20
84.33588155194616
  0
LWPOLYLINE
  5
346
330
A
100
AcDbEntity
  8
0
  6
Continuous
 62
     7
100
AcDbPolyline
 90
        4
 70
   128
 43
0.0
 10
1353.643828626041
 20
77.90085371170829
 10
1353.185133504535
 20
77.80749121192804
 10
1351.495121410342
 20
77.57542382587567
 10
1349.727872038391
 20
77.49692443043738
  0
LINE
  5
34C
330
A
100
AcDbEntity
  8
0
  6
Continuous
 62
     7
100
AcDbLine
 10
1353.478646958129
 20
67.8961920012377
 30
0.0
 11
1354.070865310498
 21
68.03183339651619
 31
0.0
  0
LWPOLYLINE
  5
34D
330
A
100
AcDbEntity
  8
0
  6
Continuous
 62
     7
100
AcDbPolyline
 90
        9
 70
   128
 43
0.0
 10
1341.227872038391
 20
71.11979399783014
 10
1341.274435927761
 20
70.74430107951702
 10
1341.643891649882
 20
70.00972608523598
 10
1342.366656106223
 20
69.32366638543213
 10
1343.411141021833
 20
68.71610608106665
 10
1344.731697393905
 20
68.21359847283803
 10
1346.270610572247
 20
67.8381055545249
 10
1347.96062266644
 20
67.60603816847255
 10
1349.727872038391
 20
67.52753877303425
  0
LWPOLYLINE
  5
358
330
A
100
AcDbEntity
  8
0
  6
Continuous
 62
     7
100
AcDbPolyline
 90
        4
 70
   128
 43
0.0
 10
1369.727872038391
 20
77.49692443043738
 10
1367.96062266644
 20
77.57542382587567
 10
1366.270610572246
 20
77.80749121192809
 10
1365.811915450744
 20
77.90085371170746
  0
LWPOLYLINE
  5
35E
330
A
100
AcDbEntity
  8
0
  6
Continuous
 62
     7
100
AcDbPolyline
 90
       20
 70
   128
 43
0.0
 10
1366.090361827945
 20
84.33588155194694
 10
1366.270610572246
 20
84.37086809853843
 10
1367.96062266644
 20
84.60293548459086
 10
1369.727872038391
 20
84.68143488002915
 10
1371.495121410342
 20
84.60293548459086
 10
1373.185133504535
 20
84.37086809853843
 10
1374.724046682877
 20
83.99537518022532
 10
1376.044603054949
 20
83.49286757199669
 10
1377.089087970559
 20
82.88530726763122
 10
1377.8118524269
 20
82.19924756782736
 10
1378.181308149021
 20
81.46467257354634
 10
1378.181308149021
 20
80.71368673692013
 10
1377.8118524269
 20
79.97911174263911
 10
1377.089087970559
 20
79.29305204283527
 10
1376.044603054949
 20
78.68549173846978
 10
1374.724046682877
 20
78.18298413024116
 10
1373.185133504535
 20
77.80749121192804
 10
1371.495121410342
 20
77.57542382587567
 10
1369.727872038391
 20
77.49692443043738
 10
1369.727872038391
 20
77.49692443043738
  0
LWPOLYLINE
  5
374
330
A
100
AcDbEntity
  8
0
  6
Continuous
 62
     7
100
AcDbPolyline
 90
        5
 70
   128
 43
0.0
 10
1369.727872038391
 20
67.52753877303419
 10
1371.495121410342
 20
67.60603816847249
 10
1373.185133504535
 20
67.8381055545249
 10
1374.724046682877
 20
68.21359847283803
 10
1374.727872038391
 20
68.21477373608399
  0
LINE
  5
37B
330
A
100
AcDbEntity
  8
0
  6
Continuous
 62
     7
100
AcDbLine
 10
1365.384878766287
 20
68.0318333965152
 30
0.0
 11
1365.977097118653
 21
67.8961920012377
 31
0.0
  0
LWPOLYLINE
  5
37C
330
A
100
AcDbEntity
  8
0
  6
Continuous
 62
     7
100
AcDbPolyline
 90
        4
 70
   128
 43
0.0
 10
1352.752636953797
 20
84.44629051137297
 10
1352.735068590405
 20
84.69186937542898
 10
1352.848000540957
 20
86.14975485791253
 10
1353.234954722303
 20
87.35012355012923
  0
LWPOLYLINE
  5
382
330
A
100
AcDbEntity
  8
0
  6
Continuous
 62
     7
100
AcDbPolyline
 90
        4
 70
   128
 43
0.0
 10
1366.220789354482
 20
87.35012355012111
 10
1366.607743535825
 20
86.14975485791243
 10
1366.720675486376
 20
84.69186937542893
 10
1366.703107122985
 20
84.44629051137603
  0
LWPOLYLINE
  5
388
330
A
100
AcDbEntity
  8
0
  6
Continuous
 62
     7
100
AcDbPolyline
 90
       15
 70
   128
 43
0.0
 10
1366.727872038388
 20
431.5264449504581
 10
1366.607743535823
 20
432.6967294852841
 10
1366.129708986287
 20
434.0925100395905
 10
1365.31194028491
 20
435.3521140630481
 10
1364.197834968748
 20
436.4086966003656
 10
1362.846516634313
 20
437.206186687055
 10
1361.329697352991
 20
437.7022629362379
 10
1359.727872038388
 20
437.8705994597146
 10
1358.126046723785
 20
437.7022629362379
 10
1356.609227442463
 20
437.206186687055
 10
1355.257909108028
 20
436.4086966003656
 10
1354.143803791866
 20
435.3521140630481
 10
1353.32603509049
 20
434.0925100395905
 10
1352.848000540954
 20
432.6967294852842
 10
1352.727872038388
 20
431.526444950458
  0
LINE
  5
399
330
A
100
AcDbEntity
  8
0
  6
Continuous
 62
     7
100
AcDbLine
 10
1359.727872038388
 20
545.5442667287893
 30
0.0
 11
1473.727872038388
 21
545.5442667287893
 31
0.0
  0
LINE
  5
39A
330
A
100
AcDbEntity
  8
0
  6
Continuous
 62
     7
100
AcDbLine
 10
1245.727872038388
 20
545.5442667287893
 30
0.0
 11
1359.727872038388
 21
545.5442667287893
 31
0.0
  0
LINE
  5
39B
330
A
100
AcDbEntity
  8
0
  6
Continuous
 62
     7
100
AcDbLine
 10
1359.727872038388
 20
547.0442667287892
 30
0.0
 11
1473.727872038388
 21
547.0442667287892
 31
0.0
  0
LINE
  5
39C
330
A
100
AcDbEntity
  8
0
  6
Continuous
 62
     7
100
AcDbLine
 10
1245.727872038388
 20
547.0442667287892
 30
0.0
 11
1359.727872038388
 21
547.0442667287892
 31
0.0
  0
LINE
  5
39D
330
A
100
AcDbEntity
  8
0
  6
Continuous
 62
     7
100
AcDbLine
 10
1359.727872038388
 20
565.5442667287893
 30
0.0
 11
1455.727872038388
 21
565.5442667287893
 31
0.0
  0
LINE
  5
39E
330
A
100
AcDbEntity
  8
0
  6
Continuous
 62
     7
100
AcDbLine
 10
1263.727872038388
 20
565.5442667287893
 30
0.0
 11
1359.727872038388
 21
565.5442667287893
 31
0.0
  0
LINE
  5
39F
330
A
100
AcDbEntity
  8
0
  6
Continuous
 62
     7
100
AcDbLine
 10
1359.727872038388
 20
564.0442667287892
 30
0.0
 11
1455.727872038388
 21
564.0442667287892
 31
0.0
  0
LINE
  5
3A0
330
A
100
AcDbEntity
  8
0
  6
Continuous
 62
     7
100
AcDbLine
 10
1263.727872038388
 20
564.0442667287892
 30
0.0
 11
1359.727872038388
 21
564.0442667287892
 31
0.0
  0
LINE
  5
3A1
330
A
100
AcDbEntity
  8
0
  6
Continuous
 62
     7
100
AcDbLine
 10
1359.727872038388
 20
515.5442667287892
 30
0.0
 11
1422.899444913642
 21
515.5442667287892
 31
0.0
  0
LINE
  5
3A2
330
A
100
AcDbEntity
  8
0
  6
Continuous
 62
     7
100
AcDbLine
 10
1296.556299163134
 20
515.5442667287892
 30
0.0
 11
1359.727872038388
 21
515.5442667287892
 31
0.0
  0
LINE
  5
3A3
330
A
100
AcDbEntity
  8
0
  6
Continuous
 62
     7
100
AcDbLine
 10
1379.727872038388
 20
450.5442667287892
 30
0.0
 11
1379.727872038388
 21
472.5442667287892
 31
0.0
  0
LINE
  5
3A4
330
A
100
AcDbEntity
  8
0
  6
Continuous
 62
     7
100
AcDbLine
 10
1379.727872038388
 20
428.5442667287892
 30
0.0
 11
1379.727872038388
 21
450.5442667287892
 31
0.0
  0
LINE
  5
3A5
330
A
100
AcDbEntity
  8
0
  6
Continuous
 62
     7
100
AcDbLine
 10
1374.727872038388
 20
450.5442667287892
 30
0.0
 11
1374.727872038388
 21
428.5442667287892
 31
0.0
  0
LINE
  5
3A6
330
A
100
AcDbEntity
  8
0
  6
Continuous
 62
     7
100
AcDbLine
 10
1374.727872038388
 20
472.5442667287892
 30
0.0
 11
1374.727872038388
 21
450.5442667287892
 31
0.0
  0
LINE
  5
3A7
330
A
100
AcDbEntity
  8
0
  6
Continuous
 62
     7
100
AcDbLine
 10
1359.727872038388
 20
513.5442667287892
 30
0.0
 11
1380.727872038388
 21
513.5442667287892
 31
0.0
  0
LINE
  5
3A8
330
A
100
AcDbEntity
  8
0
  6
Continuous
 62
     7
100
AcDbLine
 10
1338.727872038388
 20
513.5442667287892
 30
0.0
 11
1359.727872038388
 21
513.5442667287892
 31
0.0
  0
LINE
  5
3A9
330
A
100
AcDbEntity
  8
0
  6
Continuous
 62
     7
100
AcDbLine
 10
1359.727872038388
 20
472.5442667287892
 30
0.0
 11
1368.227872038388
 21
472.5442667287892
 31
0.0
  0
LINE
  5
3AA
330
A
100
AcDbEntity
  8
0
  6
Continuous
 62
     7
100
AcDbLine
 10
1351.227872038388
 20
472.5442667287892
 30
0.0
 11
1359.727872038388
 21
472.5442667287892
 31
0.0
  0
LWPOLYLINE
  5
3AB
330
A
100
AcDbEntity
  8
0
  6
Continuous
 62
     7
100
AcDbPolyline
 90
       14
 70
   128
 43
0.0
 10
1351.310232825607
 20
460.4743548435906
 10
1351.310660341148
 20
460.4739924428332
 10
1351.871991473284
 20
460.0028532750538
 10
1352.96370116625
 20
459.1177145525929
 10
1355.273946292574
 20
457.4426328070153
 10
1357.530352452835
 20
456.2520764951433
 10
1359.203074011073
 20
455.8381701062105
 10
1359.727872038388
 20
455.8120936052156
 10
1361.433130336786
 20
456.081224906729
 10
1363.560768426388
 20
457.0589497388167
 10
1366.113082769727
 20
458.8220028977915
 10
1367.524475451521
 20
459.9536782290734
 10
1368.145936554342
 20
460.4747153689447
 10
1368.145511251169
 20
460.4743548435906
  0
LINE
  5
3BB
330
A
100
AcDbEntity
  8
0
  6
Continuous
 62
     7
100
AcDbLine
 10
1369.727872038388
 20
450.5442667287892
 30
0.0
 11
1369.727872038388
 21
460.5442667287892
 31
0.0
  0
LINE
  5
3BC
330
A
100
AcDbEntity
  8
0
  6
Continuous
 62
     7
100
AcDbLine
 10
1369.727872038388
 20
440.5442667287893
 30
0.0
 11
1369.727872038388
 21
450.5442667287892
 31
0.0
  0
LINE
  5
3BD
330
A
100
AcDbEntity
  8
0
  6
Continuous
 62
     7
100
AcDbLine
 10
1349.727872038388
 20
450.5442667287892
 30
0.0
 11
1349.727872038388
 21
440.5442667287893
 31
0.0
  0
LINE
  5
3BE
330
A
100
AcDbEntity
  8
0
  6
Continuous
 62
     7
100
AcDbLine
 10
1349.727872038388
 20
460.5442667287892
 30
0.0
 11
1349.727872038388
 21
450.5442667287892
 31
0.0
  0
LINE
  5
3BF
330
A
100
AcDbEntity
  8
0
  6
Continuous
 62
     7
100
AcDbLine
 10
1239.727872038393
 20
-241.4557332712107
 30
0.0
 11
1479.727872038393
 21
-241.4557332712107
 31
0.0
  0
LINE
  5
3C0
330
A
100
AcDbEntity
  8
0
  6
Continuous
 62
     7
100
AcDbLine
 10
1438.954361333231
 20
-75.45573327121075
 30
0.0
 11
1280.501382743554
 21
-75.45573327121075
 31
0.0
  0
LINE
  5
3C1
330
A
100
AcDbEntity
  8
0
  6
Continuous
 62
     7
100
AcDbLine
 10
1240.699006318302
 20
-241.6942667287893
 30
0.0
 11
1478.756737758483
 21
-241.6942667287893
 31
0.0
  0
LWPOLYLINE
  5
3C2
330
A
100
AcDbEntity
  8
0
  6
PHANTOM
 62
     7
100
AcDbPolyline
 90
       10
 70
   128
 43
0.0
 10
1359.727872038393
 20
162.8698431500002
 10
1357.836603835025
 20
162.968201809987
 10
1356.013690992179
 20
163.2597228517043
 10
1354.325018329547
 20
163.7338699451539
 10
1352.831618876951
 20
164.3735061790002
 10
1351.587467981621
 20
165.1555134331963
 10
1350.63753249852
 20
166.0516279280752
 10
1350.016145571037
 20
167.0294617509886
 10
1349.745765741742
 20
168.0536734398553
 10
1349.737301010431
 20
168.182573012366
  0
LWPOLYLINE
  5
3CE
330
A
100
AcDbEntity
  8
0
  6
PHANTOM
 62
     7
100
AcDbPolyline
 90
       10
 70
   128
 43
0.0
 10
1369.718403761728
 20
168.1816806240574
 10
1369.709978335044
 20
168.0536734398552
 10
1369.439598505749
 20
167.0294617509886
 10
1368.818211578266
 20
166.0516279280751
 10
1367.868276095165
 20
165.1555134331962
 10
1366.624125199835
 20
164.3735061790002
 10
1365.130725747239
 20
163.7338699451539
 10
1363.442053084607
 20
163.2597228517043
 10
1361.61914024176
 20
162.968201809987
 10
1359.727872038393
 20
162.8698431500002
  0
LINE
  5
3DA
330
A
100
AcDbEntity
  8
0
  6
PHANTOM
 62
     7
100
AcDbLine
 10
1356.227872038393
 20
-26.60380799876244
 30
0.0
 11
1363.227872038393
 21
-26.60380799876244
 31
0.0
  0
LINE
  5
3DB
330
A
100
AcDbEntity
  8
0
  6
PHANTOM
 62
     7
100
AcDbLine
 10
1453.142085600761
 20
544.9584802911623
 30
0.0
 11
1266.313658476015
 21
544.9584802911623
 31
0.0
  0
LINE
  5
3DC
330
A
100
AcDbEntity
  8
0
  6
PHANTOM
 62
     7
100
AcDbLine
 10
1359.727872038388
 20
516.1300531664161
 30
0.0
 11
1424.313658476015
 21
516.1300531664161
 31
0.0
  0
LINE
  5
3DD
330
A
100
AcDbEntity
  8
0
  6
PHANTOM
 62
     7
100
AcDbLine
 10
1295.142085600761
 20
516.1300531664161
 30
0.0
 11
1359.727872038388
 21
516.1300531664161
 31
0.0
  0
LINE
  5
3DE
330
A
100
AcDbEntity
  8
0
  6
PHANTOM
 62
     7
100
AcDbLine
 10
1445.142085600761
 20
563.4584802911624
 30
0.0
 11
1274.313658476015
 21
563.4584802911624
 31
0.0
  0
LINE
  5
3DF
330
A
100
AcDbEntity
  8
0
  6
PHANTOM
 62
     7
100
AcDbLine
 10
1359.727872038388
 20
550.4584802911621
 30
0.0
 11
1432.142085600761
 21
550.4584802911621
 31
0.0
  0
LINE
  5
3E0
330
A
100
AcDbEntity
  8
0
  6
PHANTOM
 62
     7
100
AcDbLine
 10
1287.313658476015
 20
550.4584802911621
 30
0.0
 11
1359.727872038388
 21
550.4584802911621
 31
0.0
  0
ENDSEC
  0
SECTION
  2
OBJECTS
  0
DICTIONARY
  5
19
330
0
100
AcDbDictionary
281
     1
  3
ACAD_COLOR
350
3E5
  3
ACAD_GROUP
350
1A
  3
ACAD_LAYOUT
350
3E6
  3
ACAD_MATERIAL
350
3E4
  3
ACAD_MLINESTYLE
350
1B
  3
ACAD_PLOTSETTINGS
350
3E7
  3
ACAD_PLOTSTYLENAME
350
3E2
  3
ACDBHEADERROUNDTRIPXREC
350
3FF
  3
AcDbVariableDictionary
350
3F8
  3
ASE_INDEX_DICTIONARY
350
3ED
  0
DICTIONARY
  5
3E5
102
{ACAD_REACTORS
330
19
102
}
330
19
100
AcDbDictionary
281
     1
  0
DICTIONARY
  5
1A
102
{ACAD_REACTORS
330
19
102
}
330
19
100
AcDbDictionary
281
     1
  0
DICTIONARY
  5
3E6
102
{ACAD_REACTORS
330
19
102
}
330
19
100
AcDbDictionary
281
     1
  3
Layout1
350
3E9
  3
Model
350
3E8
  0
DICTIONARY
  5
3E4
102
{ACAD_REACTORS
330
19
102
}
330
19
100
AcDbDictionary
281
     1
  0
DICTIONARY
  5
1B
102
{ACAD_REACTORS
330
19
102
}
330
19
100
AcDbDictionary
281
     1
  3
STANDARD
350
1C
  0
DICTIONARY
  5
3E7
102
{ACAD_REACTORS
330
19
102
}
330
19
100
AcDbDictionary
281
     1
  0
ACDBDICTIONARYWDFLT
  5
3E2
102
{ACAD_REACTORS
330
19
102
}
330
19
100
AcDbDictionary
281
     1
  3
Normal
350
3E3
100
AcDbDictionaryWithDefault
340
3E3
  0
DICTIONARY
  5
3FF
102
{ACAD_REACTORS
330
19
102
}
330
19
100
AcDbDictionary
281
     1
  3
COLORDICT
350
401
  3
MATERIALDICT
350
400
  0
DICTIONARY
  5
3F8
102
{ACAD_REACTORS
330
19
102
}
330
19
100
AcDbDictionary
281
     1
  3
DIMASSOC
350
3F9
  3
PROJECTNAME
350
3FA
  0
DICTIONARY
  5
3ED
102
{ACAD_REACTORS
330
19
102
}
330
19
100
AcDbDictionary
281
     1
  3
ASEBlockHierarchyIndexRecord
350
3EF
1001
DCO15
1040
1552229534.578
  0
LAYOUT
  5
3E9
102
{ACAD_XDICTIONARY
360
404
102
}
102
{ACAD_REACTORS
330
3E6
102
}
330
3E6
100
AcDbPlotSettings
  1

  2
ProgeSOFT PDF Wizard
  4

  6

 40
0.0
 41
0.0
 42
0.0
 43
0.0
 44
0.0
 45
0.0
 46
0.0
 47
0.0
 48
0.0
 49
0.0
140
0.0
141
0.0
142
1.0
143
1.0
 70
   688
 72
     0
 73
     0
 74
     5
  7

 75
    16
147
1.0
148
0.0
149
0.0
100
AcDbLayout
  1
Layout1
 70
     1
 71
     1
 10
0.0
 20
0.0
 11
12.0
 21
9.0
 12
0.0
 22
0.0
 32
0.0
 14
1.000000000000000E+20
 24
1.000000000000000E+20
 34
1.000000000000000E+20
 15
-1.000000000000000E+20
 25
-1.000000000000000E+20
 35
-1.000000000000000E+20
146
0.0
 13
0.0
 23
0.0
 33
0.0
 16
1.0
 26
0.0
 36
0.0
 17
0.0
 27
1.0
 37
0.0
 76
     0
330
B
  0
LAYOUT
  5
3E8
102
{ACAD_XDICTIONARY
360
402
102
}
102
{ACAD_REACTORS
330
3E6
102
}
330
3E6
100
AcDbPlotSettings
  1

  2
ProgeSOFT PDF Wizard
  4

  6

 40
0.0
 41
0.0
 42
0.0
 43
0.0
 44
0.0
 45
0.0
 46
0.0
 47
0.0
 48
0.0
 49
0.0
140
0.0
141
0.0
142
1.0
143
1.0
 70
  1712
 72
     0
 73
     0
 74
     0
  7

 75
     0
147
1.0
148
0.0
149
0.0
100
AcDbLayout
  1
Model
 70
     1
 71
     0
 10
0.0
 20
0.0
 11
12.0
 21
9.0
 12
0.0
 22
0.0
 32
0.0
 14
0.0
 24
0.0
 34
0.0
 15
0.0
 25
0.0
 35
0.0
146
0.0
 13
0.0
 23
0.0
 33
0.0
 16
1.0
 26
0.0
 36
0.0
 17
0.0
 27
1.0
 37
0.0
 76
     0
330
A
  0
MLINESTYLE
  5
1C
102
{ACAD_REACTORS
330
1B
102
}
330
1B
100
AcDbMlineStyle
  2
STANDARD
 70
     0
  3

 62
     0
 51
90.0
 52
90.0
 71
     2
 49
0.5
 62
   256
  6
BYLAYER
 49
-0.5
 62
   256
  6
BYLAYER
  0
ACDBPLACEHOLDER
  5
3E3
102
{ACAD_REACTORS
330
3E2
102
}
330
3E2
  0
XRECORD
  5
401
102
{ACAD_REACTORS
330
3FF
102
}
330
3FF
100
AcDbXrecord
280
     1
340
3E5
  0
XRECORD
  5
400
102
{ACAD_REACTORS
330
3FF
102
}
330
3FF
100
AcDbXrecord
280
     1
340
3E4
  0
DICTIONARYVAR
  5
3F9
102
{ACAD_REACTORS
330
3F8
102
}
330
3F8
100
DictionaryVariables
280
     0
  1
1
  0
DICTIONARYVAR
  5
3FA
102
{ACAD_REACTORS
330
3F8
102
}
330
3F8
100
DictionaryVariables
280
     0
  1

  0
XRECORD
  5
3EF
102
{ACAD_REACTORS
330
3ED
102
}
330
3ED
100
AcDbXrecord
280
     1
  0
DICTIONARY
  5
404
330
3E9
100
AcDbDictionary
280
     1
281
     1
  3
ACAD_XREC_ROUNDTRIP
360
405
  0
DICTIONARY
  5
402
330
3E8
100
AcDbDictionary
280
     1
281
     1
  3
ACAD_XREC_ROUNDTRIP
360
403
  0
XRECORD
  5
405
102
{ACAD_REACTORS
330
404
102
}
330
404
100
AcDbXrecord
280
     1
102
SHADEPLOT
 70
     0
102
SHADEPLOTRESLEVEL
 70
     2
102
SHADEPLOTCUSTOMDPI
 70
   300
  0
XRECORD
  5
403
102
{ACAD_REACTORS
330
402
102
}
330
402
100
AcDbXrecord
280
     1
102
SHADEPLOT
 70
     0
102
SHADEPLOTRESLEVEL
 70
     2
102
SHADEPLOTCUSTOMDPI
 70
   300
  0
ENDSEC
  0
EOF
