  0
SECTION
  2
HEADER
  9
$ACADVER
  1
AC1015
  9
$ACADMAINTVER
 70
    20
  9
$DWGCODEPAGE
  3
ANSI_1252
  9
$INSBASE
 10
0.0
 20
0.0
 30
0.0
  9
$EXTMIN
 10
-351.2680834843212
 20
-220.8240809878728
 30
0.0
  9
$EXTMAX
 10
205.9918774792424
 20
271.2783505279308
 30
0.0
  9
$LIMMIN
 10
0.0
 20
0.0
  9
$LIMMAX
 10
0.0
 20
0.0
  9
$ORTHOMODE
 70
     0
  9
$REGENMODE
 70
     1
  9
$FILLMODE
 70
     1
  9
$QTEXTMODE
 70
     0
  9
$MIRRTEXT
 70
     1
  9
$LTSCALE
 40
1.0
  9
$ATTMODE
 70
     1
  9
$TEXTSIZE
 40
0.0
  9
$TRACEWID
 40
0.05
  9
$TEXTSTYLE
  7
STANDARD
  9
$CLAYER
  8
0
  9
$CELTYPE
  6
CONTINUOUS
  9
$CECOLOR
 62
   256
  9
$CELTSCALE
 40
1.0
  9
$DISPSILH
 70
     0
  9
$DIMSCALE
 40
1.0
  9
$DIMASZ
 40
6.0
  9
$DIMEXO
 40
1.0
  9
$DIMDLI
 40
0.38
  9
$DIMRND
 40
0.0
  9
$DIMDLE
 40
1.0
  9
$DIMEXE
 40
0.18
  9
$DIMTP
 40
0.0
  9
$DIMTM
 40
0.0
  9
$DIMTXT
 40
3.5
  9
$DIMCEN
 40
0.09
  9
$DIMTSZ
 40
0.0
  9
$DIMTOL
 70
     0
  9
$DIMLIM
 70
     0
  9
$DIMTIH
 70
     1
  9
$DIMTOH
 70
     1
  9
$DIMSE1
 70
     0
  9
$DIMSE2
 70
     0
  9
$DIMTAD
 70
     1
  9
$DIMZIN
 70
     0
  9
$DIMBLK
  1

  9
$DIMASO
 70
     1
  9
$DIMSHO
 70
     1
  9
$DIMPOST
  1

  9
$DIMAPOST
  1

  9
$DIMALT
 70
     0
  9
$DIMALTD
 70
     2
  9
$DIMALTF
 40
0.0394
  9
$DIMLFAC
 40
5.0
  9
$DIMTOFL
 70
     0
  9
$DIMTVP
 40
0.0
  9
$DIMTIX
 70
     0
  9
$DIMSOXD
 70
     0
  9
$DIMSAH
 70
     0
  9
$DIMBLK1
  1

  9
$DIMBLK2
  1

  9
$DIMSTYLE
  2
STANDARD
  9
$DIMCLRD
 70
     0
  9
$DIMCLRE
 70
     0
  9
$DIMCLRT
 70
     0
  9
$DIMTFAC
 40
1.0
  9
$DIMGAP
 40
1.0
  9
$DIMJUST
 70
     0
  9
$DIMSD1
 70
     0
  9
$DIMSD2
 70
     0
  9
$DIMTOLJ
 70
     1
  9
$DIMTZIN
 70
     0
  9
$DIMALTZ
 70
     0
  9
$DIMALTTZ
 70
     0
  9
$DIMUPT
 70
     0
  9
$DIMDEC
 70
     4
  9
$DIMTDEC
 70
     4
  9
$DIMALTU
 70
     2
  9
$DIMALTTD
 70
     2
  9
$DIMTXSTY
  7
STANDARD
  9
$DIMAUNIT
 70
     0
  9
$DIMADEC
 70
     0
  9
$DIMALTRND
 40
0.0
  9
$DIMAZIN
 70
     0
  9
$DIMDSEP
 70
    46
  9
$DIMATFIT
 70
     3
  9
$DIMFRAC
 70
     0
  9
$DIMLDRBLK
  1

  9
$DIMLUNIT
 70
     2
  9
$DIMLWD
 70
    -2
  9
$DIMLWE
 70
    -2
  9
$DIMTMOVE
 70
     0
  9
$LUNITS
 70
     2
  9
$LUPREC
 70
     2
  9
$SKETCHINC
 40
0.1
  9
$FILLETRAD
 40
0.0
  9
$AUNITS
 70
     0
  9
$AUPREC
 70
     2
  9
$MENU
  1
acad
  9
$ELEVATION
 40
0.0
  9
$PELEVATION
 40
0.0
  9
$THICKNESS
 40
0.0
  9
$LIMCHECK
 70
     0
  9
$CHAMFERA
 40
0.0
  9
$CHAMFERB
 40
0.0
  9
$CHAMFERC
 40
0.0
  9
$CHAMFERD
 40
0.0
  9
$SKPOLY
 70
     0
  9
$TDCREATE
 40
2444972.041666667
  9
$TDUCREATE
 40
2444972.000000000
  9
$TDUPDATE
 40
2453768.830071968
  9
$TDUUPDATE
 40
2453768.788405301
  9
$TDINDWG
 40
0.0043977894
  9
$TDUSRTIMER
 40
0.0043977894
  9
$USRTIMER
 70
     1
  9
$ANGBASE
 50
0.0
  9
$ANGDIR
 70
     0
  9
$PDMODE
 70
     0
  9
$PDSIZE
 40
-1.0
  9
$PLINEWID
 40
0.0
  9
$SPLFRAME
 70
     0
  9
$SPLINETYPE
 70
     6
  9
$SPLINESEGS
 70
     8
  9
$HANDSEED
  5
5F1
  9
$SURFTAB1
 70
     6
  9
$SURFTAB2
 70
     6
  9
$SURFTYPE
 70
     6
  9
$SURFU
 70
     6
  9
$SURFV
 70
     6
  9
$UCSBASE
  2

  9
$UCSNAME
  2

  9
$UCSORG
 10
0.0
 20
0.0
 30
0.0
  9
$UCSXDIR
 10
1.0
 20
0.0
 30
0.0
  9
$UCSYDIR
 10
0.0
 20
1.0
 30
0.0
  9
$UCSORTHOREF
  2

  9
$UCSORTHOVIEW
 70
     1
  9
$UCSORGTOP
 10
0.0
 20
0.0
 30
0.0
  9
$UCSORGBOTTOM
 10
0.0
 20
0.0
 30
0.0
  9
$UCSORGLEFT
 10
0.0
 20
0.0
 30
0.0
  9
$UCSORGRIGHT
 10
0.0
 20
0.0
 30
0.0
  9
$UCSORGFRONT
 10
0.0
 20
0.0
 30
0.0
  9
$UCSORGBACK
 10
0.0
 20
0.0
 30
0.0
  9
$PUCSBASE
  2

  9
$PUCSNAME
  2

  9
$PUCSORG
 10
0.0
 20
0.0
 30
0.0
  9
$PUCSXDIR
 10
1.0
 20
0.0
 30
0.0
  9
$PUCSYDIR
 10
0.0
 20
1.0
 30
0.0
  9
$PUCSORTHOREF
  2

  9
$PUCSORTHOVIEW
 70
     0
  9
$PUCSORGTOP
 10
0.0
 20
0.0
 30
0.0
  9
$PUCSORGBOTTOM
 10
0.0
 20
0.0
 30
0.0
  9
$PUCSORGLEFT
 10
0.0
 20
0.0
 30
0.0
  9
$PUCSORGRIGHT
 10
0.0
 20
0.0
 30
0.0
  9
$PUCSORGFRONT
 10
0.0
 20
0.0
 30
0.0
  9
$PUCSORGBACK
 10
0.0
 20
0.0
 30
0.0
  9
$USERI1
 70
     0
  9
$USERI2
 70
     0
  9
$USERI3
 70
     0
  9
$USERI4
 70
     0
  9
$USERI5
 70
     0
  9
$USERR1
 40
0.0
  9
$USERR2
 40
0.0
  9
$USERR3
 40
0.0
  9
$USERR4
 40
0.0
  9
$USERR5
 40
0.0
  9
$WORLDVIEW
 70
     1
  9
$SHADEDGE
 70
     3
  9
$SHADEDIF
 70
    70
  9
$TILEMODE
 70
     1
  9
$MAXACTVP
 70
    16
  9
$PINSBASE
 10
0.0
 20
0.0
 30
0.0
  9
$PLIMCHECK
 70
     0
  9
$PEXTMIN
 10
1.000000000000000E+20
 20
1.000000000000000E+20
 30
1.000000000000000E+20
  9
$PEXTMAX
 10
-1.000000000000000E+20
 20
-1.000000000000000E+20
 30
-1.000000000000000E+20
  9
$PLIMMIN
 10
0.0
 20
0.0
  9
$PLIMMAX
 10
12.0
 20
9.0
  9
$UNITMODE
 70
     0
  9
$VISRETAIN
 70
     0
  9
$PLINEGEN
 70
     1
  9
$PSLTSCALE
 70
     1
  9
$TREEDEPTH
 70
  3020
  9
$CMLSTYLE
  2
STANDARD
  9
$CMLJUST
 70
     0
  9
$CMLSCALE
 40
1.0
  9
$PROXYGRAPHICS
 70
     0
  9
$MEASUREMENT
 70
     0
  9
$CELWEIGHT
370
    -1
  9
$ENDCAPS
280
     0
  9
$JOINSTYLE
280
     0
  9
$LWDISPLAY
290
     0
  9
$INSUNITS
 70
     0
  9
$HYPERLINKBASE
  1

  9
$STYLESHEET
  1

  9
$XEDIT
290
     1
  9
$CEPSNTYPE
380
     0
  9
$PSTYLEMODE
290
     1
  9
$FINGERPRINTGUID
  2
{D44A4318-28B3-45C7-846B-554DC04C4714}
  9
$VERSIONGUID
  2
{8F8641A4-AFE6-402E-8F75-B7985CA2ED47}
  9
$EXTNAMES
290
     1
  9
$PSVPSCALE
 40
0.0
  9
$OLESTARTUP
290
     0
  0
ENDSEC
  0
SECTION
  2
CLASSES
  0
CLASS
  1
IMAGE
  2
AcDbRasterImage
  3
ISM
 90
    32895
280
     0
281
     1
  0
CLASS
  1
DICTIONARYVAR
  2
AcDbDictionaryVar
  3
ObjectDBX Classes
 90
        0
280
     0
281
     0
  0
CLASS
  1
RASTERVARIABLES
  2
AcDbRasterVariables
  3
ISM
 90
    32768
280
     0
281
     0
  0
CLASS
  1
IMAGEDEF
  2
AcDbRasterImageDef
  3
ISM
 90
    32768
280
     0
281
     0
  0
CLASS
  1
IMAGEDEF_REACTOR
  2
AcDbRasterImageDefReactor
  3
ISM
 90
    32769
280
     0
281
     0
  0
CLASS
  1
IDBUFFER
  2
AcDbIdBuffer
  3
ObjectDBX Classes
 90
    32768
280
     0
281
     0
  0
CLASS
  1
SPATIAL_FILTER
  2
AcDbSpatialFilter
  3
ObjectDBX Classes
 90
    32768
280
     0
281
     0
  0
CLASS
  1
SORTENTSTABLE
  2
AcDbSortentsTable
  3
ObjectDBX Classes
 90
    32768
280
     0
281
     0
  0
CLASS
  1
LAYER_INDEX
  2
AcDbLayerIndex
  3
ObjectDBX Classes
 90
    32768
280
     0
281
     0
  0
CLASS
  1
SPATIAL_INDEX
  2
AcDbSpatialIndex
  3
ObjectDBX Classes
 90
    32768
280
     0
281
     0
  0
CLASS
  1
OBJECT_PTR
  2
CAseDLPNTableRecord
  3
ASE-LPNTableRecord
 90
    32769
280
     0
281
     0
  0
CLASS
  1
LAYOUT
  2
AcDbLayout
  3
ObjectDBX Classes
 90
        0
280
     0
281
     0
  0
CLASS
  1
PLOTSETTINGS
  2
AcDbPlotSettings
  3
ObjectDBX Classes
 90
    32768
280
     0
281
     0
  0
CLASS
  1
ACDBDICTIONARYWDFLT
  2
AcDbDictionaryWithDefault
  3
ObjectDBX Classes
 90
        0
280
     0
281
     0
  0
CLASS
  1
ACDBPLACEHOLDER
  2
AcDbPlaceHolder
  3
ObjectDBX Classes
 90
        0
280
     0
281
     0
  0
CLASS
  1
VBA_PROJECT
  2
AcDbVbaProject
  3
acad
 90
    32768
280
     0
281
     0
  0
CLASS
  1
WIPEOUT
  2
AcDbWipeout
  3
"WipeOut|Product Desc: Object Enabler for WipeOut entity^I^I^I^I^I^I|Company: Autodesk, Inc.^I^I^I^I^I^I|WEB Address: www.autodesk.com"
 90
    32895
280
     0
281
     1
  0
CLASS
  1
WIPEOUTVARIABLES
  2
AcDbWipeoutVariables
  3
"WipeOut|Product Desc:     WipeOut Dbx Application|Company:          Autodesk, Inc.|WEB Address:      www.autodesk.com"
 90
    32768
280
     0
281
     0
  0
CLASS
  1
RTEXT
  2
RText
  3
RText|AutoCAD Express Tool|expresstools@autodesk.com
 90
    32768
280
     0
281
     1
  0
CLASS
  1
ARCALIGNEDTEXT
  2
AcDbArcAlignedText
  3
ATEXT|AutoCAD Express Tool|expresstools@autodesk.com
 90
    32768
280
     0
281
     1
  0
ENDSEC
  0
SECTION
  2
TABLES
  0
TABLE
  2
VPORT
  5
7
330
0
100
AcDbSymbolTable
 70
     2
  0
VPORT
  5
5E9
330
7
100
AcDbSymbolTableRecord
100
AcDbViewportTableRecord
  2
*Active
 70
     0
 10
0.0
 20
0.0
 11
1.0
 21
1.0
 12
-46.45614609036158
 22
25.20142486172958
 13
0.0
 23
0.0
 14
1.0
 24
1.0
 15
0.0
 25
0.0
 16
0.0
 26
0.0
 36
1.0
 17
0.0
 27
0.0
 37
0.0
 40
496.3322638584104
 41
1.569570871261378
 42
50.0
 43
0.0
 44
0.0
 50
0.0
 51
0.0
 71
     0
 72
  2000
 73
     1
 74
     1
 75
     0
 76
     0
 77
     0
 78
     0
281
     0
 65
     1
110
0.0
120
0.0
130
0.0
111
1.0
121
0.0
131
0.0
112
0.0
122
1.0
132
0.0
 79
     1
146
0.0
  0
ENDTAB
  0
TABLE
  2
LTYPE
  5
4
330
0
100
AcDbSymbolTable
 70
     6
  0
LTYPE
  5
11
330
4
100
AcDbSymbolTableRecord
100
AcDbLinetypeTableRecord
  2
BYBLOCK
 70
     0
  3

 72
    65
 73
     0
 40
0.0
  0
LTYPE
  5
12
330
4
100
AcDbSymbolTableRecord
100
AcDbLinetypeTableRecord
  2
BYLAYER
 70
     0
  3

 72
    65
 73
     0
 40
0.0
  0
LTYPE
  5
13
330
4
100
AcDbSymbolTableRecord
100
AcDbLinetypeTableRecord
  2
CONTINUOUS
 70
     0
  3
Solid line
 72
    65
 73
     0
 40
0.0
  0
LTYPE
  5
1E
330
4
100
AcDbSymbolTableRecord
100
AcDbLinetypeTableRecord
  2
HIDDEN
 70
     0
  3
Hidden __ __ __ __ __ __ __ __ __ __ __ __ __ __
 72
    65
 73
     2
 40
1.905
 49
1.27
 74
     0
 49
-0.635
 74
     0
  0
LTYPE
  5
1F
330
4
100
AcDbSymbolTableRecord
100
AcDbLinetypeTableRecord
  2
PHANTOM
 70
     0
  3
Phantom ______  __  __  ______  __  __  ______
 72
    65
 73
     6
 40
12.7
 49
6.349999999999999
 74
     0
 49
-1.27
 74
     0
 49
1.27
 74
     0
 49
-1.27
 74
     0
 49
1.27
 74
     0
 49
-1.27
 74
     0
  0
LTYPE
  5
20
330
4
100
AcDbSymbolTableRecord
100
AcDbLinetypeTableRecord
  2
CENTER
 70
     0
  3
Center ____ _ ____ _ ____ _ ____ _ ____ _ ____
 72
    65
 73
     4
 40
10.16
 49
6.349999999999999
 74
     0
 49
-1.27
 74
     0
 49
1.27
 74
     0
 49
-1.27
 74
     0
  0
LTYPE
  5
21
330
4
100
AcDbSymbolTableRecord
100
AcDbLinetypeTableRecord
  2
CENTERX2
 70
     0
  3
Center (2x) ________  __  ________  __  _____
 72
    65
 73
     4
 40
20.32
 49
12.7
 74
     0
 49
-2.54
 74
     0
 49
2.54
 74
     0
 49
-2.54
 74
     0
  0
LTYPE
  5
22
330
4
100
AcDbSymbolTableRecord
100
AcDbLinetypeTableRecord
  2
DOT2
 70
     0
  3
Dot (.5x) ........................................
 72
    65
 73
     2
 40
0.635
 49
0.0
 74
     0
 49
-0.635
 74
     0
  0
ENDTAB
  0
TABLE
  2
LAYER
  5
2
330
0
100
AcDbSymbolTable
 70
     2
  0
LAYER
  5
14
330
2
100
AcDbSymbolTableRecord
100
AcDbLayerTableRecord
  2
0
 70
     0
 62
     7
  6
CONTINUOUS
370
    -3
390
5C3
  0
LAYER
  5
26
330
2
100
AcDbSymbolTableRecord
100
AcDbLayerTableRecord
  2
DEFPOINTS
 70
     0
 62
     7
  6
CONTINUOUS
290
     0
370
    -3
390
5C3
  0
ENDTAB
  0
TABLE
  2
STYLE
  5
3
330
0
100
AcDbSymbolTable
 70
     1
  0
STYLE
  5
17
330
3
100
AcDbSymbolTableRecord
100
AcDbTextStyleTableRecord
  2
STANDARD
 70
     0
 40
0.0
 41
1.0
 50
0.0
 71
     0
 42
0.0
  3
Century Gothic
  4

  0
ENDTAB
  0
TABLE
  2
VIEW
  5
5
330
0
100
AcDbSymbolTable
 70
     0
  0
ENDTAB
  0
TABLE
  2
UCS
  5
6
330
0
100
AcDbSymbolTable
 70
     0
  0
ENDTAB
  0
TABLE
  2
APPID
  5
8
330
0
100
AcDbSymbolTable
 70
     2
  0
APPID
  5
16
330
8
100
AcDbSymbolTableRecord
100
AcDbRegAppTableRecord
  2
ACAD
 70
     0
  0
APPID
  5
5CE
330
8
100
AcDbSymbolTableRecord
100
AcDbRegAppTableRecord
  2
DCO15
 70
     0
  0
ENDTAB
  0
TABLE
  2
DIMSTYLE
  5
9
330
0
100
AcDbSymbolTable
 70
     1
100
AcDbDimStyleTable
 71
     0
  0
DIMSTYLE
105
18
330
9
100
AcDbSymbolTableRecord
100
AcDbDimStyleTableRecord
  2
STANDARD
 70
     0
289
     0
340
17
  0
ENDTAB
  0
TABLE
  2
BLOCK_RECORD
  5
1
330
0
100
AcDbSymbolTable
 70
     0
  0
BLOCK_RECORD
  5
A
330
1
100
AcDbSymbolTableRecord
100
AcDbBlockTableRecord
  2
*MODEL_SPACE
340
5C8
  0
BLOCK_RECORD
  5
B
330
1
100
AcDbSymbolTableRecord
100
AcDbBlockTableRecord
  2
*PAPER_SPACE
340
5C9
  0
ENDTAB
  0
ENDSEC
  0
SECTION
  2
BLOCKS
  0
BLOCK
  5
D
330
A
100
AcDbEntity
  8
0
100
AcDbBlockBegin
  2
*MODEL_SPACE
 70
     0
 10
0.0
 20
0.0
 30
0.0
  3
*MODEL_SPACE
  1

  0
ENDBLK
  5
E
330
A
100
AcDbEntity
  8
0
100
AcDbBlockEnd
  0
BLOCK
  5
F
330
B
100
AcDbEntity
 67
     1
  8
0
100
AcDbBlockBegin
  2
*PAPER_SPACE
 70
     0
 10
0.0
 20
0.0
 30
0.0
  3
*PAPER_SPACE
  1

  0
ENDBLK
  5
10
330
B
100
AcDbEntity
 67
     1
  8
0
100
AcDbBlockEnd
  0
ENDSEC
  0
SECTION
  2
ENTITIES
  0
ARC
  5
27
330
A
100
AcDbEntity
  8
0
  6
Continuous
 62
     7
100
AcDbCircle
 10
-55.98065317665327
 20
77.62306928866796
 30
0.0
 40
8.500000000000014
100
AcDbArc
 50
270.0000000000005
 51
0.0
  0
ARC
  5
28
330
A
100
AcDbEntity
  8
0
  6
Continuous
 62
     7
100
AcDbCircle
 10
-55.98065317665327
 20
175.623069288668
 30
0.0
 40
8.500000000000014
100
AcDbArc
 50
360.0000000000008
 51
90.00000000000033
  0
LINE
  5
29
330
A
100
AcDbEntity
  8
0
  6
Continuous
 62
     7
100
AcDbLine
 10
-62.48065317665324
 20
69.1230692886679
 30
0.0
 11
-55.98065317665332
 21
69.12306928866797
 31
0.0
  0
LINE
  5
2A
330
A
100
AcDbEntity
  8
0
  6
Continuous
 62
     7
100
AcDbLine
 10
-55.98065317665332
 20
184.123069288668
 30
0.0
 11
-62.48065317665324
 21
184.123069288668
 31
0.0
  0
LINE
  5
2B
330
A
100
AcDbEntity
  8
0
  6
Continuous
 62
     7
100
AcDbLine
 10
-65.48065317665325
 20
71.62306928866797
 30
0.0
 11
-62.48065317665324
 21
71.62306928866797
 31
0.0
  0
LINE
  5
2C
330
A
100
AcDbEntity
  8
0
  6
Continuous
 62
     7
100
AcDbLine
 10
-62.48065317665324
 20
181.623069288668
 30
0.0
 11
-65.48065317665325
 21
181.623069288668
 31
0.0
  0
LINE
  5
2D
330
A
100
AcDbEntity
  8
0
  6
Continuous
 62
     7
100
AcDbLine
 10
29.51934682334677
 20
78.12306928866796
 30
0.0
 11
29.51934682334677
 21
63.62306928866798
 31
0.0
  0
LINE
  5
2E
330
A
100
AcDbEntity
  8
0
  6
Continuous
 62
     7
100
AcDbLine
 10
29.51934682334678
 20
106.623069288668
 30
0.0
 11
29.51934682334675
 21
105.2275341329339
 31
0.0
  0
LINE
  5
2F
330
A
100
AcDbEntity
  8
0
  6
Continuous
 62
     7
100
AcDbLine
 10
51.51934682334676
 20
63.62306928866798
 30
0.0
 11
51.51934682334674
 21
106.623069288668
 31
0.0
  0
ARC
  5
30
330
A
100
AcDbEntity
  8
0
  6
Continuous
 62
     7
100
AcDbCircle
 10
40.51934682334677
 20
63.62306928866798
 30
0.0
 40
11.0
100
AcDbArc
 50
180.0000000000004
 51
0.0
  0
LINE
  5
31
330
A
100
AcDbEntity
  8
0
  6
Continuous
 62
     7
100
AcDbLine
 10
45.01934682334673
 20
106.623069288668
 30
0.0
 11
45.01934682334673
 21
129.123069288668
 31
0.0
  0
LINE
  5
32
330
A
100
AcDbEntity
  8
0
  6
Continuous
 62
     7
100
AcDbLine
 10
36.01934682334679
 20
129.123069288668
 30
0.0
 11
36.01934682334679
 21
106.623069288668
 31
0.0
  0
ARC
  5
33
330
A
100
AcDbEntity
  8
0
  6
Continuous
 62
     7
100
AcDbCircle
 10
71.64581818918797
 20
150.5113370556838
 30
0.0
 40
2.499999999999835
100
AcDbArc
 50
114.4999999999978
 51
294.4999999999982
  0
ARC
  5
34
330
A
100
AcDbEntity
  8
0
  6
Continuous
 62
     7
100
AcDbCircle
 10
202.6802411954105
 20
210.2271639981822
 30
0.0
 40
2.499999999999882
100
AcDbArc
 50
294.5000000000031
 51
114.5000000000001
  0
LINE
  5
35
330
A
100
AcDbEntity
  8
0
  6
Continuous
 62
     7
100
AcDbLine
 10
72.68255129582851
 20
239.998580985662
 30
0.0
 11
72.68255129582832
 21
153.731173226227
 31
0.0
  0
LINE
  5
36
330
A
100
AcDbEntity
  8
0
  6
Continuous
 62
     7
100
AcDbLine
 10
200.6204752801691
 20
212.0358442642228
 30
0.0
 11
133.4246452653243
 21
271.0404965932809
 31
0.0
  0
LINE
  5
37
330
A
100
AcDbEntity
  8
0
  6
Continuous
 62
     7
100
AcDbLine
 10
71.48907053702486
 20
181.8730692886679
 30
0.0
 11
71.63211789114837
 21
153.2524631440258
 31
0.0
  0
LINE
  5
38
330
A
100
AcDbEntity
  8
0
  6
Continuous
 62
     7
100
AcDbLine
 10
71.18517249244487
 20
242.6763347201745
 30
0.0
 11
71.22502806490787
 21
234.7414413169388
 31
0.0
  0
ARC
  5
39
330
A
100
AcDbEntity
  8
0
  6
Continuous
 62
     7
100
AcDbCircle
 10
71.93516312491438
 20
242.6800832143558
 30
0.0
 40
0.7500000000003093
100
AcDbArc
 50
114.5000000000117
 51
180.2863650537249
  0
ARC
  5
3A
330
A
100
AcDbEntity
  8
0
  6
Continuous
 62
     7
100
AcDbCircle
 10
132.929778114765
 20
270.4769307113318
 30
0.0
 40
0.7500000000001767
100
AcDbArc
 50
48.7136349462942
 51
114.4999999999985
  0
LINE
  5
3B
330
A
100
AcDbEntity
  8
0
  6
Continuous
 62
     7
100
AcDbLine
 10
132.6187581827727
 20
271.1594016644894
 30
0.0
 11
71.62414319292193
 21
243.3625541675133
 31
0.0
  0
ARC
  5
3C
330
A
100
AcDbEntity
  8
0
  6
Continuous
 62
     7
100
AcDbCircle
 10
70.51488579128411
 20
234.3730692886678
 30
0.0
 40
0.8000000000000133
100
AcDbArc
 50
27.41711945386662
 51
180.0000000000004
  0
ARC
  5
3D
330
A
100
AcDbEntity
  8
0
  6
Continuous
 62
     7
100
AcDbCircle
 10
70.51488579128411
 20
181.8730692886679
 30
0.0
 40
0.8000000000000255
100
AcDbArc
 50
180.0000000000004
 51
0.0
  0
LINE
  5
3E
330
A
100
AcDbEntity
  8
0
  6
Continuous
 62
     7
100
AcDbLine
 10
69.7148857912841
 20
234.3730692886679
 30
0.0
 11
69.7148857912841
 21
181.8730692886679
 31
0.0
  0
LINE
  5
3F
330
A
100
AcDbEntity
  8
0
  6
Continuous
 62
     7
100
AcDbLine
 10
50.51488579128404
 20
232.0730692886679
 30
0.0
 11
30.51488579128403
 21
232.0730692886679
 31
0.0
  0
LINE
  5
40
330
A
100
AcDbEntity
  8
0
  6
Continuous
 62
     7
100
AcDbLine
 10
30.51488579128403
 20
184.1730692886678
 30
0.0
 11
36.01488579128437
 21
184.1730692886678
 31
0.0
  0
LINE
  5
41
330
A
100
AcDbEntity
  8
0
  6
Continuous
 62
     7
100
AcDbLine
 10
45.01488579128426
 20
184.1730692886678
 30
0.0
 11
50.51488579128404
 21
184.1730692886678
 31
0.0
  0
ARC
  5
42
330
A
100
AcDbEntity
  8
0
  6
Continuous
 62
     7
100
AcDbCircle
 10
-1.485114208715943
 20
219.3730692886678
 30
0.0
 40
10.00000000000014
100
AcDbArc
 50
89.99999999999969
 51
180.0000000000004
  0
ARC
  5
43
330
A
100
AcDbEntity
  8
0
  6
Continuous
 62
     7
100
AcDbCircle
 10
-1.485114208715943
 20
196.8730692886679
 30
0.0
 40
10.00000000000003
100
AcDbArc
 50
180.0000000000004
 51
270.0000000000011
  0
LINE
  5
44
330
A
100
AcDbEntity
  8
0
  6
Continuous
 62
     7
100
AcDbLine
 10
30.51488579128403
 20
229.3730692886679
 30
0.0
 11
-1.485114208715887
 21
229.3730692886679
 31
0.0
  0
LINE
  5
45
330
A
100
AcDbEntity
  8
0
  6
Continuous
 62
     7
100
AcDbLine
 10
-1.485114208715887
 20
186.8730692886679
 30
0.0
 11
30.51488579128403
 21
186.8730692886679
 31
0.0
  0
LINE
  5
46
330
A
100
AcDbEntity
  8
0
  6
Continuous
 62
     7
100
AcDbLine
 10
69.7148857912842
 20
229.3730692886679
 30
0.0
 11
50.51488579128404
 21
229.3730692886679
 31
0.0
  0
LINE
  5
47
330
A
100
AcDbEntity
  8
0
  6
Continuous
 62
     7
100
AcDbLine
 10
50.51488579128404
 20
186.8730692886679
 30
0.0
 11
69.7148857912842
 21
186.8730692886679
 31
0.0
  0
LINE
  5
48
330
A
100
AcDbEntity
  8
0
  6
Continuous
 62
     7
100
AcDbLine
 10
74.0480467139914
 20
148.8587258999252
 30
0.0
 11
104.383394944237
 21
82.29241270515162
 31
0.0
  0
LINE
  5
49
330
A
100
AcDbEntity
  8
0
  6
Continuous
 62
     7
100
AcDbLine
 10
106.2033174859903
 20
83.12179919046412
 30
0.0
 11
75.86741574389648
 21
149.6878602277901
 31
0.0
  0
LINE
  5
4A
330
A
100
AcDbEntity
  8
0
  6
Continuous
 62
     7
100
AcDbLine
 10
-11.485114208716
 20
214.3730692886679
 30
0.0
 11
-20.48511420871591
 21
214.3730692886679
 31
0.0
  0
LINE
  5
4B
330
A
100
AcDbEntity
  8
0
  6
Continuous
 62
     7
100
AcDbLine
 10
-20.48511420871591
 20
201.8730692886679
 30
0.0
 11
-11.485114208716
 21
201.8730692886679
 31
0.0
  0
ARC
  5
4C
330
A
100
AcDbEntity
  8
0
  6
Continuous
 62
     7
100
AcDbCircle
 10
107.0961807788783
 20
78.75116849220123
 30
0.0
 40
1.000000000000078
100
AcDbArc
 50
204.5000000000018
 51
24.49999999999901
  0
LINE
  5
4D
330
A
100
AcDbEntity
  8
0
  6
Continuous
 62
     7
100
AcDbLine
 10
104.383394944237
 20
82.29241270515156
 30
0.0
 11
106.1862195080017
 21
78.33647524954499
 31
0.0
  0
LINE
  5
4E
330
A
100
AcDbEntity
  8
0
  6
Continuous
 62
     7
100
AcDbLine
 10
108.0061420497549
 20
79.16586173485749
 30
0.0
 11
106.2033174859903
 21
83.12179919046412
 31
0.0
  0
LINE
  5
4F
330
A
100
AcDbEntity
  8
0
  6
Continuous
 62
     7
100
AcDbLine
 10
-47.48065317665325
 20
126.6230692886679
 30
0.0
 11
-47.48065317665325
 21
175.6230692886679
 31
0.0
  0
LINE
  5
50
330
A
100
AcDbEntity
  8
0
  6
Continuous
 62
     7
100
AcDbLine
 10
-47.48065317665325
 20
77.62306928866803
 30
0.0
 11
-47.48065317665325
 21
126.6230692886679
 31
0.0
  0
LINE
  5
51
330
A
100
AcDbEntity
  8
0
  6
Continuous
 62
     7
100
AcDbLine
 10
-62.48065317665324
 20
126.6230692886679
 30
0.0
 11
-62.48065317665324
 21
184.123069288668
 31
0.0
  0
LINE
  5
52
330
A
100
AcDbEntity
  8
0
  6
Continuous
 62
     7
100
AcDbLine
 10
-62.48065317665324
 20
69.1230692886679
 30
0.0
 11
-62.48065317665324
 21
126.6230692886679
 31
0.0
  0
LINE
  5
53
330
A
100
AcDbEntity
  8
0
  6
Continuous
 62
     7
100
AcDbLine
 10
-65.48065317665325
 20
126.6230692886679
 30
0.0
 11
-65.48065317665325
 21
181.623069288668
 31
0.0
  0
LINE
  5
54
330
A
100
AcDbEntity
  8
0
  6
Continuous
 62
     7
100
AcDbLine
 10
-65.48065317665325
 20
71.62306928866797
 30
0.0
 11
-65.48065317665325
 21
126.6230692886679
 31
0.0
  0
LINE
  5
55
330
A
100
AcDbEntity
  8
0
  6
Continuous
 62
     7
100
AcDbLine
 10
29.51934682334678
 20
106.623069288668
 30
0.0
 11
51.51934682334674
 21
106.623069288668
 31
0.0
  0
ARC
  5
56
330
A
100
AcDbEntity
  8
0
  6
Continuous
 62
     7
100
AcDbCircle
 10
-44.98065317665325
 20
129.123069288668
 30
0.0
 40
2.5
100
AcDbArc
 50
180.0000000000004
 51
270.0000000000008
  0
ARC
  5
57
330
A
100
AcDbEntity
  8
0
  6
Continuous
 62
     7
100
AcDbCircle
 10
-44.98065317665325
 20
78.12306928866796
 30
0.0
 40
2.5
100
AcDbArc
 50
90.0
 51
180.0000000000004
  0
ARC
  5
58
330
A
100
AcDbEntity
  8
0
  6
Continuous
 62
     7
100
AcDbCircle
 10
27.01934682334677
 20
78.12306928866796
 30
0.0
 40
2.500000000000003
100
AcDbArc
 50
0.0
 51
90.00000000000033
  0
LINE
  5
59
330
A
100
AcDbEntity
  8
0
  6
Continuous
 62
     7
100
AcDbLine
 10
-25.69257044878473
 20
125.9078361975205
 30
0.0
 11
25.73126409547825
 21
105.3383023798154
 31
0.0
  0
ARC
  5
5A
330
A
100
AcDbEntity
  8
0
  6
Continuous
 62
     7
100
AcDbCircle
 10
29.44517085901929
 20
114.623069288668
 30
0.0
 40
10.00000000000001
100
AcDbArc
 50
248.198590513649
 51
270.0000000000008
  0
LINE
  5
5B
330
A
100
AcDbEntity
  8
0
  6
Continuous
 62
     7
100
AcDbLine
 10
29.44517085901929
 20
104.623069288668
 30
0.0
 11
29.44517085901929
 21
101.8893988487173
 31
0.0
  0
ARC
  5
5C
330
A
100
AcDbEntity
  8
0
  6
Continuous
 62
     7
100
AcDbCircle
 10
-29.40647721232576
 20
116.623069288668
 30
0.0
 40
10.0
100
AcDbArc
 50
68.19859051364827
 51
90.0
  0
LINE
  5
5D
330
A
100
AcDbEntity
  8
0
  6
Continuous
 62
     7
100
AcDbLine
 10
-44.98065317665325
 20
80.62306928866796
 30
0.0
 11
27.01934682334675
 21
80.62306928866796
 31
0.0
  0
LINE
  5
5E
330
A
100
AcDbEntity
  8
0
  6
Continuous
 62
     7
100
AcDbLine
 10
-44.98065317665325
 20
126.6230692886679
 30
0.0
 11
-29.40647721232576
 21
126.6230692886679
 31
0.0
  0
ARC
  5
5F
330
A
100
AcDbEntity
  8
0
  6
Continuous
 62
     7
100
AcDbCircle
 10
27.01934682334677
 20
105.2275341329339
 30
0.0
 40
2.499999999999993
100
AcDbArc
 50
346.0080281477345
 51
0.0
  0
LINE
  5
60
330
A
100
AcDbEntity
  8
0
  6
Continuous
 62
     7
100
AcDbLine
 10
36.01934682334679
 20
129.123069288668
 30
0.0
 11
45.01934682334673
 21
129.123069288668
 31
0.0
  0
CIRCLE
  5
61
330
A
100
AcDbEntity
  8
0
  6
Continuous
 62
     7
100
AcDbCircle
 10
40.51488579128454
 20
208.1230692886676
 30
0.0
 40
7.499999999999943
  0
LINE
  5
62
330
A
100
AcDbEntity
  8
0
  6
Continuous
 62
     7
100
AcDbLine
 10
36.01488579128459
 20
162.1230692886677
 30
0.0
 11
36.01488579128459
 21
202.1230692886677
 31
0.0
  0
LINE
  5
63
330
A
100
AcDbEntity
  8
0
  6
Continuous
 62
     7
100
AcDbLine
 10
36.01488579128448
 20
129.123069288668
 30
0.0
 11
36.01488579128459
 21
162.1230692886677
 31
0.0
  0
LINE
  5
64
330
A
100
AcDbEntity
  8
0
  6
Continuous
 62
     7
100
AcDbLine
 10
45.01488579128448
 20
202.1230692886677
 30
0.0
 11
45.01488579128448
 21
162.1230692886677
 31
0.0
  0
LINE
  5
65
330
A
100
AcDbEntity
  8
0
  6
Continuous
 62
     7
100
AcDbLine
 10
45.01488579128437
 20
129.123069288668
 30
0.0
 11
45.01488579128448
 21
162.1230692886677
 31
0.0
  0
LWPOLYLINE
  5
66
330
A
100
AcDbEntity
  8
0
  6
Continuous
 62
     7
100
AcDbPolyline
 90
       11
 70
   128
 43
0.0
 10
36.01488579128448
 20
129.123069288668
 10
36.2658320335178
 20
129.1563518628097
 10
36.98917434899735
 20
129.2417578614412
 10
38.11106340010889
 20
129.3430698669426
 10
39.51049428408309
 20
129.4159018432938
 10
40.51488579128442
 20
129.4313272121129
 10
41.99654594241925
 20
129.3977684221601
 10
43.31105133503526
 20
129.3119653488725
 10
44.31900095142743
 20
129.2107419301898
 10
44.90134322004074
 20
129.1383605772925
 10
45.01488579128437
 20
129.123069288668
  0
LINE
  5
73
330
A
100
AcDbEntity
  8
0
  6
Continuous
 62
     7
100
AcDbLine
 10
45.01488579128437
 20
129.123069288668
 30
0.0
 11
36.01488579128448
 21
129.123069288668
 31
0.0
  0
LINE
  5
74
330
A
100
AcDbEntity
  8
0
  6
Continuous
 62
     7
100
AcDbLine
 10
201.64350808877
 20
212.5020671753734
 30
0.0
 11
70.60908508254754
 21
152.786240232875
 31
0.0
  0
LINE
  5
75
330
A
100
AcDbEntity
  8
0
  6
Continuous
 62
     7
100
AcDbLine
 10
74.11324404698909
 20
148.8884381287969
 30
0.0
 11
203.7169743020513
 21
207.9522608209915
 31
0.0
  0
LWPOLYLINE
  5
76
330
A
100
AcDbEntity
  8
0
  6
Continuous
 62
     7
100
AcDbPolyline
 90
        5
 70
   128
 43
0.0
 10
72.6825513539503
 20
148.2364340529659
 10
72.76817429581663
 20
148.2754546738882
 10
73.02481926648424
 20
148.3924145232274
 10
73.45181545932023
 20
148.5870078967942
 10
74.0480467139914
 20
148.8587258999252
  0
LWPOLYLINE
  5
7D
330
A
100
AcDbEntity
  8
0
  6
Continuous
 62
     7
100
AcDbPolyline
 90
       24
 70
   128
 43
0.0
 10
71.31488579099148
 20
234.2351402699332
 10
71.79469080149032
 20
233.4702293927269
 10
72.61631747713964
 20
232.0830401131028
 10
73.67113021134925
 20
230.1381226348965
 10
74.83745277336534
 20
227.6857428067735
 10
76.1091420763022
 20
224.4221168263946
 10
77.2006840701977
 20
220.6467866692361
 10
77.9494154027382
 20
216.4745517524848
 10
78.28153238004858
 20
212.0082637261478
 10
78.20459182239853
 20
208.123069288668
 10
77.77652569832288
 20
203.8538263468824
 10
77.06883194425723
 20
199.7303650663566
 10
76.17617853060583
 20
195.8756326154625
 10
75.19018172859666
 20
192.3482548876077
 10
74.13054605881569
 20
189.0231678745443
 10
73.15563562748312
 20
186.2370286240802
 10
72.34634251039313
 20
184.064053004005
 10
71.77822253178128
 20
182.6014621294887
 10
71.5626079429234
 20
182.0570019799172
 10
71.48907053702486
 20
181.8730692886679
 10
71.62562118671472
 20
182.2146760771041
 10
72.01847633943342
 20
183.2149694750491
 10
72.64053477445159
 20
184.841264012865
 10
72.6825512958284
 20
184.95621595669
  0
LWPOLYLINE
  5
97
330
A
100
AcDbEntity
  8
0
  6
Continuous
 62
     7
100
AcDbPolyline
 90
        4
 70
   128
 43
0.0
 10
72.68255129582851
 20
231.9458287410686
 10
72.05962312184094
 20
233.0323592654623
 10
71.59987629984915
 20
233.7836537998454
 10
71.31488579128414
 20
234.235140269474
  0
LWPOLYLINE
  5
9D
330
A
100
AcDbEntity
  8
0
  6
Continuous
 62
     7
100
AcDbPolyline
 90
       17
 70
   128
 43
0.0
 10
71.31488579128414
 20
234.235140269474
 10
71.31463331735126
 20
234.2556111301498
 10
71.31372395665319
 20
234.2800117551668
 10
71.31120184392653
 20
234.3174998526705
 10
71.30074112932554
 20
234.4067665735057
 10
71.25687955466514
 20
234.6233914856702
 10
71.2248296125893
 20
234.7418236385957
 10
71.25655405411352
 20
234.6246945855482
 10
71.27299780634094
 20
234.555141180742
 10
71.28600839865146
 20
234.4927009637935
 10
71.29563270693934
 20
234.4393333712408
 10
71.3024811823038
 20
234.3946406652684
 10
71.30722928873485
 20
234.357380468856
 10
71.31157275156602
 20
234.3129711739869
 10
71.31329254933655
 20
234.2880427714316
 10
71.31459313155814
 20
234.2572125026044
 10
71.31488579128414
 20
234.2351403685167
  0
LINE
  5
B0
330
A
100
AcDbEntity
  8
0
  6
Continuous
 62
     7
100
AcDbLine
 10
71.31488579128411
 20
181.8730692886679
 30
0.0
 11
71.31488579128414
 21
234.2351403189955
 31
0.0
  0
LINE
  5
B1
330
A
100
AcDbEntity
  8
0
  6
Continuous
 62
     7
100
AcDbLine
 10
30.51488579128403
 20
232.0730692886679
 30
0.0
 11
30.51488579128403
 21
184.1730692886678
 31
0.0
  0
LINE
  5
B2
330
A
100
AcDbEntity
  8
0
  6
Continuous
 62
     7
100
AcDbLine
 10
50.51488579128404
 20
184.1730692886678
 30
0.0
 11
50.51488579128404
 21
232.0730692886679
 31
0.0
  0
LINE
  5
B3
330
A
100
AcDbEntity
  8
0
  6
Continuous
 62
     7
100
AcDbLine
 10
-11.48511420871589
 20
208.1230692886679
 30
0.0
 11
-11.48511420871595
 21
196.8730692886679
 31
0.0
  0
LINE
  5
B4
330
A
100
AcDbEntity
  8
0
  6
Continuous
 62
     7
100
AcDbLine
 10
-11.48511420871595
 20
219.3730692886679
 30
0.0
 11
-11.48511420871589
 21
208.1230692886679
 31
0.0
  0
LINE
  5
B5
330
A
100
AcDbEntity
  8
0
  6
Continuous
 62
     7
100
AcDbLine
 10
-20.48511420871591
 20
214.3730692886679
 30
0.0
 11
-20.48511420871591
 21
201.8730692886679
 31
0.0
  0
LINE
  5
B6
330
A
100
AcDbEntity
  8
0
  6
PHANTOM
 62
     7
100
AcDbLine
 10
-55.98065317665332
 20
126.6230692886679
 30
0.0
 11
-55.98065317665332
 21
184.123069288668
 31
0.0
  0
LINE
  5
B7
330
A
100
AcDbEntity
  8
0
  6
PHANTOM
 62
     7
100
AcDbLine
 10
-55.98065317665332
 20
69.1230692886679
 30
0.0
 11
-55.98065317665332
 21
126.6230692886679
 31
0.0
  0
LINE
  5
B8
330
A
100
AcDbEntity
  8
0
  6
PHANTOM
 62
     7
100
AcDbLine
 10
29.51934682334677
 20
63.62306928866798
 30
0.0
 11
51.51934682334676
 21
63.62306928866798
 31
0.0
  0
LINE
  5
B9
330
A
100
AcDbEntity
  8
0
  6
PHANTOM
 62
     7
100
AcDbLine
 10
33.12964576336945
 20
97.12306928866798
 30
0.0
 11
33.12964576336945
 21
88.12306928866798
 31
0.0
  0
LWPOLYLINE
  5
BA
330
A
100
AcDbEntity
  8
0
  6
PHANTOM
 62
     7
100
AcDbPolyline
 90
        4
 70
   128
 43
0.0
 10
31.4959441857466
 20
103.4781753687337
 10
32.02559468435125
 20
102.2624185246623
 10
32.79835487906596
 20
99.86899015667336
 10
33.12964576336933
 20
97.12306928866798
  0
LWPOLYLINE
  5
C0
330
A
100
AcDbEntity
  8
0
  6
PHANTOM
 62
     7
100
AcDbPolyline
 90
        6
 70
   128
 43
0.0
 10
29.51934682334675
 20
105.2275341329339
 10
29.52172341712089
 20
105.2342688557179
 10
29.67708481936465
 20
105.4424862170065
 10
30.10918027860475
 20
105.3723696490345
 10
30.75990867340531
 20
104.7296990609893
 10
31.4959441857466
 20
103.4781753687337
  0
LWPOLYLINE
  5
C8
330
A
100
AcDbEntity
  8
0
  6
PHANTOM
 62
     7
100
AcDbPolyline
 90
        8
 70
   128
 43
0.0
 10
33.12964576336945
 20
88.12306928866798
 10
33.08640467386496
 20
87.14052479804591
 10
32.62631498402809
 20
84.71923554571819
 10
31.446403648642
 20
81.66259839557438
 10
30.44536685376947
 20
79.72029306016494
 10
29.77276525182297
 20
78.54709078957333
 10
29.52678770340815
 20
78.13540090782265
 10
29.51934682334677
 20
78.12306928866796
  0
LINE
  5
D2
330
A
100
AcDbEntity
  8
0
  6
PHANTOM
 62
     7
100
AcDbLine
 10
-47.48065317665325
 20
119.123069288668
 30
0.0
 11
-44.98065317665325
 21
119.123069288668
 31
0.0
  0
LINE
  5
D3
330
A
100
AcDbEntity
  8
0
  6
PHANTOM
 62
     7
100
AcDbLine
 10
-44.98065317665325
 20
119.123069288668
 30
0.0
 11
-44.98065317665325
 21
88.12306928866798
 31
0.0
  0
LINE
  5
D4
330
A
100
AcDbEntity
  8
0
  6
PHANTOM
 62
     7
100
AcDbLine
 10
-47.48065317665325
 20
88.12306928866798
 30
0.0
 11
-44.98065317665325
 21
88.12306928866798
 31
0.0
  0
LINE
  5
D5
330
A
100
AcDbEntity
  8
0
  6
PHANTOM
 62
     7
100
AcDbLine
 10
-44.98065317665325
 20
126.6230692886679
 30
0.0
 11
-44.98065317665325
 21
119.123069288668
 31
0.0
  0
LINE
  5
D6
330
A
100
AcDbEntity
  8
0
  6
PHANTOM
 62
     7
100
AcDbLine
 10
-44.98065317665325
 20
88.12306928866798
 30
0.0
 11
-44.98065317665325
 21
80.62306928866796
 31
0.0
  0
LWPOLYLINE
  5
D7
330
A
100
AcDbEntity
  8
0
  6
PHANTOM
 62
     7
100
AcDbPolyline
 90
        7
 70
   128
 43
0.0
 10
27.01934682334677
 20
80.62306928866796
 10
27.33036034920393
 20
80.941085414347
 10
28.15582595159281
 20
81.8209871172907
 10
29.38437110893637
 20
83.27771611884777
 10
30.83244411145565
 20
85.57019398145566
 10
31.39709963989182
 20
87.38616092070143
 10
31.45016824973824
 20
88.12306928866798
  0
LINE
  5
E0
330
A
100
AcDbEntity
  8
0
  6
PHANTOM
 62
     7
100
AcDbLine
 10
33.12964576336945
 20
88.12306928866798
 30
0.0
 11
31.45016824973824
 21
88.12306928866798
 31
0.0
  0
LWPOLYLINE
  5
E1
330
A
100
AcDbEntity
  8
0
  6
PHANTOM
 62
     7
100
AcDbPolyline
 90
        5
 70
   128
 43
0.0
 10
31.45016824973823
 20
97.12306928866798
 10
31.21820981628779
 20
98.67126070562719
 10
31.04358398263852
 20
99.182509939672
 10
30.09519647094318
 20
100.9775812156637
 10
29.44517085901929
 20
101.8893988487173
  0
LWPOLYLINE
  5
E8
330
A
100
AcDbEntity
  8
0
  6
PHANTOM
 62
     7
100
AcDbPolyline
 90
        9
 70
   128
 43
0.0
 10
29.44517085901929
 20
101.8893988487173
 10
29.7622674492867
 20
102.0132401454344
 10
30.07323141491769
 20
102.1654131811766
 10
30.37204873578339
 20
102.3429749406712
 10
30.65294030696757
 20
102.5424913926037
 10
30.91047370622893
 20
102.7601039035291
 10
31.13966825664606
 20
102.991603863558
 10
31.33609135254117
 20
103.2325140805609
 10
31.4959441857466
 20
103.4781753687337
  0
LINE
  5
F3
330
A
100
AcDbEntity
  8
0
  6
PHANTOM
 62
     7
100
AcDbLine
 10
33.12964576336945
 20
97.12306928866798
 30
0.0
 11
31.45016824973823
 21
97.12306928866798
 31
0.0
  0
LINE
  5
F4
330
A
100
AcDbEntity
  8
0
  6
PHANTOM
 62
     7
100
AcDbLine
 10
31.45016824973824
 20
88.12306928866798
 30
0.0
 11
31.45016824973823
 21
97.12306928866798
 31
0.0
  0
LINE
  5
F5
330
A
100
AcDbEntity
  8
0
  6
PHANTOM
 62
     7
100
AcDbLine
 10
25.73126409547825
 20
105.3383023798154
 30
0.0
 11
22.94583402282248
 21
98.37472719817595
 31
0.0
  0
LINE
  5
F6
330
A
100
AcDbEntity
  8
0
  6
PHANTOM
 62
     7
100
AcDbLine
 10
22.94583402282248
 20
98.37472719817595
 30
0.0
 11
-28.47800052144051
 21
118.9442610158811
 31
0.0
  0
LINE
  5
F7
330
A
100
AcDbEntity
  8
0
  6
PHANTOM
 62
     7
100
AcDbLine
 10
-25.69257044878473
 20
125.9078361975205
 30
0.0
 11
-28.47800052144051
 21
118.9442610158811
 31
0.0
  0
LINE
  5
F8
330
A
100
AcDbEntity
  8
0
  6
PHANTOM
 62
     7
100
AcDbLine
 10
29.44517085901929
 20
101.8893988487173
 30
0.0
 11
29.44517085901929
 21
97.12306928866798
 31
0.0
  0
ARC
  5
F9
330
A
100
AcDbEntity
  8
0
  6
PHANTOM
 62
     7
100
AcDbCircle
 10
29.44517085901929
 20
114.623069288668
 30
0.0
 40
17.50000000000003
100
AcDbArc
 50
248.198590513649
 51
270.0000000000008
  0
ARC
  5
FA
330
A
100
AcDbEntity
  8
0
  6
PHANTOM
 62
     7
100
AcDbCircle
 10
-29.40647721232576
 20
116.623069288668
 30
0.0
 40
2.5
100
AcDbArc
 50
68.19859051364848
 51
90.0
  0
LINE
  5
FB
330
A
100
AcDbEntity
  8
0
  6
PHANTOM
 62
     7
100
AcDbLine
 10
31.45016824973823
 20
97.12306928866798
 30
0.0
 11
29.44517085901929
 21
97.12306928866798
 31
0.0
  0
LINE
  5
FC
330
A
100
AcDbEntity
  8
0
  6
PHANTOM
 62
     7
100
AcDbLine
 10
-44.98065317665325
 20
88.12306928866798
 30
0.0
 11
31.45016824973824
 21
88.12306928866798
 31
0.0
  0
LINE
  5
FD
330
A
100
AcDbEntity
  8
0
  6
PHANTOM
 62
     7
100
AcDbLine
 10
-29.40647721232576
 20
119.123069288668
 30
0.0
 11
-44.98065317665325
 21
119.123069288668
 31
0.0
  0
LINE
  5
FE
330
A
100
AcDbEntity
  8
0
  6
PHANTOM
 62
     7
100
AcDbLine
 10
-29.40647721232576
 20
126.6230692886679
 30
0.0
 11
-29.40647721232576
 21
119.123069288668
 31
0.0
  0
LINE
  5
FF
330
A
100
AcDbEntity
  8
0
  6
PHANTOM
 62
     7
100
AcDbLine
 10
45.01488579128448
 20
162.1230692886677
 30
0.0
 11
36.01488579128459
 21
162.1230692886677
 31
0.0
  0
LINE
  5
100
330
A
100
AcDbEntity
  8
0
  6
PHANTOM
 62
     7
100
AcDbLine
 10
133.4246452653243
 20
271.0404965932809
 30
0.0
 11
71.18517249244487
 21
242.6763347201745
 31
0.0
  0
LINE
  5
101
330
A
100
AcDbEntity
  8
0
  6
PHANTOM
 62
     7
100
AcDbLine
 10
-1.485114208715887
 20
229.3730692886679
 30
0.0
 11
-1.485114208715887
 21
186.8730692886679
 31
0.0
  0
LWPOLYLINE
  5
102
330
A
100
AcDbEntity
  8
0
  6
PHANTOM
 62
     7
100
AcDbPolyline
 90
       10
 70
   128
 43
0.0
 10
104.383394944237
 20
82.29241270515162
 10
104.4733756366484
 20
82.2785265909353
 10
104.6881909389886
 20
82.3298877987213
 10
104.9951371687819
 20
82.43867705021468
 10
105.3474845450169
 20
82.58833216805262
 10
105.6915913736987
 20
82.75606951717129
 10
105.9750705094966
 20
82.91635260671025
 10
106.1547648237301
 20
83.04477978925701
 10
106.2033174859903
 20
83.12179919046412
 10
106.2033174859903
 20
83.12179919046412
  0
ARC
  5
10E
330
A
100
AcDbEntity
  8
0
  6
Continuous
 62
     7
100
AcDbCircle
 10
-55.98065317665327
 20
-195.3257661836291
 30
0.0
 40
8.500000000000014
100
AcDbArc
 50
270.0000000000005
 51
0.0
  0
ARC
  5
10F
330
A
100
AcDbEntity
  8
0
  6
Continuous
 62
     7
100
AcDbCircle
 10
-55.98065317665327
 20
-97.32576618362912
 30
0.0
 40
8.500000000000014
100
AcDbArc
 50
360.0000000000008
 51
90.00000000000033
  0
LINE
  5
110
330
A
100
AcDbEntity
  8
0
  6
Continuous
 62
     7
100
AcDbLine
 10
-62.48065317665324
 20
-203.8257661836291
 30
0.0
 11
-55.98065317665332
 21
-203.8257661836291
 31
0.0
  0
LINE
  5
111
330
A
100
AcDbEntity
  8
0
  6
Continuous
 62
     7
100
AcDbLine
 10
-55.98065317665332
 20
-88.82576618362911
 30
0.0
 11
-62.48065317665324
 21
-88.82576618362911
 31
0.0
  0
LINE
  5
112
330
A
100
AcDbEntity
  8
0
  6
Continuous
 62
     7
100
AcDbLine
 10
-65.48065317665325
 20
-201.3257661836291
 30
0.0
 11
-62.48065317665324
 21
-201.3257661836291
 31
0.0
  0
LINE
  5
113
330
A
100
AcDbEntity
  8
0
  6
Continuous
 62
     7
100
AcDbLine
 10
-62.48065317665324
 20
-91.32576618362911
 30
0.0
 11
-65.48065317665325
 21
-91.32576618362911
 31
0.0
  0
LINE
  5
114
330
A
100
AcDbEntity
  8
0
  6
Continuous
 62
     7
100
AcDbLine
 10
48.01488579128449
 20
-181.2680566952511
 30
0.0
 11
48.01488579128445
 21
-170.2757661836257
 31
0.0
  0
LINE
  5
115
330
A
100
AcDbEntity
  8
0
  6
Continuous
 62
     7
100
AcDbLine
 10
48.01488579128427
 20
-122.3757661836257
 30
0.0
 11
48.01488579128426
 21
-111.2680566952511
 31
0.0
  0
LINE
  5
116
330
A
100
AcDbEntity
  8
0
  6
Continuous
 62
     7
100
AcDbLine
 10
33.01488579128437
 20
-111.2680566952511
 30
0.0
 11
33.01488579128438
 21
-122.375766183626
 31
0.0
  0
LINE
  5
117
330
A
100
AcDbEntity
  8
0
  6
Continuous
 62
     7
100
AcDbLine
 10
33.01488579128455
 20
-170.2757661836258
 30
0.0
 11
33.01488579128458
 21
-181.2680566952511
 31
0.0
  0
LINE
  5
118
330
A
100
AcDbEntity
  8
0
  6
Continuous
 62
     7
100
AcDbLine
 10
71.68848654464416
 20
-140.1681712475292
 30
0.0
 11
71.59641590762861
 21
-140.7843601323418
 31
0.0
  0
LINE
  5
119
330
A
100
AcDbEntity
  8
0
  6
Continuous
 62
     7
100
AcDbLine
 10
71.59641590762861
 20
-151.8671722349099
 30
0.0
 11
71.68868948156198
 21
-152.4847192885925
 31
0.0
  0
ARC
  5
11A
330
A
100
AcDbEntity
  8
0
  6
Continuous
 62
     7
100
AcDbCircle
 10
70.5148857912839
 20
-120.0757661836256
 30
0.0
 40
0.8000000000000255
100
AcDbArc
 50
0.0
 51
180.0000000000004
  0
ARC
  5
11B
330
A
100
AcDbEntity
  8
0
  6
Continuous
 62
     7
100
AcDbCircle
 10
70.51488579128434
 20
-172.5757661836255
 30
0.0
 40
0.8000000000000255
100
AcDbArc
 50
180.0000000000004
 51
0.0
  0
LINE
  5
11C
330
A
100
AcDbEntity
  8
0
  6
Continuous
 62
     7
100
AcDbLine
 10
69.71488579128387
 20
-120.0757661836256
 30
0.0
 11
69.71488579128432
 21
-172.5757661836255
 31
0.0
  0
LINE
  5
11D
330
A
100
AcDbEntity
  8
0
  6
Continuous
 62
     7
100
AcDbLine
 10
78.20459182239808
 20
-120.0757661836255
 30
0.0
 11
71.31488579128393
 21
-120.0757661836256
 31
0.0
  0
LINE
  5
11E
330
A
100
AcDbEntity
  8
0
  6
Continuous
 62
     7
100
AcDbLine
 10
71.31488579128436
 20
-172.5757661836255
 30
0.0
 11
78.20459182239853
 21
-172.5757661836255
 31
0.0
  0
LINE
  5
11F
330
A
100
AcDbEntity
  8
0
  6
Continuous
 62
     7
100
AcDbLine
 10
33.01488579128381
 20
-122.3757661836258
 30
0.0
 11
30.51488579128381
 21
-122.3757661836258
 31
0.0
  0
LINE
  5
120
330
A
100
AcDbEntity
  8
0
  6
Continuous
 62
     7
100
AcDbLine
 10
50.51488579128382
 20
-122.3757661836257
 30
0.0
 11
48.01488579128377
 21
-122.3757661836257
 31
0.0
  0
LINE
  5
121
330
A
100
AcDbEntity
  8
0
  6
Continuous
 62
     7
100
AcDbLine
 10
48.0148857912841
 20
-170.2757661836257
 30
0.0
 11
50.51488579128421
 21
-170.2757661836257
 31
0.0
  0
LINE
  5
122
330
A
100
AcDbEntity
  8
0
  6
Continuous
 62
     7
100
AcDbLine
 10
30.5148857912842
 20
-170.2757661836258
 30
0.0
 11
33.01488579128437
 21
-170.2757661836258
 31
0.0
  0
ARC
  5
123
330
A
100
AcDbEntity
  8
0
  6
Continuous
 62
     7
100
AcDbCircle
 10
-1.485114208716054
 20
-135.0757661836261
 30
0.0
 40
10.00000000000001
100
AcDbArc
 50
89.99999999999969
 51
180.0000000000004
  0
ARC
  5
124
330
A
100
AcDbEntity
  8
0
  6
Continuous
 62
     7
100
AcDbCircle
 10
-1.485114208715887
 20
-157.575766183626
 30
0.0
 40
10.00000000000003
100
AcDbArc
 50
180.0000000000004
 51
270.0000000000014
  0
LINE
  5
125
330
A
100
AcDbEntity
  8
0
  6
Continuous
 62
     7
100
AcDbLine
 10
30.51488579128392
 20
-125.0757661836259
 30
0.0
 11
-1.485114208715998
 21
-125.0757661836261
 31
0.0
  0
LINE
  5
126
330
A
100
AcDbEntity
  8
0
  6
Continuous
 62
     7
100
AcDbLine
 10
-1.485114208715776
 20
-167.5757661836261
 30
0.0
 11
30.51488579128414
 21
-167.5757661836258
 31
0.0
  0
LINE
  5
127
330
A
100
AcDbEntity
  8
0
  6
Continuous
 62
     7
100
AcDbLine
 10
69.71488579128396
 20
-125.0757661836256
 30
0.0
 11
50.51488579128394
 21
-125.0757661836257
 31
0.0
  0
LINE
  5
128
330
A
100
AcDbEntity
  8
0
  6
Continuous
 62
     7
100
AcDbLine
 10
50.51488579128416
 20
-167.5757661836257
 30
0.0
 11
69.71488579128423
 21
-167.5757661836255
 31
0.0
  0
LINE
  5
129
330
A
100
AcDbEntity
  8
0
  6
Continuous
 62
     7
100
AcDbLine
 10
-11.485114208716
 20
-140.0757661836262
 30
0.0
 11
-20.48511420871591
 21
-140.0757661836262
 31
0.0
  0
LINE
  5
12A
330
A
100
AcDbEntity
  8
0
  6
Continuous
 62
     7
100
AcDbLine
 10
-20.48511420871591
 20
-152.5757661836262
 30
0.0
 11
-11.485114208716
 21
-152.5757661836261
 31
0.0
  0
LWPOLYLINE
  5
12B
330
A
100
AcDbEntity
  8
0
  6
Continuous
 62
     7
100
AcDbPolyline
 90
       94
 70
   128
 43
0.0
 10
73.53036339880519
 20
-172.5757661836256
 10
74.48693690622049
 20
-175.2681415997707
 10
76.0839715196891
 20
-179.1101972600144
 10
77.90706336140025
 20
-182.905234626748
 10
79.95410083477766
 20
-186.6261121016279
 10
82.22135150408988
 20
-190.2484901559362
 10
84.70367025759678
 20
-193.750202828413
 10
87.39465675470697
 20
-197.1108376443943
 10
90.28677798010525
 20
-200.3114510156056
 10
93.37146589114048
 20
-203.3343730481264
 10
96.63919657112669
 20
-206.1630724130199
 10
100.0795550477418
 20
-208.7820623951366
 10
103.6812885164487
 20
-211.1768359131064
 10
107.4323498322178
 20
-213.3338216597921
 10
111.319932628352
 20
-215.2403564175545
 10
115.3304991918031
 20
-216.8846705746454
 10
119.4498022133125
 20
-218.2558852099576
 10
123.6629017036099
 20
-219.3440199915792
 10
127.9541786913606
 20
-220.1400116305483
 10
132.3073477542032
 20
-220.6357427718806
 10
136.705470920377
 20
-220.8240809878728
 10
141.130975930303
 20
-220.6989269547904
 10
145.5656425026847
 20
-220.255275353116
 10
149.9906593440532
 20
-219.4892849825284
 10
154.3867606535966
 20
-218.3983218262931
 10
158.7342345150474
 20
-216.9810088730823
 10
163.0130067076667
 20
-215.2372613750524
 10
167.2027410989851
 20
-213.1682969477422
 10
171.2829545091266
 20
-210.7766078755526
 10
175.2331421119934
 20
-208.0658794669264
 10
178.6273869235357
 20
-205.3850479804896
 10
181.8631940382787
 20
-202.4820159477869
 10
184.9279305129641
 20
-199.3687285063012
 10
187.8099461024639
 20
-196.0578768139192
 10
190.498300285207
 20
-192.5631615797088
 10
192.9828026188665
 20
-188.8993663663684
 10
195.254047367556
 20
-185.0825155649744
 10
197.3034409663432
 20
-181.130196605666
 10
199.1232182441525
 20
-177.0622214590011
 10
200.7064367436706
 20
-172.9020487877602
 10
202.0469176814977
 20
-168.6801069775605
 10
203.1390234912917
 20
-164.4426213704732
 10
203.9767674296601
 20
-160.2801693483779
 10
204.5483010272536
 20
-156.4590547355298
 10
204.8640295455097
 20
-153.5021828094106
 10
205.06645867661
 20
-150.6338135207295
 10
205.1802411954104
 20
-146.3257661836246
 10
205.0256968856096
 20
-141.3057628588873
 10
204.8763857319924
 20
-139.2906378366662
 10
204.5181724047828
 20
-135.9548860874168
 10
204.0013304924337
 20
-132.5132434955291
 10
203.2838359833092
 20
-128.8539314061548
 10
202.3565020000708
 20
-125.0797606790343
 10
201.2098916959895
 20
-121.2415629979431
 10
199.8391224783869
 20
-117.3833907675019
 10
198.24208786492
 20
-113.5413351072595
 10
196.4189960232087
 20
-109.7462977405224
 10
194.3719585498321
 20
-106.0254202656415
 10
192.104707880522
 20
-102.4030422113337
 10
189.6223891270162
 20
-98.90132953885625
 10
186.9314026299074
 20
-95.5406947228745
 10
184.0392814045092
 20
-92.34008135166105
 10
180.9545934934761
 20
-89.31715931914018
 10
177.6868628134916
 20
-86.48845995424611
 10
174.2465043368771
 20
-83.86946997212822
 10
170.6447708681686
 20
-81.47469645415524
 10
166.8937095524027
 20
-79.3177107074697
 10
163.0061267562668
 20
-77.41117594970475
 10
158.9955601928181
 20
-75.76686179261301
 10
154.8762571713091
 20
-74.39564715729942
 10
150.6631576810108
 20
-73.30751237567574
 10
146.3718806932629
 20
-72.51152073670545
 10
142.0187116304198
 20
-72.0157895953714
 10
137.620588464245
 20
-71.82745137937731
 10
133.1950834543204
 20
-71.95260541245814
 10
128.7604168819403
 20
-72.39625701413041
 10
124.3354000405714
 20
-73.16224738471621
 10
119.9392987310287
 20
-74.25321054094933
 10
115.5918248695769
 20
-75.67052349415829
 10
111.3130526769557
 20
-77.41427099218684
 10
107.1233182856371
 20
-79.4832354194952
 10
103.0431048754977
 20
-81.87492449168114
 10
99.09291727262854
 20
-84.58565290030634
 10
95.69867246108371
 20
-87.26648438674306
 10
92.46286534633936
 20
-90.16951641944434
 10
89.39812887165338
 20
-93.28280386092821
 10
86.51611328215096
 20
-96.59365555331058
 10
83.82775909940793
 20
-100.0883707875183
 10
81.34325676574832
 20
-103.752166000856
 10
79.07201201705565
 20
-107.5690168022519
 10
77.02261841826935
 20
-111.5213357615544
 10
75.20284114045944
 20
-115.5893109082163
 10
73.61962264093918
 20
-119.7494835794579
 10
73.516026800235
 20
-120.0757661836254
  0
LINE
  5
18B
330
A
100
AcDbEntity
  8
0
  6
Continuous
 62
     7
100
AcDbLine
 10
-47.48065317665325
 20
-195.325766183629
 30
0.0
 11
-47.48065317665325
 21
-97.32576618362914
 31
0.0
  0
LINE
  5
18C
330
A
100
AcDbEntity
  8
0
  6
Continuous
 62
     7
100
AcDbLine
 10
-62.48065317665324
 20
-203.8257661836291
 30
0.0
 11
-62.48065317665324
 21
-88.82576618362911
 31
0.0
  0
LINE
  5
18D
330
A
100
AcDbEntity
  8
0
  6
Continuous
 62
     7
100
AcDbLine
 10
-65.48065317665325
 20
-201.3257661836291
 30
0.0
 11
-65.48065317665325
 21
-91.32576618362911
 31
0.0
  0
ARC
  5
18E
330
A
100
AcDbEntity
  8
0
  6
Continuous
 62
     7
100
AcDbCircle
 10
-44.98065317665325
 20
-136.3257661836291
 30
0.0
 40
2.5
100
AcDbArc
 50
180.0000000000004
 51
270.0000000000008
  0
ARC
  5
18F
330
A
100
AcDbEntity
  8
0
  6
Continuous
 62
     7
100
AcDbCircle
 10
-44.98065317665325
 20
-156.3257661836291
 30
0.0
 40
2.5
100
AcDbArc
 50
90.0
 51
180.0000000000004
  0
LINE
  5
190
330
A
100
AcDbEntity
  8
0
  6
Continuous
 62
     7
100
AcDbLine
 10
-44.98065317665325
 20
-138.8257661836291
 30
0.0
 11
-29.40647721232576
 21
-138.8257661836291
 31
0.0
  0
LINE
  5
191
330
A
100
AcDbEntity
  8
0
  6
Continuous
 62
     7
100
AcDbLine
 10
-29.40647721232576
 20
-138.8257661836291
 30
0.0
 11
-28.47800052144051
 21
-138.8257661836291
 31
0.0
  0
LINE
  5
192
330
A
100
AcDbEntity
  8
0
  6
Continuous
 62
     7
100
AcDbLine
 10
-28.47800052144051
 20
-153.8257661836291
 30
0.0
 11
-29.40647721232576
 21
-153.8257661836291
 31
0.0
  0
LINE
  5
193
330
A
100
AcDbEntity
  8
0
  6
Continuous
 62
     7
100
AcDbLine
 10
-29.40647721232576
 20
-153.8257661836291
 30
0.0
 11
-44.98065317665325
 21
-153.8257661836291
 31
0.0
  0
LINE
  5
194
330
A
100
AcDbEntity
  8
0
  6
Continuous
 62
     7
100
AcDbLine
 10
-28.47800052144051
 20
-138.8257661836291
 30
0.0
 11
-11.48511420871609
 21
-138.825766183629
 31
0.0
  0
LINE
  5
195
330
A
100
AcDbEntity
  8
0
  6
Continuous
 62
     7
100
AcDbLine
 10
-11.48511420871592
 20
-153.8257661836291
 30
0.0
 11
-28.47800052144051
 21
-153.8257661836291
 31
0.0
  0
LINE
  5
196
330
A
100
AcDbEntity
  8
0
  6
Continuous
 62
     7
100
AcDbLine
 10
40.51488579128454
 20
-181.2680566952512
 30
0.0
 11
48.01488579128449
 21
-181.2680566952511
 31
0.0
  0
LINE
  5
197
330
A
100
AcDbEntity
  8
0
  6
Continuous
 62
     7
100
AcDbLine
 10
33.01488579128458
 20
-181.2680566952511
 30
0.0
 11
40.51488579128454
 21
-181.2680566952512
 31
0.0
  0
LINE
  5
198
330
A
100
AcDbEntity
  8
0
  6
Continuous
 62
     7
100
AcDbLine
 10
40.51488579128431
 20
-111.2680566952512
 30
0.0
 11
33.01488579128437
 21
-111.2680566952511
 31
0.0
  0
LINE
  5
199
330
A
100
AcDbEntity
  8
0
  6
Continuous
 62
     7
100
AcDbLine
 10
48.01488579128426
 20
-111.2680566952511
 30
0.0
 11
40.51488579128431
 21
-111.2680566952512
 31
0.0
  0
LWPOLYLINE
  5
19A
330
A
100
AcDbEntity
  8
0
  6
Continuous
 62
     7
100
AcDbPolyline
 90
       18
 70
   128
 43
0.0
 10
71.18517249244487
 20
-146.3257661836257
 10
71.34483779597315
 20
-142.8659139770865
 10
71.82219532448214
 20
-139.4415645361146
 10
72.61234674376138
 20
-136.0878563198594
 10
73.70718403100344
 20
-132.839202912912
 10
75.09547267408954
 20
-129.7289398953581
 10
76.76296695288695
 20
-126.7889827746162
 10
78.69255611961495
 20
-124.0494994891428
 10
80.86443997827158
 20
-121.5386008445599
 10
83.25633206143853
 20
-119.2820520587498
 10
85.84368831959546
 20
-117.3030083758533
 10
88.59995897628115
 20
-115.6217774621308
 10
91.49686096472791
 20
-114.255611021826
 10
94.50466815039959
 20
-113.2185277713352
 10
97.59251636135765
 20
-112.5211695882061
 10
100.7287200964315
 20
-112.1706923110741
 10
103.8810976613376
 20
-112.1706923110741
 10
104.5439601489976
 20
-112.2154326023474
  0
LWPOLYLINE
  5
1AE
330
A
100
AcDbEntity
  8
0
  6
Continuous
 62
     7
100
AcDbPolyline
 90
       18
 70
   128
 43
0.0
 10
104.7110370499647
 20
-180.4223579334787
 10
103.8810976613377
 20
-180.480840056177
 10
100.7287200964316
 20
-180.480840056177
 10
97.59251636135774
 20
-180.1303627790449
 10
94.50466815039959
 20
-179.4330045959159
 10
91.49686096472795
 20
-178.395921345425
 10
88.59995897628117
 20
-177.0297549051202
 10
85.84368831959546
 20
-175.3485239913977
 10
83.25633206143857
 20
-173.3694803085012
 10
80.86443997827158
 20
-171.112931522691
 10
78.69255611961495
 20
-168.6020328781082
 10
76.76296695288693
 20
-165.8625495926347
 10
75.09547267408947
 20
-162.9225924718928
 10
73.70718403100338
 20
-159.812329454339
 10
72.61234674376135
 20
-156.5636760473915
 10
71.82219532448208
 20
-153.2099678311363
 10
71.34483779597309
 20
-149.7856183901643
 10
71.18517249244487
 20
-146.3257661836257
  0
LWPOLYLINE
  5
1C2
330
A
100
AcDbEntity
  8
0
  6
Continuous
 62
     7
100
AcDbPolyline
 90
       22
 70
   128
 43
0.0
 10
132.2011585665151
 20
-146.3257661836253
 10
132.0377637172492
 20
-149.7520212921636
 10
131.5493693576128
 20
-153.1407376327427
 10
130.741326438413
 20
-156.4547877200009
 10
129.6224880469664
 20
-159.6578621276725
 10
128.2051124108219
 20
-162.7148673022607
 10
126.5047285940538
 20
-165.5923100553532
 10
124.5399663575869
 20
-168.2586645220035
 10
122.3323520476367
 20
-170.6847175647046
 10
119.9060727485562
 20
-172.8438888386363
 10
117.2877112840777
 20
-174.7125220114857
 10
114.5059549703333
 20
-176.2701439471745
 10
111.5912813116163
 20
-177.499689013822
 10
108.5756240824663
 20
-178.3876860583791
 10
105.4920234545528
 20
-178.9244059994004
 10
102.3742640016401
 20
-179.1039684208961
 10
99.25650454872743
 20
-178.9244059994004
 10
96.17290392081393
 20
-178.3876860583792
 10
93.15724669166398
 20
-177.499689013822
 10
90.24257303294699
 20
-176.2701439471745
 10
87.46081671920256
 20
-174.7125220114857
 10
86.11636421650498
 20
-173.8065905200322
  0
LWPOLYLINE
  5
1DA
330
A
100
AcDbEntity
  8
0
  6
Continuous
 62
     7
100
AcDbPolyline
 90
       22
 70
   128
 43
0.0
 10
85.11844148751606
 20
-119.5899154488666
 10
87.46081671920252
 20
-117.9390103557652
 10
90.24257303294694
 20
-116.3813884200764
 10
93.15724669166391
 20
-115.151843353429
 10
96.17290392081388
 20
-114.2638463088718
 10
99.25650454872737
 20
-113.7271263678506
 10
102.3742640016401
 20
-113.547563946355
 10
105.4920234545528
 20
-113.7271263678506
 10
108.5756240824663
 20
-114.2638463088719
 10
111.5912813116162
 20
-115.1518433534291
 10
114.5059549703332
 20
-116.3813884200766
 10
117.2877112840776
 20
-117.9390103557654
 10
119.9060727485562
 20
-119.8076435286149
 10
122.3323520476367
 20
-121.9668148025465
 10
124.5399663575868
 20
-124.3928678452476
 10
126.5047285940537
 20
-127.059222311898
 10
128.2051124108219
 20
-129.9366650649905
 10
129.6224880469664
 20
-132.9936702395787
 10
130.7413264384129
 20
-136.1967446472502
 10
131.5493693576127
 20
-139.5107947345084
 10
132.0377637172492
 20
-142.8995110750875
 10
132.2011585665151
 20
-146.3257661836253
  0
LWPOLYLINE
  5
1F2
330
A
100
AcDbEntity
  8
0
  6
Continuous
 62
     7
100
AcDbPolyline
 90
       10
 70
   128
 43
0.0
 10
71.71808622208259
 20
-152.481313838587
 10
71.79469080149032
 20
-153.1402271598886
 10
72.61631747713964
 20
-157.0487460909195
 10
73.67113021134925
 20
-160.6207034604534
 10
74.83745277336534
 20
-163.8290317310602
 10
76.1091420763022
 20
-166.9001592933272
 10
77.2006840701977
 20
-169.3956383759818
 10
77.9494154027382
 20
-171.2071391290414
 10
78.28153238004858
 20
-172.2866553090575
 10
78.20459182239853
 20
-172.5757661836255
  0
LWPOLYLINE
  5
1FE
330
A
100
AcDbEntity
  8
0
  6
Continuous
 62
     7
100
AcDbPolyline
 90
        3
 70
   128
 43
0.0
 10
71.78204159448049
 20
-140.4967245521815
 10
72.01847633943342
 20
-138.0402931328693
 10
72.21165788849043
 20
-136.8492652756792
  0
LWPOLYLINE
  5
203
330
A
100
AcDbEntity
  8
0
  6
Continuous
 62
     7
100
AcDbPolyline
 90
       10
 70
   128
 43
0.0
 10
78.20459182239808
 20
-120.0757661836255
 10
78.27739164483633
 20
-120.3772574883205
 10
78.02043866654567
 20
-121.2617763813213
 10
77.43906472754163
 20
-122.7001904155087
 10
76.59713923209437
 20
-124.6337057032383
 10
75.5246742293057
 20
-127.127032374563
 10
74.3700041664011
 20
-130.0459904283611
 10
73.10536144754559
 20
-133.8349208625604
 10
72.05962312184094
 20
-138.0438719044182
 10
71.70451464809352
 20
-140.1708524096598
  0
LWPOLYLINE
  5
20F
330
A
100
AcDbEntity
  8
0
  6
Continuous
 62
     7
100
AcDbPolyline
 90
       80
 70
   128
 43
0.0
 10
76.21857589668929
 20
-120.0757661836255
 10
77.33204644137623
 20
-117.1935880862561
 10
79.34842955425434
 20
-112.7085053711236
 10
81.64767714466945
 20
-108.3909021583593
 10
84.21833447678181
 20
-104.2622885299874
 10
87.04759466507077
 20
-100.3432330314286
 10
90.12136247759444
 20
-96.65326020004251
 10
93.42432455772604
 20
-93.2107532948636
 10
96.94002571452635
 20
-90.03286271213026
 10
100.6509509016773
 20
-87.13542054287286
 10
104.5386124765619
 20
-84.53286169823284
 10
108.5836423047692
 20
-82.23815199546159
 10
112.7658882511662
 20
-80.26272356287085
 10
117.0645145768215
 20
-78.61641788554478
 10
121.4581057416081
 20
-77.30743677555607
 10
125.9247730953473
 20
-76.34230151095096
 10
130.4422639259631
 20
-75.72582034706993
 10
134.9880723213739
 20
-75.4610645620615
 10
139.539551292815
 20
-75.54935315592894
 10
144.0740256009969
 20
-75.99024627933868
 10
148.5689047230073
 20
-76.78154742492747
 10
153.0017953971597
 20
-77.91931437019164
 10
157.3506131850965
 20
-79.39787881744132
 10
161.5936924953505
 20
-81.20987463297433
 10
165.7098945202314
 20
-83.34627454478388
 10
169.6787125483023
 20
-85.79643511597351
 10
173.4803741277851
 20
-88.54814976982435
 10
177.0959395719202
 20
-91.58770960234638
 10
180.5073963155335
 20
-94.89997167934847
 10
183.6977486527295
 20
-98.46843447777485
 10
186.6511024086442
 20
-102.2753200954629
 10
189.3527441234236
 20
-106.3016628197574
 10
191.7892143539415
 20
-110.5274036137371
 10
193.9483747280676
 20
-114.9314900493278
 10
195.8194684174272
 20
-119.4919811894394
 10
197.3931737273785
 20
-124.1861568966117
 10
198.6616505372273
 20
-128.9906310235958
 10
199.6185793593133
 20
-133.8814679219633
 10
200.2591928223798
 20
-138.8343016883032
 10
200.5802994223775
 20
-143.8244575539267
 10
200.5802994223774
 20
-148.8270748133237
 10
200.2591928223798
 20
-153.8172306789471
 10
199.6185793593132
 20
-158.770064445287
 10
198.6616505372273
 20
-163.6609013436546
 10
197.3931737273785
 20
-168.4653754706386
 10
195.8194684174271
 20
-173.1595511778109
 10
193.9483747280676
 20
-177.7200423179225
 10
191.7892143539414
 20
-182.1241287535131
 10
189.3527441234236
 20
-186.3498695474929
 10
186.6511024086441
 20
-190.3762122717874
 10
183.6977486527295
 20
-194.1830978894754
 10
180.5073963155334
 20
-197.7515606879017
 10
177.0959395719202
 20
-201.0638227649038
 10
173.4803741277851
 20
-204.1033825974258
 10
169.6787125483023
 20
-206.8550972512766
 10
165.7098945202314
 20
-209.3052578224662
 10
161.5936924953506
 20
-211.4416577342758
 10
157.3506131850965
 20
-213.2536535498088
 10
153.0017953971597
 20
-214.7322179970584
 10
148.5689047230074
 20
-215.8699849423226
 10
144.074025600997
 20
-216.6612860879113
 10
139.539551292815
 20
-217.102179211321
 10
134.9880723213739
 20
-217.1904678051884
 10
130.4422639259632
 20
-216.92571202018
 10
125.9247730953474
 20
-216.309230856299
 10
121.4581057416082
 20
-215.3440955916938
 10
117.0645145768216
 20
-214.0351144817051
 10
112.7658882511663
 20
-212.3888088043789
 10
108.5836423047692
 20
-210.4133803717882
 10
104.538612476562
 20
-208.1186706690169
 10
100.6509509016775
 20
-205.5161118243769
 10
96.94002571452649
 20
-202.6186696551195
 10
93.42432455772618
 20
-199.4407790723861
 10
90.12136247759462
 20
-195.9982721672072
 10
87.04759466507091
 20
-192.3082993358211
 10
84.21833447678194
 20
-188.3892438372623
 10
81.64767714466961
 20
-184.2606302088903
 10
79.34842955425451
 20
-179.9430269961261
 10
77.33204644137639
 20
-175.4579442809935
 10
76.21857589668973
 20
-172.5757661836255
  0
LWPOLYLINE
  5
261
330
A
100
AcDbEntity
  8
0
  6
Continuous
 62
     7
100
AcDbPolyline
 90
       10
 70
   128
 43
0.0
 10
115.0275882370388
 20
-176.0082855878083
 10
114.8768132412676
 20
-176.0826113851305
 10
111.9803933002622
 20
-177.3044561836904
 10
108.983622218318
 20
-178.1868919719019
 10
105.9193332465237
 20
-178.7202505986078
 10
102.8210993760979
 20
-178.8986884750815
 10
99.72286550567211
 20
-178.7202505986078
 10
96.65857653387782
 20
-178.1868919719019
 10
93.66180545193367
 20
-177.3044561836904
 10
93.11450235621881
 20
-177.1025339873149
  0
LWPOLYLINE
  5
26D
330
A
100
AcDbEntity
  8
0
  6
Continuous
 62
     7
100
AcDbPolyline
 90
       10
 70
   128
 43
0.0
 10
92.08680815947639
 20
-115.9639548197747
 10
93.66180545193362
 20
-115.3470761835605
 10
96.65857653387774
 20
-114.4646403953491
 10
99.72286550567204
 20
-113.9312817686432
 10
102.8210993760978
 20
-113.7528438921695
 10
105.9193332465237
 20
-113.9312817686432
 10
108.983622218318
 20
-114.4646403953491
 10
111.9803933002621
 20
-115.3470761835607
 10
114.8768132412676
 20
-116.5689209821205
 10
115.0275882370379
 20
-116.6432467794423
  0
LWPOLYLINE
  5
279
330
A
100
AcDbEntity
  8
0
  6
Continuous
 62
     7
100
AcDbPolyline
 90
       20
 70
   128
 43
0.0
 10
103.3655304157912
 20
-158.823689146862
 10
102.1281108286334
 20
-158.7245216243615
 10
100.2421597734888
 20
-158.2778503678661
 10
98.452027389798
 20
-157.4873394104951
 10
96.80921252695382
 20
-156.3757303132122
 10
95.36097597749479
 20
-154.9750020458448
 10
94.14898087015128
 20
-153.3254510103454
 10
93.20809409748752
 20
-151.4745317866754
 10
92.56538325888497
 20
-149.4754919509395
 10
92.2393379749894
 20
-147.3858402395693
 10
92.2393379749894
 20
-145.2656921276816
 10
92.56538325888493
 20
-143.1760404163114
 10
93.20809409748756
 20
-141.1770005805755
 10
94.14898087015124
 20
-139.3260813569055
 10
95.36097597749479
 20
-137.6765303214061
 10
96.80921252695378
 20
-136.2758020540387
 10
98.452027389798
 20
-135.1641929567559
 10
100.2421597734888
 20
-134.3736819993848
 10
102.1281108286334
 20
-133.9270107428895
 10
103.3655304157908
 20
-133.827843220389
  0
LWPOLYLINE
  5
28F
330
A
100
AcDbEntity
  8
0
  6
Continuous
 62
     7
100
AcDbPolyline
 90
       38
 70
   128
 43
0.0
 10
114.5326996804442
 20
-146.3257661836254
 10
114.3690876241893
 20
-148.4382764376486
 10
113.882958276395
 20
-150.4900136179012
 10
113.0882966933039
 20
-152.4219529812959
 10
112.007963841825
 20
-154.178516149821
 10
110.6730389311381
 20
-155.7091699992845
 10
109.1219253204321
 20
-156.9698804052919
 10
107.3992457241815
 20
-157.9243790248319
 10
105.5545584978956
 20
-158.5452066704716
 10
103.6409319344612
 20
-158.814503261184
 10
101.713417585977
 20
-158.7245216243615
 10
99.82746653083244
 20
-158.2778503678662
 10
98.03733414714159
 20
-157.4873394104951
 10
96.39451928429741
 20
-156.3757303132122
 10
94.94628273483838
 20
-154.9750020458448
 10
93.73428762749487
 20
-153.3254510103454
 10
92.79340085483111
 20
-151.4745317866754
 10
92.15069001622856
 20
-149.4754919509395
 10
91.82464473233299
 20
-147.3858402395693
 10
91.82464473233299
 20
-145.2656921276816
 10
92.15069001622852
 20
-143.1760404163114
 10
92.79340085483115
 20
-141.1770005805755
 10
93.73428762749483
 20
-139.3260813569055
 10
94.94628273483838
 20
-137.6765303214061
 10
96.39451928429737
 20
-136.2758020540387
 10
98.03733414714159
 20
-135.1641929567559
 10
99.82746653083244
 20
-134.3736819993848
 10
101.713417585977
 20
-133.9270107428895
 10
103.6409319344612
 20
-133.837029106067
 10
105.5545584978956
 20
-134.1063256967794
 10
107.3992457241815
 20
-134.7271533424192
 10
109.1219253204321
 20
-135.6816519619592
 10
110.6730389311381
 20
-136.9423623679665
 10
112.0079638418249
 20
-138.4730162174301
 10
113.0882966933039
 20
-140.2295793859552
 10
113.8829582763949
 20
-142.1615187493499
 10
114.3690876241892
 20
-144.2132559296025
 10
114.5326996804442
 20
-146.3257661836254
  0
LINE
  5
2B7
330
A
100
AcDbEntity
  8
0
  6
Continuous
 62
     7
100
AcDbLine
 10
70.5148857912839
 20
-120.8757661836256
 30
0.0
 11
70.51488579128434
 21
-171.7757661836255
 31
0.0
  0
LINE
  5
2B8
330
A
100
AcDbEntity
  8
0
  6
Continuous
 62
     7
100
AcDbLine
 10
71.31488579128411
 20
-143.2065227659544
 30
0.0
 11
71.31488579128393
 21
-120.0757661836256
 31
0.0
  0
LINE
  5
2B9
330
A
100
AcDbEntity
  8
0
  6
Continuous
 62
     7
100
AcDbLine
 10
71.31488579128436
 20
-172.5757661836255
 30
0.0
 11
71.31488579128417
 21
-149.445009601297
 31
0.0
  0
LINE
  5
2BA
330
A
100
AcDbEntity
  8
0
  6
Continuous
 62
     7
100
AcDbLine
 10
30.51488579128381
 20
-122.3757661836258
 30
0.0
 11
30.5148857912842
 21
-170.2757661836258
 31
0.0
  0
LWPOLYLINE
  5
2BB
330
A
100
AcDbEntity
  8
0
  6
Continuous
 62
     7
100
AcDbPolyline
 90
       11
 70
   128
 43
0.0
 10
33.01488579128381
 20
-122.3757661836258
 10
33.41469566419553
 20
-122.4979421150961
 10
34.55916130927317
 20
-122.8135745778732
 10
36.37740684286462
 20
-123.2071323129012
 10
38.7239478302156
 20
-123.5099830767413
 10
41.21714123357489
 20
-123.5695436784245
 10
43.53500333164094
 20
-123.3807534366784
 10
45.55840576699776
 20
-123.027920923915
 10
47.11248129297141
 20
-122.6428447759131
 10
47.92729863048966
 20
-122.4030496970135
 10
47.91319265684662
 20
-122.4074122850286
  0
LINE
  5
2C8
330
A
100
AcDbEntity
  8
0
  6
Continuous
 62
     7
100
AcDbLine
 10
50.51488579128421
 20
-170.2757661836257
 30
0.0
 11
50.51488579128382
 21
-122.3757661836257
 31
0.0
  0
LWPOLYLINE
  5
2C9
330
A
100
AcDbEntity
  8
0
  6
Continuous
 62
     7
100
AcDbPolyline
 90
       12
 70
   128
 43
0.0
 10
47.91319265684707
 20
-170.2441200822228
 10
47.89682943190515
 20
-170.2390593887304
 10
47.10192278469238
 20
-170.0057483701167
 10
45.60286366452748
 20
-169.6332761072237
 10
43.47361781889203
 20
-169.2627798342995
 10
40.99659552678336
 20
-169.0762506679016
 10
38.57182773607127
 20
-169.1539937671665
 10
36.39512902139685
 20
-169.4412349403487
 10
34.58448686526416
 20
-169.8315555007652
 10
33.3865818213478
 20
-170.1619826931269
 10
33.01488579128437
 20
-170.2757661836258
 10
33.01488579128437
 20
-170.2757661836258
  0
LINE
  5
2D7
330
A
100
AcDbEntity
  8
0
  6
Continuous
 62
     7
100
AcDbLine
 10
-11.48511420871606
 20
-135.0757661836262
 30
0.0
 11
-11.48511420871589
 21
-157.5757661836261
 31
0.0
  0
LINE
  5
2D8
330
A
100
AcDbEntity
  8
0
  6
Continuous
 62
     7
100
AcDbLine
 10
-20.48511420871591
 20
-140.0757661836262
 30
0.0
 11
-20.48511420871591
 21
-152.5757661836262
 31
0.0
  0
LINE
  5
2D9
330
A
100
AcDbEntity
  8
0
  6
PHANTOM
 62
     7
100
AcDbLine
 10
-55.98065317665332
 20
-203.8257661836291
 30
0.0
 11
-55.98065317665332
 21
-88.82576618362911
 31
0.0
  0
LINE
  5
2DA
330
A
100
AcDbEntity
  8
0
  6
PHANTOM
 62
     7
100
AcDbLine
 10
-44.98065317665325
 20
-138.8257661836291
 30
0.0
 11
-44.98065317665325
 21
-146.3257661836291
 31
0.0
  0
LINE
  5
2DB
330
A
100
AcDbEntity
  8
0
  6
PHANTOM
 62
     7
100
AcDbLine
 10
-44.98065317665325
 20
-146.3257661836291
 30
0.0
 11
-47.48065317665325
 21
-146.3257661836291
 31
0.0
  0
LINE
  5
2DC
330
A
100
AcDbEntity
  8
0
  6
PHANTOM
 62
     7
100
AcDbLine
 10
-44.98065317665325
 20
-146.3257661836291
 30
0.0
 11
-44.98065317665325
 21
-153.8257661836291
 31
0.0
  0
LINE
  5
2DD
330
A
100
AcDbEntity
  8
0
  6
PHANTOM
 62
     7
100
AcDbLine
 10
-29.40647721232576
 20
-138.8257661836291
 30
0.0
 11
-29.40647721232576
 21
-146.3257661836291
 31
0.0
  0
LINE
  5
2DE
330
A
100
AcDbEntity
  8
0
  6
PHANTOM
 62
     7
100
AcDbLine
 10
-44.98065317665325
 20
-146.3257661836291
 30
0.0
 11
-29.40647721232576
 21
-146.3257661836291
 31
0.0
  0
LWPOLYLINE
  5
2DF
330
A
100
AcDbEntity
  8
0
  6
PHANTOM
 62
     7
100
AcDbPolyline
 90
        9
 70
   128
 43
0.0
 10
-28.47800052144051
 20
-138.8257661836291
 10
-27.93459007161268
 20
-138.9698765806048
 10
-27.41206258062365
 20
-139.3966696897944
 10
-26.93049848691533
 20
-140.08974409136
 10
-26.50840402854467
 20
-141.02246532473
 10
-26.16200005883355
 20
-142.1589894359821
 10
-25.9045986880724
 20
-143.4556404408909
 10
-25.74609170658721
 20
-144.8625887685081
 10
-25.69257044878473
 20
-146.3257661836291
  0
LINE
  5
2EA
330
A
100
AcDbEntity
  8
0
  6
PHANTOM
 62
     7
100
AcDbLine
 10
-29.40647721232576
 20
-146.3257661836291
 30
0.0
 11
-25.69257044878473
 21
-146.3257661836291
 31
0.0
  0
LWPOLYLINE
  5
2EB
330
A
100
AcDbEntity
  8
0
  6
PHANTOM
 62
     7
100
AcDbPolyline
 90
        9
 70
   128
 43
0.0
 10
-25.69257044878473
 20
-146.3257661836291
 10
-25.74609170658721
 20
-147.78894359875
 10
-25.9045986880724
 20
-149.1958919263673
 10
-26.16200005883354
 20
-150.4925429312761
 10
-26.50840402854465
 20
-151.6290670425282
 10
-26.93049848691531
 20
-152.5617882758982
 10
-27.41206258062365
 20
-153.2548626774637
 10
-27.93459007161267
 20
-153.6816557866533
 10
-28.47800052144051
 20
-153.8257661836291
  0
LINE
  5
2F6
330
A
100
AcDbEntity
  8
0
  6
PHANTOM
 62
     7
100
AcDbLine
 10
-29.40647721232576
 20
-146.3257661836291
 30
0.0
 11
-29.40647721232576
 21
-153.8257661836291
 31
0.0
  0
LINE
  5
2F7
330
A
100
AcDbEntity
  8
0
  6
PHANTOM
 62
     7
100
AcDbLine
 10
-25.69257044878473
 20
-146.3257661836291
 30
0.0
 11
-20.48511420871591
 21
-146.3257661836291
 31
0.0
  0
LWPOLYLINE
  5
2F8
330
A
100
AcDbEntity
  8
0
  6
PHANTOM
 62
     7
100
AcDbPolyline
 90
       31
 70
   128
 43
0.0
 10
104.5439601489976
 20
-112.2154326023474
 10
107.0173013964115
 20
-112.5211695882061
 10
110.1051496073696
 20
-113.2185277713351
 10
113.1129567930412
 20
-114.255611021826
 10
116.009858781488
 20
-115.6217774621307
 10
118.7661294381737
 20
-117.3030083758532
 10
121.3534856963306
 20
-119.2820520587497
 10
123.7453777794977
 20
-121.5386008445598
 10
125.9172616381543
 20
-124.0494994891427
 10
127.8468508048823
 20
-126.7889827746161
 10
129.5143450836798
 20
-129.728939895358
 10
130.9026337267659
 20
-132.8392029129118
 10
131.997471014008
 20
-136.0878563198593
 10
132.7876224332872
 20
-139.4415645361145
 10
133.2649799617963
 20
-142.8659139770864
 10
133.4246452653246
 20
-146.3257661836256
 10
133.2649799617963
 20
-149.7856183901647
 10
132.7876224332873
 20
-153.2099678311366
 10
131.997471014008
 20
-156.5636760473919
 10
130.9026337267659
 20
-159.8123294543392
 10
129.5143450836798
 20
-162.9225924718931
 10
127.8468508048824
 20
-165.862549592635
 10
125.9172616381543
 20
-168.6020328781084
 10
123.7453777794977
 20
-171.1129315226912
 10
121.3534856963307
 20
-173.3694803085014
 10
118.7661294381738
 20
-175.3485239913979
 10
116.0098587814881
 20
-177.0297549051204
 10
113.1129567930413
 20
-178.3959213454251
 10
110.1051496073696
 20
-179.433004595916
 10
107.0173013964115
 20
-180.130362779045
 10
104.7110370499647
 20
-180.4223579334787
  0
LWPOLYLINE
  5
319
330
A
100
AcDbEntity
  8
0
  6
PHANTOM
 62
     7
100
AcDbPolyline
 90
       21
 70
   128
 43
0.0
 10
86.11636421650498
 20
-173.8065905200322
 10
84.84245525472401
 20
-172.8438888386363
 10
82.41617595564349
 20
-170.6847175647047
 10
80.20856164569336
 20
-168.2586645220036
 10
78.24379940922638
 20
-165.5923100553533
 10
76.54341559245823
 20
-162.7148673022608
 10
75.12603995631362
 20
-159.6578621276726
 10
74.00720156486709
 20
-156.454787720001
 10
73.19915864566728
 20
-153.1407376327428
 10
72.71076428603082
 20
-149.7520212921637
 10
72.54736943676492
 20
-146.3257661836254
 10
72.7107642860308
 20
-142.8995110750872
 10
73.19915864566725
 20
-139.5107947345081
 10
74.00720156486706
 20
-136.1967446472499
 10
75.12603995631362
 20
-132.9936702395783
 10
76.5434155924582
 20
-129.9366650649902
 10
78.24379940922636
 20
-127.0592223118977
 10
80.20856164569329
 20
-124.3928678452473
 10
82.41617595564347
 20
-121.9668148025463
 10
84.84245525472394
 20
-119.8076435286147
 10
85.11844148751606
 20
-119.5899154488666
  0
LWPOLYLINE
  5
330
330
A
100
AcDbEntity
  8
0
  6
PHANTOM
 62
     7
100
AcDbPolyline
 90
       25
 70
   128
 43
0.0
 10
93.11450235621881
 20
-177.1025339873149
 10
90.76538551092815
 20
-176.0826113851306
 10
88.00105049384972
 20
-174.5347443635229
 10
85.39908703361986
 20
-172.677813873868
 10
82.98800278640461
 20
-170.5321648351983
 10
80.79421409576834
 20
-168.1213054273874
 10
78.84175656968547
 20
-165.4716495306121
 10
77.15202174138972
 20
-162.6122273293535
 10
75.74352269925963
 20
-159.5743672516212
 10
74.63169125354824
 20
-156.3913527281399
 10
73.82870886224036
 20
-153.0980575321176
 10
73.34337316845005
 20
-149.7305636948881
 10
73.18100161160152
 20
-146.3257661836254
 10
73.34337316845005
 20
-142.9209686723629
 10
73.82870886224033
 20
-139.5534748351333
 10
74.63169125354818
 20
-136.2601796391109
 10
75.74352269925963
 20
-133.0771651156297
 10
77.15202174138969
 20
-130.0393050378974
 10
78.84175656968543
 20
-127.1798828366388
 10
80.79421409576834
 20
-124.5302269398635
 10
82.98800278640458
 20
-122.1193675320526
 10
85.3990870336198
 20
-119.9737184933829
 10
88.00105049384971
 20
-118.1167880037281
 10
90.76538551092811
 20
-116.5689209821204
 10
92.08680815947639
 20
-115.9639548197747
  0
LWPOLYLINE
  5
34B
330
A
100
AcDbEntity
  8
0
  6
PHANTOM
 62
     7
100
AcDbPolyline
 90
       27
 70
   128
 43
0.0
 10
131.9043976522506
 20
-146.3257661836253
 10
131.6910857742836
 20
-142.482801667907
 10
131.0274285192488
 20
-138.5811142520498
 10
129.8860771392745
 20
-134.6974369572793
 10
128.6829637076437
 20
-131.7942010459063
 10
127.2186357579665
 20
-129.0390869596729
 10
123.4848265467505
 20
-123.9878454359846
 10
121.2834618670267
 20
-121.8056159497682
 10
118.8883923903506
 20
-119.884583758024
 10
116.381771618767
 20
-118.2756054620329
 10
113.7395130354644
 20
-116.9532047348945
 10
110.2059251347168
 20
-115.6990485587191
 10
106.6553483539197
 20
-114.9695943449283
 10
103.1581837944876
 20
-114.7351757070965
 10
99.66144759641665
 20
-114.9695510945084
 10
96.11085047925744
 20
-115.698919067614
 10
92.57685455351122
 20
-116.9532047348947
 10
89.93502231346957
 20
-118.2753636779924
 10
87.42797519862472
 20
-119.8845837580241
 10
82.83154104222484
 20
-123.9878454359848
 10
80.84579672535136
 20
-126.407030461095
 10
79.09773183100881
 20
-129.0390869596732
 10
77.63362389512012
 20
-131.7937325179932
 10
76.43029044970146
 20
-134.6974369572796
 10
75.28905690156723
 20
-138.5806658538134
 10
74.62528181831612
 20
-142.4825646415728
 10
74.41196993672521
 20
-146.3257661836256
  0
LWPOLYLINE
  5
368
330
A
100
AcDbEntity
  8
0
  6
PHANTOM
 62
     7
100
AcDbPolyline
 90
       27
 70
   128
 43
0.0
 10
74.41196993672521
 20
-146.3257661836256
 10
74.62528181469524
 20
-150.1687306989607
 10
75.28893906988193
 20
-154.0704181165478
 10
76.43029044970146
 20
-157.9540954099716
 10
77.63340388206469
 20
-160.8573313223038
 10
79.09773183100927
 20
-163.6124454075781
 10
82.83154104222528
 20
-168.6636869312664
 10
85.03290572138149
 20
-170.8459164170514
 10
87.42797519862516
 20
-172.766948609227
 10
89.93459597010639
 20
-174.3759269051677
 10
92.57685455351143
 20
-175.6983276323564
 10
96.11044245421112
 20
-176.952483808516
 10
99.66101923498611
 20
-177.6819380223143
 10
103.1581837944881
 20
-177.9163566601545
 10
106.6549199922647
 20
-177.681981272751
 10
110.2055171088695
 20
-176.9526132998641
 10
113.7395130354647
 20
-175.6983276323563
 10
116.3813452764594
 20
-174.3761686890105
 10
118.8883923903509
 20
-172.7669486092268
 10
123.4848265467509
 20
-168.6636869312662
 10
125.4705708641639
 20
-166.2445019052443
 10
127.2186357579669
 20
-163.6124454075778
 10
128.6827436932117
 20
-160.8577998503447
 10
129.8860771392744
 20
-157.9540954099714
 10
131.0273106872383
 20
-154.0708665145075
 10
131.6910857706627
 20
-150.1689677256037
 10
131.9043976522506
 20
-146.3257661836253
  0
LINE
  5
385
330
A
100
AcDbEntity
  8
0
  6
PHANTOM
 62
     7
100
AcDbLine
 10
-1.485114208715998
 20
-125.0757661836261
 30
0.0
 11
-1.485114208715776
 21
-167.5757661836261
 31
0.0
  0
LWPOLYLINE
  5
386
330
A
100
AcDbEntity
  8
0
  6
PHANTOM
 62
     7
100
AcDbPolyline
 90
       28
 70
   128
 43
0.0
 10
75.13072463291276
 20
-120.0757661836255
 10
75.20915981183279
 20
-119.8229470951704
 10
77.92840543536256
 20
-113.256555483593
 10
81.28868464999122
 20
-106.926663939895
 10
85.2618005942028
 20
-100.9443010828806
 10
89.7986320473751
 20
-95.41407793819372
 10
94.83092092834516
 20
-90.42833667823641
 10
100.2746394365585
 20
-86.06208937588219
 10
106.0345955901728
 20
-82.36931769188286
 10
112.0097576461169
 20
-79.38100850713003
 10
120.0640376965333
 20
-76.52237400254989
 10
128.1564024692771
 20
-74.85997277087616
 10
136.1262965856584
 20
-74.32576618362488
 10
142.1124814251486
 20
-74.626293882373
 10
148.0480083762967
 20
-75.52777965763145
 10
154.2309362846459
 20
-77.12849757958199
 10
160.2428355252
 20
-79.38100850712977
 10
166.2179975811438
 20
-82.36931769188254
 10
171.9779537347579
 20
-86.06208937588183
 10
177.4216722429714
 20
-90.42833667823598
 10
182.4539611239416
 20
-95.41407793819326
 10
186.9907925771141
 20
-100.9443010828801
 10
190.9639085213257
 20
-106.9266639398944
 10
194.3241877359545
 20
-113.2565554835924
 10
197.0434333594844
 20
-119.8229470951698
 10
199.6446800464665
 20
-128.6741809995946
 10
201.1573614296156
 20
-137.5670343060638
 10
201.64350808877
 20
-146.3257661836247
  0
LWPOLYLINE
  5
3A4
330
A
100
AcDbEntity
  8
0
  6
PHANTOM
 62
     7
100
AcDbPolyline
 90
       29
 70
   128
 43
0.0
 10
201.64350808877
 20
-146.3257661836247
 10
201.3700395218356
 20
-152.9042712654615
 10
200.5497223803523
 20
-159.4271059572991
 10
199.0931310643952
 20
-166.2218214134103
 10
197.0434333594846
 20
-172.8285852720796
 10
194.3241877359549
 20
-179.394976883657
 10
190.963908521326
 20
-185.7248684273551
 10
186.9907925771147
 20
-191.7072312843694
 10
182.4539611239424
 20
-197.2374544290563
 10
177.4216722429725
 20
-202.2231956890137
 10
171.9779537347587
 20
-206.5894429913679
 10
166.2179975811447
 20
-210.2822146753672
 10
160.2428355252005
 20
-213.27052386012
 10
152.1885554748292
 20
-216.1291583648001
 10
144.0961907017239
 20
-217.7915595963355
 10
136.1262965856592
 20
-218.3257661836252
 10
130.1401117464414
 20
-218.0252384849203
 10
124.204584795021
 20
-217.1237527096186
 10
118.0216568859862
 20
-215.5230347875416
 10
112.0097576461176
 20
-213.2705238601203
 10
106.0345955901737
 20
-210.2822146753675
 10
100.2746394365594
 20
-206.5894429913682
 10
94.83092092834615
 20
-202.2231956890141
 10
89.79863204737597
 20
-197.2374544290568
 10
85.26180059420324
 20
-191.70723128437
 10
81.28868464999166
 20
-185.7248684273556
 10
77.92840543536289
 20
-179.3949768836576
 10
75.20915981183323
 20
-172.8285852720802
 10
75.13486002228091
 20
-172.5757661836255
  0
LINE
  5
3C3
330
A
100
AcDbEntity
  8
0
  6
Continuous
 62
     7
100
AcDbLine
 10
-287.7843648044517
 20
106.623069288668
 30
0.0
 11
-287.7843648044517
 21
63.62306928866798
 31
0.0
  0
LINE
  5
3C4
330
A
100
AcDbEntity
  8
0
  6
Continuous
 62
     7
100
AcDbLine
 10
-265.7843648044517
 20
63.62306928866798
 30
0.0
 11
-265.7843648044517
 21
106.623069288668
 31
0.0
  0
ARC
  5
3C5
330
A
100
AcDbEntity
  8
0
  6
Continuous
 62
     7
100
AcDbCircle
 10
-276.7843648044518
 20
63.62306928866798
 30
0.0
 40
11.0
100
AcDbArc
 50
180.0000000000004
 51
0.0
  0
LINE
  5
3C6
330
A
100
AcDbEntity
  8
0
  6
Continuous
 62
     7
100
AcDbLine
 10
-272.2843648044517
 20
106.623069288668
 30
0.0
 11
-272.2843648044517
 21
129.123069288668
 31
0.0
  0
LINE
  5
3C7
330
A
100
AcDbEntity
  8
0
  6
Continuous
 62
     7
100
AcDbLine
 10
-281.2843648044517
 20
129.123069288668
 30
0.0
 11
-281.2843648044517
 21
106.623069288668
 31
0.0
  0
LINE
  5
3C8
330
A
100
AcDbEntity
  8
0
  6
Continuous
 62
     7
100
AcDbLine
 10
-272.2266553160729
 20
129.123069288668
 30
0.0
 11
-272.2266553160729
 21
129.431327212113
 31
0.0
  0
LWPOLYLINE
  5
3C9
330
A
100
AcDbEntity
  8
0
  6
Continuous
 62
     7
100
AcDbPolyline
 90
       52
 70
   128
 43
0.0
 10
-276.7843648044475
 20
212.727163998182
 10
-281.8033882698622
 20
212.6555658735574
 10
-283.8043837782808
 20
212.5869385579035
 10
-287.1129305201559
 20
212.4227971743834
 10
-290.5140084120424
 20
212.1872610059774
 10
-294.1180221536353
 20
211.8619810910784
 10
-297.8212184544426
 20
211.4439424919702
 10
-301.5730252507978
 20
210.9300437044725
 10
-305.3302299814737
 20
210.3193011520075
 10
-309.0582886342693
 20
209.6119605274222
 10
-312.7284637656745
 20
208.8092432748133
 10
-316.3163689549902
 20
207.9131112013987
 10
-319.8009883146487
 20
206.9260882453724
 10
-323.1640331186223
 20
205.8511096519539
 10
-326.3895071335393
 20
204.6913846374642
 10
-329.463400454296
 20
203.4502624273546
 10
-332.373456264847
 20
202.1310950702115
 10
-335.1089684410637
 20
200.7370939009635
 10
-337.6605740028779
 20
199.2711814275183
 10
-340.0200063046033
 20
197.7358484495616
 10
-342.1797763519979
 20
196.1330391587432
 10
-344.1324837128974
 20
194.4643570694403
 10
-345.8702073791116
 20
192.7314733727418
 10
-347.384999795196
 20
190.9355826723069
 10
-348.6680224416713
 20
189.0781173361052
 10
-349.7094821492836
 20
187.1608731639137
 10
-350.4985914922168
 20
185.1857321697744
 10
-351.0231218241758
 20
183.1539325715146
 10
-351.2680834843212
 20
181.0653185618133
 10
-351.2135698337913
 20
178.9181933214052
 10
-350.8327344805968
 20
176.7114721547629
 10
-350.0929248210629
 20
174.4506014148767
 10
-349.1298650018842
 20
172.4483931627821
 10
-347.885808165219
 20
170.4810889358064
 10
-346.3673855113784
 20
168.5609185041015
 10
-344.5843712368678
 20
166.6985227385719
 10
-342.548084789725
 20
164.9020845581272
 10
-340.2699865932361
 20
163.1774501885287
 10
-337.7621647526781
 20
161.5295468186966
 10
-335.0354537339513
 20
159.9617168405606
 10
-332.1003592635086
 20
158.4769247903289
 10
-328.9679439297866
 20
157.0783062441677
 10
-325.6500018874926
 20
155.7691212118184
 10
-322.1592486989716
 20
154.5526985512631
 10
-318.5095019408576
 20
153.432361215715
 10
-314.7159178861248
 20
152.411352066559
 10
-310.795388036447
 20
151.4927686552582
 10
-306.7673025312781
 20
150.6795113012321
 10
-302.6551656990319
 20
149.9742499355109
 10
-298.4903761373145
 20
149.3794254002775
 10
-294.3223624698035
 20
148.897343998429
 10
-292.3020209877194
 20
148.7153361851045
  0
LWPOLYLINE
  5
3FF
330
A
100
AcDbEntity
  8
0
  6
Continuous
 62
     7
100
AcDbPolyline
 90
       10
 70
   128
 43
0.0
 10
-290.2545104469681
 20
148.5308807751722
 10
-290.2519818964641
 20
148.5306529840032
 10
-286.3608363890799
 20
148.2728077659996
 10
-283.5750497776142
 20
148.1425308462371
 10
-280.6728099861977
 20
148.0542918882777
 10
-276.7843648044479
 20
148.0113370556842
 10
-271.7653413390348
 20
148.0829351803088
 10
-269.7643458306172
 20
148.1515624959627
 10
-266.4557990887482
 20
148.3157038794823
 10
-263.3138701479144
 20
148.5332931049137
  0
LWPOLYLINE
  5
40B
330
A
100
AcDbEntity
  8
0
  6
Continuous
 62
     7
100
AcDbPolyline
 90
       52
 70
   128
 43
0.0
 10
-261.2671072430032
 20
148.7125809739985
 10
-259.4507074552627
 20
148.8765199627876
 10
-255.7475111544559
 20
149.2945585618957
 10
-251.9957043581009
 20
149.8084573493932
 10
-248.2384996274209
 20
150.4191999018588
 10
-244.5104409746265
 20
151.126540526444
 10
-240.8402658432259
 20
151.9292577790519
 10
-237.2523606539103
 20
152.8253898524662
 10
-233.7677412942511
 20
153.8124128084924
 10
-230.4046964902767
 20
154.8873914019111
 10
-227.1792224753589
 20
156.047116416401
 10
-224.105329154603
 20
157.2882386265103
 10
-221.195273344052
 20
158.607405983653
 10
-218.4597611678338
 20
160.0014071529016
 10
-215.9081556060203
 20
161.4673196263463
 10
-213.5487233042932
 20
163.0026526043039
 10
-211.3889532568989
 20
164.6054618951223
 10
-209.4362458959975
 20
166.2741439844265
 10
-207.6985222297837
 20
168.0070276811245
 10
-206.1837298136998
 20
169.8029183815589
 10
-204.9007071672243
 20
171.660383717761
 10
-203.8592474596121
 20
173.5776278899523
 10
-203.0701381166786
 20
175.5527688840922
 10
-202.5456077847197
 20
177.5845684823516
 10
-202.3006461245744
 20
179.6731824920522
 10
-202.3551597751041
 20
181.8203077324614
 10
-202.7359951282991
 20
184.027028899105
 10
-203.4758047878331
 20
186.2878996389907
 10
-204.4388646070121
 20
188.2901078910859
 10
-205.6829214436778
 20
190.2574121180616
 10
-207.2013440975187
 20
192.1775825497664
 10
-208.9843583720302
 20
194.0399783152967
 10
-211.0206448191743
 20
195.8364164957421
 10
-213.298743015664
 20
197.5610508653407
 10
-215.8065648562221
 20
199.2089542351724
 10
-218.5332758749499
 20
200.7767842133088
 10
-221.4683703453937
 20
202.2615762635404
 10
-224.6007856791147
 20
203.6601948097009
 10
-227.9187277214081
 20
204.9693798420498
 10
-231.4094809099294
 20
206.1858025026048
 10
-235.0592276680453
 20
207.3061398381534
 10
-238.8528117227784
 20
208.3271489873092
 10
-242.7733415724552
 20
209.2457323986096
 10
-246.8014270776252
 20
210.0589897526355
 10
-250.9135639098716
 20
210.7642511183565
 10
-255.0783534715875
 20
211.3590756535895
 10
-259.2463671390984
 20
211.8411570554378
 10
-263.3167477124382
 20
212.2078480698636
 10
-267.207893219819
 20
212.4656932878668
 10
-269.9936798312805
 20
212.5959702076291
 10
-272.8959196226895
 20
212.6842091655884
 10
-276.7843648044475
 20
212.727163998182
  0
LINE
  5
441
330
A
100
AcDbEntity
  8
0
  6
Continuous
 62
     7
100
AcDbLine
 10
-211.0400280053202
 20
195.8510905379196
 30
0.0
 11
-243.3112990851019
 21
259.7649178440331
 31
0.0
  0
LINE
  5
442
330
A
100
AcDbEntity
  8
0
  6
Continuous
 62
     7
100
AcDbLine
 10
-310.2574305237937
 20
259.764917844033
 30
0.0
 11
-342.5431111728645
 21
195.8225521292269
 31
0.0
  0
LWPOLYLINE
  5
443
330
A
100
AcDbEntity
  8
0
  6
Continuous
 62
     7
100
AcDbPolyline
 90
       12
 70
   128
 43
0.0
 10
-276.7843648044478
 20
271.226930711332
 10
-280.1945371218593
 20
271.1554648588702
 10
-281.5445623661584
 20
271.0873433129523
 10
-283.7632897507491
 20
270.9251551916299
 10
-286.0181553433449
 20
270.694251231237
 10
-288.3732123689648
 20
270.3782198769723
 10
-290.7480359579748
 20
269.9764349613911
 10
-293.09916864729
 20
269.4885370849777
 10
-295.3892247465191
 20
268.9165640298208
 10
-297.5880415692521
 20
268.2639317456091
 10
-299.6708616982079
 20
267.5350497896682
 10
-300.7460086331844
 20
267.0931161293615
  0
LWPOLYLINE
  5
451
330
A
100
AcDbEntity
  8
0
  6
Continuous
 62
     7
100
AcDbPolyline
 90
       11
 70
   128
 43
0.0
 10
-252.851323595324
 20
267.1109187421612
 10
-254.7208674479127
 20
267.8372828483764
 10
-257.0822757097251
 20
268.6045948487377
 10
-259.5809171484977
 20
269.2786198054045
 10
-262.1861182571481
 20
269.853981618049
 10
-264.8541693902829
 20
270.3257638087091
 10
-267.5074202271984
 20
270.6891620322538
 10
-270.1413922294562
 20
270.9537892794052
 10
-272.0569349201761
 20
271.0892678656559
 10
-273.9998470337415
 20
271.1793228526519
 10
-276.7843648044478
 20
271.226930711332
  0
LWPOLYLINE
  5
45E
330
A
100
AcDbEntity
  8
0
  6
Continuous
 62
     7
100
AcDbPolyline
 90
        9
 70
   128
 43
0.0
 10
-276.7843648044478
 20
77.75116849220117
 10
-275.3455364448636
 20
77.91291336588948
 10
-274.7907511119076
 20
78.06612298562862
 10
-273.911807996536
 20
78.42784408234246
 10
-273.0745577703321
 20
78.93809814668165
 10
-272.2876330043736
 20
79.6253777741062
 10
-271.6160576015298
 20
80.48057821291925
 10
-271.1126697885922
 20
81.48927707632211
 10
-270.8442226059321
 20
82.56489843471557
  0
LWPOLYLINE
  5
469
330
A
100
AcDbEntity
  8
0
  6
Continuous
 62
     7
100
AcDbPolyline
 90
        9
 70
   128
 43
0.0
 10
-282.7116021072895
 20
82.56647621295929
 10
-282.4447123398916
 20
81.4591339647843
 10
-281.8887706210224
 20
80.38265438635747
 10
-281.1125072017611
 20
79.45610618127705
 10
-280.1869869607257
 20
78.72897026499384
 10
-279.2609704195186
 20
78.24547156899228
 10
-278.531249887476
 20
77.99131670211321
 10
-277.680878314398
 20
77.81339491239939
 10
-276.7843648044478
 20
77.75116849220117
  0
LWPOLYLINE
  5
474
330
A
100
AcDbEntity
  8
0
  6
Continuous
 62
     7
100
AcDbPolyline
 90
        8
 70
   128
 43
0.0
 10
-276.7843648044478
 20
79.75116849220123
 10
-277.9306508686022
 20
79.90044541170385
 10
-278.3666032132493
 20
80.04141613508206
 10
-279.0393405879144
 20
80.37036949782935
 10
-279.6501185681373
 20
80.8263517753879
 10
-280.1812794564862
 20
81.42867066579192
 10
-280.5732341226703
 20
82.16455154035454
 10
-280.7331777157942
 20
82.8547070718926
  0
LWPOLYLINE
  5
47E
330
A
100
AcDbEntity
  8
0
  6
Continuous
 62
     7
100
AcDbPolyline
 90
        8
 70
   128
 43
0.0
 10
-272.8441872733721
 20
82.85078435452971
 10
-272.859323296257
 20
82.61802901496077
 10
-273.1925709384775
 20
81.74066943530213
 10
-273.7447389308629
 20
80.99549610907484
 10
-274.4247639922058
 20
80.43604816749535
 10
-275.0559438359967
 20
80.10053184203583
 10
-275.6608332858665
 20
79.89445540121391
 10
-276.7843648044478
 20
79.75116849220123
  0
LINE
  5
488
330
A
100
AcDbEntity
  8
0
  6
Continuous
 62
     7
100
AcDbLine
 10
-262.8626510552364
 20
151.6520482105235
 30
0.0
 11
-272.8168359499722
 21
82.85029432552068
 31
0.0
  0
LINE
  5
489
330
A
100
AcDbEntity
  8
0
  6
Continuous
 62
     7
100
AcDbLine
 10
-270.8375145808113
 20
82.56344172802256
 30
0.0
 11
-260.9950271283305
 21
150.5931557558267
 31
0.0
  0
LINE
  5
48A
330
A
100
AcDbEntity
  8
0
  6
Continuous
 62
     7
100
AcDbLine
 10
-292.5763333761395
 20
150.6113400905259
 30
0.0
 11
-282.7311970955518
 21
82.56332052552677
 31
0.0
  0
LINE
  5
48B
330
A
100
AcDbEntity
  8
0
  6
Continuous
 62
     7
100
AcDbLine
 10
-280.7518936589236
 20
82.85029432552084
 30
0.0
 11
-290.7056087839191
 21
151.6488012362702
 31
0.0
  0
ARC
  5
48C
330
A
100
AcDbEntity
  8
0
  6
Continuous
 62
     7
100
AcDbCircle
 10
-276.7843648044501
 20
206.3635932886702
 30
0.0
 40
27.50000000000005
100
AcDbArc
 50
181.4035491918088
 51
358.5964508081977
  0
LINE
  5
48D
330
A
100
AcDbEntity
  8
0
  6
Continuous
 62
     7
100
AcDbLine
 10
-287.7843648044517
 20
106.623069288668
 30
0.0
 11
-286.2121441507706
 21
106.623069288668
 31
0.0
  0
LINE
  5
48E
330
A
100
AcDbEntity
  8
0
  6
Continuous
 62
     7
100
AcDbLine
 10
-284.1913204770195
 20
106.623069288668
 30
0.0
 11
-269.3774091318762
 21
106.623069288668
 31
0.0
  0
LINE
  5
48F
330
A
100
AcDbEntity
  8
0
  6
Continuous
 62
     7
100
AcDbLine
 10
-267.3565854581251
 20
106.623069288668
 30
0.0
 11
-265.7843648044517
 21
106.623069288668
 31
0.0
  0
LINE
  5
490
330
A
100
AcDbEntity
  8
0
  6
Continuous
 62
     7
100
AcDbLine
 10
-281.2843648044517
 20
129.123069288668
 30
0.0
 11
-272.2843648044517
 21
129.123069288668
 31
0.0
  0
LINE
  5
491
330
A
100
AcDbEntity
  8
0
  6
Continuous
 62
     7
100
AcDbLine
 10
-269.2843648044515
 20
118.9442610158811
 30
0.0
 11
-269.2843648044516
 21
107.2661769849348
 31
0.0
  0
LINE
  5
492
330
A
100
AcDbEntity
  8
0
  6
Continuous
 62
     7
100
AcDbLine
 10
-284.2843648044516
 20
107.2661769849858
 30
0.0
 11
-284.2843648044515
 21
118.9442610158811
 31
0.0
  0
ARC
  5
493
330
A
100
AcDbEntity
  8
0
  6
Continuous
 62
     7
100
AcDbCircle
 10
-276.7843648044514
 20
119.123069288668
 30
0.0
 40
7.5
100
AcDbArc
 50
0.0
 51
53.1301023541587
  0
LINE
  5
494
330
A
100
AcDbEntity
  8
0
  6
Continuous
 62
     7
100
AcDbLine
 10
-269.2843648044515
 20
119.123069288668
 30
0.0
 11
-269.2843648044515
 21
118.9442610158811
 31
0.0
  0
ARC
  5
495
330
A
100
AcDbEntity
  8
0
  6
Continuous
 62
     7
100
AcDbCircle
 10
-276.7843648044514
 20
119.123069288668
 30
0.0
 40
7.500000000000011
100
AcDbArc
 50
126.8698976458461
 51
180.0000000000004
  0
LINE
  5
496
330
A
100
AcDbEntity
  8
0
  6
Continuous
 62
     7
100
AcDbLine
 10
-284.2843648044515
 20
118.9442610158811
 30
0.0
 11
-284.2843648044515
 21
119.123069288668
 31
0.0
  0
ARC
  5
497
330
A
100
AcDbEntity
  8
0
  6
Continuous
 62
     7
100
AcDbCircle
 10
-276.7843648044514
 20
126.6230692886679
 30
0.0
 40
57.5
100
AcDbArc
 50
149.2550321618001
 51
180.0000000000004
  0
ARC
  5
498
330
A
100
AcDbEntity
  8
0
  6
Continuous
 62
     7
100
AcDbCircle
 10
-276.7843648044514
 20
126.6230692886679
 30
0.0
 40
57.50000000000005
100
AcDbArc
 50
281.0289142339488
 51
30.74039786323615
  0
ARC
  5
499
330
A
100
AcDbEntity
  8
0
  6
Continuous
 62
     7
100
AcDbCircle
 10
-276.7843648044514
 20
126.6230692886679
 30
0.0
 40
57.5
100
AcDbArc
 50
180.0000000000004
 51
258.9710857660522
  0
LINE
  5
49A
330
A
100
AcDbEntity
  8
0
  6
Continuous
 62
     7
100
AcDbLine
 10
-272.2266553160729
 20
129.123069288668
 30
0.0
 11
-276.7266553160728
 21
129.123069288668
 31
0.0
  0
ARC
  5
49B
330
A
100
AcDbEntity
  8
0
  6
Continuous
 62
     7
100
AcDbCircle
 10
-276.7266553160731
 20
162.123069288668
 30
0.0
 40
29.00000000000002
100
AcDbArc
 50
204.6387725770788
 51
241.5235864540488
  0
ARC
  5
49C
330
A
100
AcDbEntity
  8
0
  6
Continuous
 62
     7
100
AcDbCircle
 10
-276.7266553160731
 20
162.123069288668
 30
0.0
 40
29.0
100
AcDbArc
 50
246.3091383324494
 51
293.4253430187671
  0
ARC
  5
49D
330
A
100
AcDbEntity
  8
0
  6
Continuous
 62
     7
100
AcDbCircle
 10
-276.7266553160731
 20
162.123069288668
 30
0.0
 40
28.99999999999998
100
AcDbArc
 50
298.1954120090962
 51
335.2584232142688
  0
ARC
  5
49E
330
A
100
AcDbEntity
  8
0
  6
Continuous
 62
     7
100
AcDbCircle
 10
-276.7266553160731
 20
162.123069288668
 30
0.0
 40
33.00000000000003
100
AcDbArc
 50
250.5423619761558
 51
270.0000000000014
  0
ARC
  5
49F
330
A
100
AcDbEntity
  8
0
  6
Continuous
 62
     7
100
AcDbCircle
 10
-276.7266553160731
 20
162.123069288668
 30
0.0
 40
33.00000000000003
100
AcDbArc
 50
199.9747840953444
 51
246.5443527223147
  0
ARC
  5
4A0
330
A
100
AcDbEntity
  8
0
  6
Continuous
 62
     7
100
AcDbCircle
 10
-276.7266553160731
 20
162.123069288668
 30
0.0
 40
33.00000000000001
100
AcDbArc
 50
293.2228621477012
 51
339.9754989762523
  0
ARC
  5
4A1
330
A
100
AcDbEntity
  8
0
  6
Continuous
 62
     7
100
AcDbCircle
 10
-276.7266553160731
 20
162.123069288668
 30
0.0
 40
33.00000000000003
100
AcDbArc
 50
270.0000000000014
 51
289.2338856191395
  0
LWPOLYLINE
  5
4A2
330
A
100
AcDbEntity
  8
0
  6
Continuous
 62
     7
100
AcDbPolyline
 90
       85
 70
   128
 43
0.0
 10
-292.3346879351567
 20
148.9411249665613
 10
-296.6252166251345
 20
149.3924798399752
 10
-301.4050104694783
 20
150.0363612735579
 10
-306.0648489048564
 20
150.8169453444442
 10
-310.5820285126486
 20
151.7304289321663
 10
-314.9345409290372
 20
152.7723614102526
 10
-319.1011800729939
 20
153.9376663303341
 10
-323.0616454654282
 20
155.2206661553489
 10
-326.7966411361077
 20
156.6151099213373
 10
-330.2879696364663
 20
158.1142036930588
 10
-333.5186207002504
 20
159.7106436650441
 10
-336.47285412004
 20
161.3966517468104
 10
-339.1362764358555
 20
163.1640134588627
 10
-341.4959110622131
 20
165.004117954847
 10
-343.5402615119584
 20
166.9079999748606
 10
-345.2593674088445
 20
168.8663835255182
 10
-346.6448530159505
 20
170.8697270739564
 10
-347.6899680435041
 20
172.9082700355861
 10
-348.389620537287
 20
174.972080329097
 10
-348.7404016873859
 20
177.0511027670194
 10
-348.7406024364146
 20
179.1352080460774
 10
-348.3902218062945
 20
181.2142420986452
 10
-347.690966903019
 20
183.2780755648585
 10
-346.6462445993826
 20
185.3166531443467
 10
-345.2611449361944
 20
187.3200425871364
 10
-343.5424163228511
 20
189.2784830850344
 10
-341.4984326580929
 20
191.182432827722
 10
-339.1391525311363
 20
193.0226154918589
 10
-336.4760707019623
 20
194.7900654366958
 10
-333.5221620971537
 20
196.4761713859956
 10
-330.2918185941436
 20
198.0727183834382
 10
-326.8007789018709
 20
199.5719278170972
 10
-323.0660518794735
 20
200.966495317981
 10
-319.1058336666237
 20
202.2496263479948
 10
-314.9394190292584
 20
203.4150693039287
 10
-310.5871073526391
 20
204.4571459761897
 10
-306.0701037397603
 20
205.3707792138737
 10
-301.4104156969667
 20
206.1515176613925
 10
-296.6307459101434
 20
206.7955574461325
 10
-291.7543816338898
 20
207.2997607114828
 10
-286.8050812325877
 20
207.6616709049338
 10
-281.8069584261537
 20
207.8795247467626
 10
-276.7843648044471
 20
207.9522608209915
 10
-271.7617711827405
 20
207.8795247467626
 10
-266.7636483763065
 20
207.6616709049338
 10
-261.8143479750045
 20
207.2997607114828
 10
-256.937983698751
 20
206.7955574461324
 10
-252.1583139119278
 20
206.1515176613924
 10
-247.4986258691341
 20
205.3707792138736
 10
-242.9816222562553
 20
204.4571459761896
 10
-238.6293105796361
 20
203.4150693039286
 10
-234.4628959422708
 20
202.2496263479946
 10
-230.5026777294211
 20
200.9664953179809
 10
-226.7679507070237
 20
199.571927817097
 10
-223.276911014751
 20
198.072718383438
 10
-220.0465675117411
 20
196.4761713859953
 10
-217.0926589069325
 20
194.7900654366956
 10
-214.4295770777585
 20
193.0226154918586
 10
-212.070296950802
 20
191.1824328277217
 10
-210.0263132860439
 20
189.2784830850341
 10
-208.3075846727008
 20
187.3200425871361
 10
-206.9224850095126
 20
185.3166531443464
 10
-205.8777627058763
 20
183.2780755648581
 10
-205.1785078026009
 20
181.2142420986449
 10
-204.8281271724808
 20
179.1352080460772
 10
-204.8283279215097
 20
177.0511027670191
 10
-205.1791090716086
 20
174.9720803290967
 10
-205.8787615653917
 20
172.9082700355858
 10
-206.9238765929453
 20
170.8697270739562
 10
-208.3093622000514
 20
168.8663835255179
 10
-210.0284680969376
 20
166.9079999748603
 10
-212.072818546683
 20
165.0041179548467
 10
-214.4324531730406
 20
163.1640134588625
 10
-217.0958754888562
 20
161.3966517468102
 10
-220.0501089086459
 20
159.7106436650439
 10
-223.2807599724301
 20
158.1142036930586
 10
-226.7720884727888
 20
156.6151099213371
 10
-230.5070841434684
 20
155.2206661553487
 10
-234.4675495359026
 20
153.937666330334
 10
-238.6341886798594
 20
152.7723614102524
 10
-242.986701096248
 20
151.7304289321662
 10
-247.5038807040403
 20
150.8169453444441
 10
-252.1637191394184
 20
150.0363612735579
 10
-256.9435129837623
 20
149.3924798399752
 10
-261.2340416737392
 20
148.9411249665613
  0
LWPOLYLINE
  5
4F9
330
A
100
AcDbEntity
  8
0
  6
Continuous
 62
     7
100
AcDbPolyline
 90
        9
 70
   128
 43
0.0
 10
-263.280157598261
 20
148.7663089237487
 10
-265.7834471489756
 20
148.5870078275809
 10
-269.4344065658297
 20
148.3924144769844
 10
-273.1045769601083
 20
148.2754546507364
 10
-276.7843654119197
 20
148.2364340529659
 10
-280.4641538621435
 20
148.2754546738882
 10
-284.1343242516628
 20
148.3924145232274
 10
-287.7852836605988
 20
148.5870078967942
 10
-290.2885720106349
 20
148.7663089237487
  0
LINE
  5
504
330
A
100
AcDbEntity
  8
0
  6
Continuous
 62
     7
100
AcDbLine
 10
-292.6205531977835
 20
151.5934597111909
 30
0.0
 11
-292.5031176189616
 21
150.6202982219507
 31
0.0
  0
LWPOLYLINE
  5
505
330
A
100
AcDbEntity
  8
0
  6
Continuous
 62
     7
100
AcDbPolyline
 90
        3
 70
   128
 43
0.0
 10
-260.9998991584914
 20
150.5943983549449
 10
-260.98947153702
 20
150.6329305995278
 10
-260.9481764070405
 20
151.5934596283991
  0
LWPOLYLINE
  5
50A
330
A
100
AcDbEntity
  8
0
  6
Continuous
 62
     7
100
AcDbPolyline
 90
        8
 70
   128
 43
0.0
 10
-243.3112990851019
 20
259.7649178440331
 10
-243.6771263921575
 20
260.413190156173
 10
-244.7142096426484
 20
261.7839268622632
 10
-246.0803760829531
 20
263.1041211581029
 10
-247.7616069966756
 20
264.3602260637086
 10
-249.7406506795722
 20
265.5393522429672
 10
-251.9971994653822
 20
266.629400265667
 10
-252.6380750509817
 20
266.9015814323329
  0
LWPOLYLINE
  5
514
330
A
100
AcDbEntity
  8
0
  6
Continuous
 62
     7
100
AcDbPolyline
 90
        8
 70
   128
 43
0.0
 10
-300.9646696829592
 20
266.8874977516072
 10
-301.5715301435136
 20
266.6294002656668
 10
-303.8280789293238
 20
265.5393522429671
 10
-305.8071226122203
 20
264.3602260637085
 10
-307.4883535259429
 20
263.1041211581027
 10
-308.8545199662475
 20
261.783926862263
 10
-309.8916032167383
 20
260.4131901561728
 10
-310.2574305237937
 20
259.764917844033
  0
LWPOLYLINE
  5
51E
330
A
100
AcDbEntity
  8
0
  6
Continuous
 62
     7
100
AcDbPolyline
 90
        9
 70
   128
 43
0.0
 10
-260.948176407172
 20
151.5934597109924
 10
-261.1210740081087
 20
151.7317191203065
 10
-261.3766201458196
 20
151.8496379490586
 10
-261.6865110561096
 20
151.9341557505012
 10
-262.0164238596363
 20
151.9759115069183
 10
-262.3298180933757
 20
151.9702804366795
 10
-262.5919828570915
 20
151.9178862255334
 10
-262.773881321196
 20
151.8245319484581
 10
-262.8553667822237
 20
151.7005573332303
  0
LWPOLYLINE
  5
529
330
A
100
AcDbEntity
  8
0
  6
Continuous
 62
     7
100
AcDbPolyline
 90
        9
 70
   128
 43
0.0
 10
-290.713362822589
 20
151.7005573324865
 10
-290.7948482872182
 20
151.8245319480334
 10
-290.9767467510077
 20
151.917886225256
 10
-291.2389115145228
 20
151.9702804365667
 10
-291.5523057481885
 20
151.9759115069675
 10
-291.8822185517656
 20
151.9341557506917
 10
-292.1921094622125
 20
151.8496379493555
 10
-292.4476556001584
 20
151.731719120666
 10
-292.6205531977835
 20
151.5934597111909
  0
LINE
  5
534
330
A
100
AcDbEntity
  8
0
  6
PHANTOM
 62
     7
100
AcDbLine
 10
-287.7843648044517
 20
63.62306928866798
 30
0.0
 11
-265.7843648044517
 21
63.62306928866798
 31
0.0
  0
LWPOLYLINE
  5
535
330
A
100
AcDbEntity
  8
0
  6
PHANTOM
 62
     7
100
AcDbPolyline
 90
        6
 70
   128
 43
0.0
 10
-269.2843648044515
 20
118.9442610158811
 10
-269.4284752014273
 20
120.3027871404507
 10
-269.8552683106168
 20
121.6091058679232
 10
-270.5483427121824
 20
122.8130161021941
 10
-271.4810639455524
 20
123.8682522481207
 10
-272.2843648044517
 20
124.5151211611928
  0
LWPOLYLINE
  5
53D
330
A
100
AcDbEntity
  8
0
  6
PHANTOM
 62
     7
100
AcDbPolyline
 90
        6
 70
   128
 43
0.0
 10
-281.2843648044517
 20
124.5151211611925
 10
-282.0876656633506
 20
123.8682522481207
 10
-283.0203868967205
 20
122.813016102194
 10
-283.7134612982861
 20
121.6091058679232
 10
-284.1402544074757
 20
120.3027871404507
 10
-284.2843648044515
 20
118.9442610158811
  0
LINE
  5
545
330
A
100
AcDbEntity
  8
0
  6
PHANTOM
 62
     7
100
AcDbLine
 10
-269.2843648044514
 20
119.123069288668
 30
0.0
 11
-267.5689187350737
 21
119.123069288668
 31
0.0
  0
LINE
  5
546
330
A
100
AcDbEntity
  8
0
  6
PHANTOM
 62
     7
100
AcDbLine
 10
-266.7843648044514
 20
110.5781680735816
 30
0.0
 11
-266.7843648044514
 21
106.623069288668
 31
0.0
  0
ARC
  5
547
330
A
100
AcDbEntity
  8
0
  6
PHANTOM
 62
     7
100
AcDbCircle
 10
-276.7843648044514
 20
119.123069288668
 30
0.0
 40
10.00000000000001
100
AcDbArc
 50
15.97762086606027
 51
63.25631604959922
  0
ARC
  5
548
330
A
100
AcDbEntity
  8
0
  6
PHANTOM
 62
     7
100
AcDbCircle
 10
-276.7843648044514
 20
119.123069288668
 30
0.0
 40
9.999999999999996
100
AcDbArc
 50
116.7436839504048
 51
164.022379133843
  0
LINE
  5
549
330
A
100
AcDbEntity
  8
0
  6
PHANTOM
 62
     7
100
AcDbLine
 10
-285.9998108738221
 20
119.123069288668
 30
0.0
 11
-284.2843648044514
 21
119.123069288668
 31
0.0
  0
LINE
  5
54A
330
A
100
AcDbEntity
  8
0
  6
PHANTOM
 62
     7
100
AcDbLine
 10
-286.7843648044514
 20
106.623069288668
 30
0.0
 11
-286.7843648044514
 21
110.5781680736302
 31
0.0
  0
ARC
  5
54B
330
A
100
AcDbEntity
  8
0
  6
PHANTOM
 62
     7
100
AcDbCircle
 10
-276.7843648044514
 20
126.6230692886679
 30
0.0
 40
48.99999999999995
100
AcDbArc
 50
146.990501570704
 51
180.0000000000004
  0
ARC
  5
54C
330
A
100
AcDbEntity
  8
0
  6
PHANTOM
 62
     7
100
AcDbCircle
 10
-276.7843648044514
 20
126.6230692886679
 30
0.0
 40
48.99999999999995
100
AcDbArc
 50
282.972878150751
 51
32.98245369385863
  0
ARC
  5
54D
330
A
100
AcDbEntity
  8
0
  6
PHANTOM
 62
     7
100
AcDbCircle
 10
-276.7843648044514
 20
126.6230692886679
 30
0.0
 40
48.99999999999995
100
AcDbArc
 50
180.0000000000004
 51
257.0271218492498
  0
LWPOLYLINE
  5
54E
330
A
100
AcDbEntity
  8
0
  6
PHANTOM
 62
     7
100
AcDbPolyline
 90
       31
 70
   128
 43
0.0
 10
-276.7843648044479
 20
152.7862402328753
 10
-270.2058597300318
 20
152.9108670387055
 10
-263.6830250307735
 20
153.2847070981276
 10
-256.8883095817258
 20
153.9485140034399
 10
-250.2815457159931
 20
154.8826150644227
 10
-243.7151541044156
 20
156.1218466903073
 10
-237.3852625607176
 20
157.653214154334
 10
-231.4028997037033
 20
159.4638674063863
 10
-225.8726765590164
 20
161.531420616523
 10
-220.8869352990591
 20
163.8247667850058
 10
-216.5206879967049
 20
166.3056122369272
 10
-212.8279163127055
 20
168.9305754868458
 10
-209.8396071279527
 20
171.6536137168015
 10
-206.9809726233726
 20
175.3241606051886
 10
-205.3185713916989
 20
179.0120637014748
 10
-204.7843648044476
 20
182.6441537041245
 10
-205.0848925031957
 20
185.3722153059512
 10
-205.9863782784542
 20
188.0771907780107
 10
-207.5870962004048
 20
190.8949133619106
 10
-209.8396071279525
 20
193.6346936914474
 10
-212.8279163127053
 20
196.3577319214031
 10
-216.5206879967046
 20
198.9826951713215
 10
-220.8869352990588
 20
201.463540623243
 10
-225.8726765590161
 20
203.7568867917258
 10
-231.4028997037029
 20
205.8244400018624
 10
-237.3852625607172
 20
207.6350932539147
 10
-243.7151541044152
 20
209.1664607179416
 10
-250.2815457159926
 20
210.4056923438263
 10
-259.1327796204174
 20
211.5911487562011
 10
-268.0256329268867
 20
212.2805173787575
 10
-276.7843648044475
 20
212.5020671753734
  0
LWPOLYLINE
  5
56F
330
A
100
AcDbEntity
  8
0
  6
PHANTOM
 62
     7
100
AcDbPolyline
 90
       31
 70
   128
 43
0.0
 10
-276.7843648044475
 20
212.5020671753734
 10
-283.3628698862843
 20
212.3774403693586
 10
-289.8857045781221
 20
212.0036003101212
 10
-296.6804200342331
 20
211.3397934038588
 10
-303.2871838929025
 20
210.4056923438261
 10
-309.8535755044799
 20
209.1664607179416
 10
-316.1834670481779
 20
207.6350932539147
 10
-322.1658299051922
 20
205.8244400018625
 10
-327.6960530498791
 20
203.7568867917258
 10
-332.6817943098364
 20
201.4635406232431
 10
-337.0480416121907
 20
198.9826951713214
 10
-340.74081329619
 20
196.3577319214031
 10
-343.7291224809428
 20
193.6346936914473
 10
-346.5877569856228
 20
189.9641468030808
 10
-348.2501582171583
 20
186.2762437066298
 10
-348.7843648044479
 20
182.6441537041245
 10
-348.4838371057429
 20
179.9160921024218
 10
-347.5823513304413
 20
177.2111166302383
 10
-345.9816334083643
 20
174.393394046026
 10
-343.729122480943
 20
171.6536137168014
 10
-340.7408132961902
 20
168.9305754868458
 10
-337.0480416121909
 20
166.3056122369272
 10
-332.6817943098367
 20
163.8247667850058
 10
-327.6960530498795
 20
161.531420616523
 10
-322.1658299051926
 20
159.4638674063863
 10
-316.1834670481783
 20
157.653214154334
 10
-309.8535755044803
 20
156.1218466903072
 10
-303.2871838929029
 20
154.8826150644227
 10
-294.4359499916351
 20
153.6971586522396
 10
-285.5430966829608
 20
153.0077900296119
 10
-276.7843648044479
 20
152.7862402328753
  0
LWPOLYLINE
  5
590
330
A
100
AcDbEntity
  8
0
  6
PHANTOM
 62
     7
100
AcDbPolyline
 90
       17
 70
   128
 43
0.0
 10
-252.6380750509817
 20
266.9015814323329
 10
-254.5080981099651
 20
267.6191847640242
 10
-257.2475813954386
 20
268.4985492096934
 10
-260.1875385161804
 20
269.2584701334918
 10
-263.2978015337343
 20
269.8911497184038
 10
-266.5464549406817
 20
270.390095815736
 10
-269.9001631569369
 20
270.750188563348
 10
-273.3245125979088
 20
270.9677329223656
 10
-276.784364804448
 20
271.040496593281
 10
-280.2442170109872
 20
270.9677329223656
 10
-283.668566451959
 20
270.7501885633479
 10
-287.0222746682143
 20
270.390095815736
 10
-290.2709280751617
 20
269.8911497184037
 10
-293.3811910927155
 20
269.2584701334917
 10
-296.3211482134574
 20
268.4985492096933
 10
-299.0606314989308
 20
267.619184764024
 10
-300.9646696829592
 20
266.8874977516072
  0
LWPOLYLINE
  5
5A3
330
A
100
AcDbEntity
  8
0
  6
PHANTOM
 62
     7
100
AcDbPolyline
 90
        5
 70
   128
 43
0.0
 10
-281.7415891113169
 20
83.12179919046412
 10
-281.3621795887656
 20
83.13568530468042
 10
-281.0405317266669
 20
83.08432409689443
 10
-280.82561349628
 20
82.97553484540104
 10
-280.7516305828126
 20
82.84840046612975
  0
LWPOLYLINE
  5
5AA
330
A
100
AcDbEntity
  8
0
  6
PHANTOM
 62
     7
100
AcDbPolyline
 90
        6
 70
   128
 43
0.0
 10
-282.7311970955518
 20
82.56332052552677
 10
-282.7330339726908
 20
82.58833216805262
 10
-282.6575647263537
 20
82.75606951717129
 10
-282.4426464959669
 20
82.91635260671025
 10
-282.1209986338681
 20
83.04477978925701
 10
-281.7415891113169
 20
83.12179919046412
  0
LWPOLYLINE
  5
5B2
330
A
100
AcDbEntity
  8
0
  6
PHANTOM
 62
     7
100
AcDbPolyline
 90
        6
 70
   128
 43
0.0
 10
-271.8271404975789
 20
83.12179919046394
 10
-271.4477309750276
 20
83.04477978925682
 10
-271.1260831129288
 20
82.91635260671005
 10
-270.911164882542
 20
82.75606951717113
 10
-270.8356956362049
 20
82.58833216805244
 10
-270.8375145808113
 20
82.56344172802256
  0
LWPOLYLINE
  5
5BA
330
A
100
AcDbEntity
  8
0
  6
PHANTOM
 62
     7
100
AcDbPolyline
 90
        5
 70
   128
 43
0.0
 10
-272.8166584357255
 20
82.8514910415812
 10
-272.7431161126157
 20
82.97553484540086
 10
-272.5281978822289
 20
83.08432409689427
 10
-272.2065500201301
 20
83.13568530468025
 10
-271.8271404975789
 20
83.12179919046394
  0
ENDSEC
  0
SECTION
  2
OBJECTS
  0
DICTIONARY
  5
19
330
0
100
AcDbDictionary
281
     1
  3
ACAD_COLOR
350
5C5
  3
ACAD_GROUP
350
1A
  3
ACAD_LAYOUT
350
5C6
  3
ACAD_MATERIAL
350
5C4
  3
ACAD_MLINESTYLE
350
1B
  3
ACAD_PLOTSETTINGS
350
5C7
  3
ACAD_PLOTSTYLENAME
350
5C2
  3
ACDBHEADERROUNDTRIPXREC
350
5EA
  3
AcDbVariableDictionary
350
5D8
  3
ASE_INDEX_DICTIONARY
350
5CD
  0
DICTIONARY
  5
5C5
102
{ACAD_REACTORS
330
19
102
}
330
19
100
AcDbDictionary
281
     1
  0
DICTIONARY
  5
1A
102
{ACAD_REACTORS
330
19
102
}
330
19
100
AcDbDictionary
281
     1
  0
DICTIONARY
  5
5C6
102
{ACAD_REACTORS
330
19
102
}
330
19
100
AcDbDictionary
281
     1
  3
Layout1
350
5C9
  3
Model
350
5C8
  0
DICTIONARY
  5
5C4
102
{ACAD_REACTORS
330
19
102
}
330
19
100
AcDbDictionary
281
     1
  0
DICTIONARY
  5
1B
102
{ACAD_REACTORS
330
19
102
}
330
19
100
AcDbDictionary
281
     1
  3
STANDARD
350
1C
  0
DICTIONARY
  5
5C7
102
{ACAD_REACTORS
330
19
102
}
330
19
100
AcDbDictionary
281
     1
  0
ACDBDICTIONARYWDFLT
  5
5C2
102
{ACAD_REACTORS
330
19
102
}
330
19
100
AcDbDictionary
281
     1
  3
Normal
350
5C3
100
AcDbDictionaryWithDefault
340
5C3
  0
DICTIONARY
  5
5EA
102
{ACAD_REACTORS
330
19
102
}
330
19
100
AcDbDictionary
281
     1
  3
COLORDICT
350
5EC
  3
MATERIALDICT
350
5EB
  0
DICTIONARY
  5
5D8
102
{ACAD_REACTORS
330
19
102
}
330
19
100
AcDbDictionary
281
     1
  3
DIMASSOC
350
5D9
  3
PROJECTNAME
350
5DA
  0
DICTIONARY
  5
5CD
102
{ACAD_REACTORS
330
19
102
}
330
19
100
AcDbDictionary
281
     1
  3
ASEBlockHierarchyIndexRecord
350
5CF
1001
DCO15
1040
1552229414.218
  0
LAYOUT
  5
5C9
102
{ACAD_XDICTIONARY
360
5EF
102
}
102
{ACAD_REACTORS
330
5C6
102
}
330
5C6
100
AcDbPlotSettings
  1

  2
ProgeSOFT PDF Wizard
  4

  6

 40
0.0
 41
0.0
 42
0.0
 43
0.0
 44
0.0
 45
0.0
 46
0.0
 47
0.0
 48
0.0
 49
0.0
140
0.0
141
0.0
142
1.0
143
1.0
 70
   688
 72
     0
 73
     0
 74
     5
  7

 75
    16
147
1.0
148
0.0
149
0.0
100
AcDbLayout
  1
Layout1
 70
     1
 71
     1
 10
0.0
 20
0.0
 11
12.0
 21
9.0
 12
0.0
 22
0.0
 32
0.0
 14
1.000000000000000E+20
 24
1.000000000000000E+20
 34
1.000000000000000E+20
 15
-1.000000000000000E+20
 25
-1.000000000000000E+20
 35
-1.000000000000000E+20
146
0.0
 13
0.0
 23
0.0
 33
0.0
 16
1.0
 26
0.0
 36
0.0
 17
0.0
 27
1.0
 37
0.0
 76
     0
330
B
  0
LAYOUT
  5
5C8
102
{ACAD_XDICTIONARY
360
5ED
102
}
102
{ACAD_REACTORS
330
5C6
102
}
330
5C6
100
AcDbPlotSettings
  1

  2
ProgeSOFT PDF Wizard
  4

  6

 40
0.0
 41
0.0
 42
0.0
 43
0.0
 44
0.0
 45
0.0
 46
0.0
 47
0.0
 48
0.0
 49
0.0
140
0.0
141
0.0
142
1.0
143
1.0
 70
  1712
 72
     0
 73
     0
 74
     0
  7

 75
     0
147
1.0
148
0.0
149
0.0
100
AcDbLayout
  1
Model
 70
     1
 71
     0
 10
0.0
 20
0.0
 11
12.0
 21
9.0
 12
0.0
 22
0.0
 32
0.0
 14
0.0
 24
0.0
 34
0.0
 15
0.0
 25
0.0
 35
0.0
146
0.0
 13
0.0
 23
0.0
 33
0.0
 16
1.0
 26
0.0
 36
0.0
 17
0.0
 27
1.0
 37
0.0
 76
     0
330
A
  0
MLINESTYLE
  5
1C
102
{ACAD_REACTORS
330
1B
102
}
330
1B
100
AcDbMlineStyle
  2
STANDARD
 70
     0
  3

 62
     0
 51
90.0
 52
90.0
 71
     2
 49
0.5
 62
   256
  6
BYLAYER
 49
-0.5
 62
   256
  6
BYLAYER
  0
ACDBPLACEHOLDER
  5
5C3
102
{ACAD_REACTORS
330
5C2
102
}
330
5C2
  0
XRECORD
  5
5EC
102
{ACAD_REACTORS
330
5EA
102
}
330
5EA
100
AcDbXrecord
280
     1
340
5C5
  0
XRECORD
  5
5EB
102
{ACAD_REACTORS
330
5EA
102
}
330
5EA
100
AcDbXrecord
280
     1
340
5C4
  0
DICTIONARYVAR
  5
5D9
102
{ACAD_REACTORS
330
5D8
102
}
330
5D8
100
DictionaryVariables
280
     0
  1
1
  0
DICTIONARYVAR
  5
5DA
102
{ACAD_REACTORS
330
5D8
102
}
330
5D8
100
DictionaryVariables
280
     0
  1

  0
XRECORD
  5
5CF
102
{ACAD_REACTORS
330
5CD
102
}
330
5CD
100
AcDbXrecord
280
     1
  0
DICTIONARY
  5
5EF
330
5C9
100
AcDbDictionary
280
     1
281
     1
  3
ACAD_XREC_ROUNDTRIP
360
5F0
  0
DICTIONARY
  5
5ED
330
5C8
100
AcDbDictionary
280
     1
281
     1
  3
ACAD_XREC_ROUNDTRIP
360
5EE
  0
XRECORD
  5
5F0
102
{ACAD_REACTORS
330
5EF
102
}
330
5EF
100
AcDbXrecord
280
     1
102
SHADEPLOT
 70
     0
102
SHADEPLOTRESLEVEL
 70
     2
102
SHADEPLOTCUSTOMDPI
 70
   300
  0
XRECORD
  5
5EE
102
{ACAD_REACTORS
330
5ED
102
}
330
5ED
100
AcDbXrecord
280
     1
102
SHADEPLOT
 70
     0
102
SHADEPLOTRESLEVEL
 70
     2
102
SHADEPLOTCUSTOMDPI
 70
   300
  0
ENDSEC
  0
EOF
