  0
SECTION
  2
HEADER
  9
$ACADVER
  1
AC1015
  9
$ACADMAINTVER
 70
    20
  9
$DWGCODEPAGE
  3
ANSI_1252
  9
$INSBASE
 10
0.0
 20
0.0
 30
0.0
  9
$EXTMIN
 10
-122.7243091173969
 20
-155.6579188848745
 30
0.0
  9
$EXTMAX
 10
295.5071536895685
 20
263.9526556493221
 30
0.0
  9
$LIMMIN
 10
0.0
 20
0.0
  9
$LIMMAX
 10
0.0
 20
0.0
  9
$ORTHOMODE
 70
     0
  9
$REGENMODE
 70
     1
  9
$FILLMODE
 70
     1
  9
$QTEXTMODE
 70
     0
  9
$MIRRTEXT
 70
     1
  9
$LTSCALE
 40
1.0
  9
$ATTMODE
 70
     1
  9
$TEXTSIZE
 40
0.0
  9
$TRACEWID
 40
0.05
  9
$TEXTSTYLE
  7
STANDARD
  9
$CLAYER
  8
0
  9
$CELTYPE
  6
CONTINUOUS
  9
$CECOLOR
 62
   256
  9
$CELTSCALE
 40
1.0
  9
$DISPSILH
 70
     0
  9
$DIMSCALE
 40
1.0
  9
$DIMASZ
 40
6.0
  9
$DIMEXO
 40
1.0
  9
$DIMDLI
 40
0.38
  9
$DIMRND
 40
0.0
  9
$DIMDLE
 40
1.0
  9
$DIMEXE
 40
0.18
  9
$DIMTP
 40
0.0
  9
$DIMTM
 40
0.0
  9
$DIMTXT
 40
3.5
  9
$DIMCEN
 40
0.09
  9
$DIMTSZ
 40
0.0
  9
$DIMTOL
 70
     0
  9
$DIMLIM
 70
     0
  9
$DIMTIH
 70
     1
  9
$DIMTOH
 70
     1
  9
$DIMSE1
 70
     0
  9
$DIMSE2
 70
     0
  9
$DIMTAD
 70
     1
  9
$DIMZIN
 70
     0
  9
$DIMBLK
  1

  9
$DIMASO
 70
     1
  9
$DIMSHO
 70
     1
  9
$DIMPOST
  1

  9
$DIMAPOST
  1

  9
$DIMALT
 70
     0
  9
$DIMALTD
 70
     2
  9
$DIMALTF
 40
0.0394
  9
$DIMLFAC
 40
5.0
  9
$DIMTOFL
 70
     0
  9
$DIMTVP
 40
0.0
  9
$DIMTIX
 70
     0
  9
$DIMSOXD
 70
     0
  9
$DIMSAH
 70
     0
  9
$DIMBLK1
  1

  9
$DIMBLK2
  1

  9
$DIMSTYLE
  2
STANDARD
  9
$DIMCLRD
 70
     0
  9
$DIMCLRE
 70
     0
  9
$DIMCLRT
 70
     0
  9
$DIMTFAC
 40
1.0
  9
$DIMGAP
 40
1.0
  9
$DIMJUST
 70
     0
  9
$DIMSD1
 70
     0
  9
$DIMSD2
 70
     0
  9
$DIMTOLJ
 70
     1
  9
$DIMTZIN
 70
     0
  9
$DIMALTZ
 70
     0
  9
$DIMALTTZ
 70
     0
  9
$DIMUPT
 70
     0
  9
$DIMDEC
 70
     4
  9
$DIMTDEC
 70
     4
  9
$DIMALTU
 70
     2
  9
$DIMALTTD
 70
     2
  9
$DIMTXSTY
  7
STANDARD
  9
$DIMAUNIT
 70
     0
  9
$DIMADEC
 70
     0
  9
$DIMALTRND
 40
0.0
  9
$DIMAZIN
 70
     0
  9
$DIMDSEP
 70
    46
  9
$DIMATFIT
 70
     3
  9
$DIMFRAC
 70
     0
  9
$DIMLDRBLK
  1

  9
$DIMLUNIT
 70
     2
  9
$DIMLWD
 70
    -2
  9
$DIMLWE
 70
    -2
  9
$DIMTMOVE
 70
     0
  9
$LUNITS
 70
     2
  9
$LUPREC
 70
     2
  9
$SKETCHINC
 40
0.1
  9
$FILLETRAD
 40
0.0
  9
$AUNITS
 70
     0
  9
$AUPREC
 70
     2
  9
$MENU
  1
acad
  9
$ELEVATION
 40
0.0
  9
$PELEVATION
 40
0.0
  9
$THICKNESS
 40
0.0
  9
$LIMCHECK
 70
     0
  9
$CHAMFERA
 40
0.0
  9
$CHAMFERB
 40
0.0
  9
$CHAMFERC
 40
0.0
  9
$CHAMFERD
 40
0.0
  9
$SKPOLY
 70
     0
  9
$TDCREATE
 40
2444972.041666667
  9
$TDUCREATE
 40
2444972.000000000
  9
$TDUPDATE
 40
2453768.829251111
  9
$TDUUPDATE
 40
2453768.787584444
  9
$TDINDWG
 40
0.0035199653
  9
$TDUSRTIMER
 40
0.0035199653
  9
$USRTIMER
 70
     1
  9
$ANGBASE
 50
0.0
  9
$ANGDIR
 70
     0
  9
$PDMODE
 70
     0
  9
$PDSIZE
 40
-1.0
  9
$PLINEWID
 40
0.0
  9
$SPLFRAME
 70
     0
  9
$SPLINETYPE
 70
     6
  9
$SPLINESEGS
 70
     8
  9
$HANDSEED
  5
529
  9
$SURFTAB1
 70
     6
  9
$SURFTAB2
 70
     6
  9
$SURFTYPE
 70
     6
  9
$SURFU
 70
     6
  9
$SURFV
 70
     6
  9
$UCSBASE
  2

  9
$UCSNAME
  2

  9
$UCSORG
 10
0.0
 20
0.0
 30
0.0
  9
$UCSXDIR
 10
1.0
 20
0.0
 30
0.0
  9
$UCSYDIR
 10
0.0
 20
1.0
 30
0.0
  9
$UCSORTHOREF
  2

  9
$UCSORTHOVIEW
 70
     1
  9
$UCSORGTOP
 10
0.0
 20
0.0
 30
0.0
  9
$UCSORGBOTTOM
 10
0.0
 20
0.0
 30
0.0
  9
$UCSORGLEFT
 10
0.0
 20
0.0
 30
0.0
  9
$UCSORGRIGHT
 10
0.0
 20
0.0
 30
0.0
  9
$UCSORGFRONT
 10
0.0
 20
0.0
 30
0.0
  9
$UCSORGBACK
 10
0.0
 20
0.0
 30
0.0
  9
$PUCSBASE
  2

  9
$PUCSNAME
  2

  9
$PUCSORG
 10
0.0
 20
0.0
 30
0.0
  9
$PUCSXDIR
 10
1.0
 20
0.0
 30
0.0
  9
$PUCSYDIR
 10
0.0
 20
1.0
 30
0.0
  9
$PUCSORTHOREF
  2

  9
$PUCSORTHOVIEW
 70
     0
  9
$PUCSORGTOP
 10
0.0
 20
0.0
 30
0.0
  9
$PUCSORGBOTTOM
 10
0.0
 20
0.0
 30
0.0
  9
$PUCSORGLEFT
 10
0.0
 20
0.0
 30
0.0
  9
$PUCSORGRIGHT
 10
0.0
 20
0.0
 30
0.0
  9
$PUCSORGFRONT
 10
0.0
 20
0.0
 30
0.0
  9
$PUCSORGBACK
 10
0.0
 20
0.0
 30
0.0
  9
$USERI1
 70
     0
  9
$USERI2
 70
     0
  9
$USERI3
 70
     0
  9
$USERI4
 70
     0
  9
$USERI5
 70
     0
  9
$USERR1
 40
0.0
  9
$USERR2
 40
0.0
  9
$USERR3
 40
0.0
  9
$USERR4
 40
0.0
  9
$USERR5
 40
0.0
  9
$WORLDVIEW
 70
     1
  9
$SHADEDGE
 70
     3
  9
$SHADEDIF
 70
    70
  9
$TILEMODE
 70
     1
  9
$MAXACTVP
 70
    16
  9
$PINSBASE
 10
0.0
 20
0.0
 30
0.0
  9
$PLIMCHECK
 70
     0
  9
$PEXTMIN
 10
1.000000000000000E+20
 20
1.000000000000000E+20
 30
1.000000000000000E+20
  9
$PEXTMAX
 10
-1.000000000000000E+20
 20
-1.000000000000000E+20
 30
-1.000000000000000E+20
  9
$PLIMMIN
 10
0.0
 20
0.0
  9
$PLIMMAX
 10
12.0
 20
9.0
  9
$UNITMODE
 70
     0
  9
$VISRETAIN
 70
     0
  9
$PLINEGEN
 70
     1
  9
$PSLTSCALE
 70
     1
  9
$TREEDEPTH
 70
  3020
  9
$CMLSTYLE
  2
STANDARD
  9
$CMLJUST
 70
     0
  9
$CMLSCALE
 40
1.0
  9
$PROXYGRAPHICS
 70
     0
  9
$MEASUREMENT
 70
     0
  9
$CELWEIGHT
370
    -1
  9
$ENDCAPS
280
     0
  9
$JOINSTYLE
280
     0
  9
$LWDISPLAY
290
     0
  9
$INSUNITS
 70
     0
  9
$HYPERLINKBASE
  1

  9
$STYLESHEET
  1

  9
$XEDIT
290
     1
  9
$CEPSNTYPE
380
     0
  9
$PSTYLEMODE
290
     1
  9
$FINGERPRINTGUID
  2
{CFE91D14-9DA3-4703-AB51-8DE2D816AC8D}
  9
$VERSIONGUID
  2
{5F0FE03D-E762-4838-80D4-2C1A7F0D411A}
  9
$EXTNAMES
290
     1
  9
$PSVPSCALE
 40
0.0
  9
$OLESTARTUP
290
     0
  0
ENDSEC
  0
SECTION
  2
CLASSES
  0
CLASS
  1
IMAGE
  2
AcDbRasterImage
  3
ISM
 90
    32895
280
     0
281
     1
  0
CLASS
  1
DICTIONARYVAR
  2
AcDbDictionaryVar
  3
ObjectDBX Classes
 90
        0
280
     0
281
     0
  0
CLASS
  1
RASTERVARIABLES
  2
AcDbRasterVariables
  3
ISM
 90
    32768
280
     0
281
     0
  0
CLASS
  1
IMAGEDEF
  2
AcDbRasterImageDef
  3
ISM
 90
    32768
280
     0
281
     0
  0
CLASS
  1
IMAGEDEF_REACTOR
  2
AcDbRasterImageDefReactor
  3
ISM
 90
    32769
280
     0
281
     0
  0
CLASS
  1
IDBUFFER
  2
AcDbIdBuffer
  3
ObjectDBX Classes
 90
    32768
280
     0
281
     0
  0
CLASS
  1
SPATIAL_FILTER
  2
AcDbSpatialFilter
  3
ObjectDBX Classes
 90
    32768
280
     0
281
     0
  0
CLASS
  1
SORTENTSTABLE
  2
AcDbSortentsTable
  3
ObjectDBX Classes
 90
    32768
280
     0
281
     0
  0
CLASS
  1
LAYER_INDEX
  2
AcDbLayerIndex
  3
ObjectDBX Classes
 90
    32768
280
     0
281
     0
  0
CLASS
  1
SPATIAL_INDEX
  2
AcDbSpatialIndex
  3
ObjectDBX Classes
 90
    32768
280
     0
281
     0
  0
CLASS
  1
OBJECT_PTR
  2
CAseDLPNTableRecord
  3
ASE-LPNTableRecord
 90
    32769
280
     0
281
     0
  0
CLASS
  1
LAYOUT
  2
AcDbLayout
  3
ObjectDBX Classes
 90
        0
280
     0
281
     0
  0
CLASS
  1
PLOTSETTINGS
  2
AcDbPlotSettings
  3
ObjectDBX Classes
 90
    32768
280
     0
281
     0
  0
CLASS
  1
ACDBDICTIONARYWDFLT
  2
AcDbDictionaryWithDefault
  3
ObjectDBX Classes
 90
        0
280
     0
281
     0
  0
CLASS
  1
ACDBPLACEHOLDER
  2
AcDbPlaceHolder
  3
ObjectDBX Classes
 90
        0
280
     0
281
     0
  0
CLASS
  1
VBA_PROJECT
  2
AcDbVbaProject
  3
acad
 90
    32768
280
     0
281
     0
  0
CLASS
  1
WIPEOUT
  2
AcDbWipeout
  3
"WipeOut|Product Desc: Object Enabler for WipeOut entity^I^I^I^I^I^I|Company: Autodesk, Inc.^I^I^I^I^I^I|WEB Address: www.autodesk.com"
 90
    32895
280
     0
281
     1
  0
CLASS
  1
WIPEOUTVARIABLES
  2
AcDbWipeoutVariables
  3
"WipeOut|Product Desc:     WipeOut Dbx Application|Company:          Autodesk, Inc.|WEB Address:      www.autodesk.com"
 90
    32768
280
     0
281
     0
  0
CLASS
  1
RTEXT
  2
RText
  3
RText|AutoCAD Express Tool|expresstools@autodesk.com
 90
    32768
280
     0
281
     1
  0
CLASS
  1
ARCALIGNEDTEXT
  2
AcDbArcAlignedText
  3
ATEXT|AutoCAD Express Tool|expresstools@autodesk.com
 90
    32768
280
     0
281
     1
  0
ENDSEC
  0
SECTION
  2
TABLES
  0
TABLE
  2
VPORT
  5
7
330
0
100
AcDbSymbolTable
 70
     2
  0
VPORT
  5
521
330
7
100
AcDbSymbolTableRecord
100
AcDbViewportTableRecord
  2
*Active
 70
     0
 10
0.0
 20
0.0
 11
1.0
 21
1.0
 12
108.7781353784274
 22
54.12238544893838
 13
0.0
 23
0.0
 14
1.0
 24
1.0
 15
0.0
 25
0.0
 16
0.0
 26
0.0
 36
1.0
 17
0.0
 27
0.0
 37
0.0
 40
423.1015044181609
 41
1.569570871261378
 42
50.0
 43
0.0
 44
0.0
 50
0.0
 51
0.0
 71
     0
 72
  2000
 73
     1
 74
     1
 75
     0
 76
     0
 77
     0
 78
     0
281
     0
 65
     1
110
0.0
120
0.0
130
0.0
111
1.0
121
0.0
131
0.0
112
0.0
122
1.0
132
0.0
 79
     1
146
0.0
  0
ENDTAB
  0
TABLE
  2
LTYPE
  5
4
330
0
100
AcDbSymbolTable
 70
     6
  0
LTYPE
  5
11
330
4
100
AcDbSymbolTableRecord
100
AcDbLinetypeTableRecord
  2
BYBLOCK
 70
     0
  3

 72
    65
 73
     0
 40
0.0
  0
LTYPE
  5
12
330
4
100
AcDbSymbolTableRecord
100
AcDbLinetypeTableRecord
  2
BYLAYER
 70
     0
  3

 72
    65
 73
     0
 40
0.0
  0
LTYPE
  5
13
330
4
100
AcDbSymbolTableRecord
100
AcDbLinetypeTableRecord
  2
CONTINUOUS
 70
     0
  3
Solid line
 72
    65
 73
     0
 40
0.0
  0
LTYPE
  5
1E
330
4
100
AcDbSymbolTableRecord
100
AcDbLinetypeTableRecord
  2
HIDDEN
 70
     0
  3
Hidden __ __ __ __ __ __ __ __ __ __ __ __ __ __
 72
    65
 73
     2
 40
1.905
 49
1.27
 74
     0
 49
-0.635
 74
     0
  0
LTYPE
  5
1F
330
4
100
AcDbSymbolTableRecord
100
AcDbLinetypeTableRecord
  2
PHANTOM
 70
     0
  3
Phantom ______  __  __  ______  __  __  ______
 72
    65
 73
     6
 40
12.7
 49
6.349999999999999
 74
     0
 49
-1.27
 74
     0
 49
1.27
 74
     0
 49
-1.27
 74
     0
 49
1.27
 74
     0
 49
-1.27
 74
     0
  0
LTYPE
  5
20
330
4
100
AcDbSymbolTableRecord
100
AcDbLinetypeTableRecord
  2
CENTER
 70
     0
  3
Center ____ _ ____ _ ____ _ ____ _ ____ _ ____
 72
    65
 73
     4
 40
10.16
 49
6.349999999999999
 74
     0
 49
-1.27
 74
     0
 49
1.27
 74
     0
 49
-1.27
 74
     0
  0
LTYPE
  5
21
330
4
100
AcDbSymbolTableRecord
100
AcDbLinetypeTableRecord
  2
CENTERX2
 70
     0
  3
Center (2x) ________  __  ________  __  _____
 72
    65
 73
     4
 40
20.32
 49
12.7
 74
     0
 49
-2.54
 74
     0
 49
2.54
 74
     0
 49
-2.54
 74
     0
  0
LTYPE
  5
22
330
4
100
AcDbSymbolTableRecord
100
AcDbLinetypeTableRecord
  2
DOT2
 70
     0
  3
Dot (.5x) ........................................
 72
    65
 73
     2
 40
0.635
 49
0.0
 74
     0
 49
-0.635
 74
     0
  0
ENDTAB
  0
TABLE
  2
LAYER
  5
2
330
0
100
AcDbSymbolTable
 70
     2
  0
LAYER
  5
14
330
2
100
AcDbSymbolTableRecord
100
AcDbLayerTableRecord
  2
0
 70
     0
 62
     7
  6
CONTINUOUS
370
    -3
390
506
  0
LAYER
  5
26
330
2
100
AcDbSymbolTableRecord
100
AcDbLayerTableRecord
  2
DEFPOINTS
 70
     0
 62
     7
  6
CONTINUOUS
290
     0
370
    -3
390
506
  0
ENDTAB
  0
TABLE
  2
STYLE
  5
3
330
0
100
AcDbSymbolTable
 70
     1
  0
STYLE
  5
17
330
3
100
AcDbSymbolTableRecord
100
AcDbTextStyleTableRecord
  2
STANDARD
 70
     0
 40
0.0
 41
1.0
 50
0.0
 71
     0
 42
0.0
  3
Century Gothic
  4

  0
ENDTAB
  0
TABLE
  2
VIEW
  5
5
330
0
100
AcDbSymbolTable
 70
     0
  0
ENDTAB
  0
TABLE
  2
UCS
  5
6
330
0
100
AcDbSymbolTable
 70
     0
  0
ENDTAB
  0
TABLE
  2
APPID
  5
8
330
0
100
AcDbSymbolTable
 70
     2
  0
APPID
  5
16
330
8
100
AcDbSymbolTableRecord
100
AcDbRegAppTableRecord
  2
ACAD
 70
     0
  0
APPID
  5
511
330
8
100
AcDbSymbolTableRecord
100
AcDbRegAppTableRecord
  2
DCO15
 70
     0
  0
ENDTAB
  0
TABLE
  2
DIMSTYLE
  5
9
330
0
100
AcDbSymbolTable
 70
     1
100
AcDbDimStyleTable
 71
     0
  0
DIMSTYLE
105
18
330
9
100
AcDbSymbolTableRecord
100
AcDbDimStyleTableRecord
  2
STANDARD
 70
     0
289
     0
340
17
  0
ENDTAB
  0
TABLE
  2
BLOCK_RECORD
  5
1
330
0
100
AcDbSymbolTable
 70
     0
  0
BLOCK_RECORD
  5
A
330
1
100
AcDbSymbolTableRecord
100
AcDbBlockTableRecord
  2
*MODEL_SPACE
340
50B
  0
BLOCK_RECORD
  5
B
330
1
100
AcDbSymbolTableRecord
100
AcDbBlockTableRecord
  2
*PAPER_SPACE
340
50C
  0
ENDTAB
  0
ENDSEC
  0
SECTION
  2
BLOCKS
  0
BLOCK
  5
D
330
A
100
AcDbEntity
  8
0
100
AcDbBlockBegin
  2
*MODEL_SPACE
 70
     0
 10
0.0
 20
0.0
 30
0.0
  3
*MODEL_SPACE
  1

  0
ENDBLK
  5
E
330
A
100
AcDbEntity
  8
0
100
AcDbBlockEnd
  0
BLOCK
  5
F
330
B
100
AcDbEntity
 67
     1
  8
0
100
AcDbBlockBegin
  2
*PAPER_SPACE
 70
     0
 10
0.0
 20
0.0
 30
0.0
  3
*PAPER_SPACE
  1

  0
ENDBLK
  5
10
330
B
100
AcDbEntity
 67
     1
  8
0
100
AcDbBlockEnd
  0
ENDSEC
  0
SECTION
  2
ENTITIES
  0
ARC
  5
27
330
A
100
AcDbEntity
  8
0
  6
Continuous
 62
     7
100
AcDbCircle
 10
129.6419530960805
 20
83.08879340743283
 30
0.0
 40
3.0
100
AcDbArc
 50
270.0000000000008
 51
0.0
  0
ARC
  5
28
330
A
100
AcDbEntity
  8
0
  6
Continuous
 62
     7
100
AcDbCircle
 10
129.6419530960805
 20
158.0887934074328
 30
0.0
 40
3.0
100
AcDbArc
 50
360.0000000000008
 51
90.0
  0
LINE
  5
29
330
A
100
AcDbEntity
  8
0
  6
Continuous
 62
     7
100
AcDbLine
 10
114.6419530960805
 20
80.08879340743284
 30
0.0
 11
129.6419530960805
 21
80.08879340743282
 31
0.0
  0
LINE
  5
2A
330
A
100
AcDbEntity
  8
0
  6
Continuous
 62
     7
100
AcDbLine
 10
129.6419530960805
 20
161.0887934074328
 30
0.0
 11
114.6419530960805
 21
161.0887934074328
 31
0.0
  0
LINE
  5
2B
330
A
100
AcDbEntity
  8
0
  6
Continuous
 62
     7
100
AcDbLine
 10
112.6419530960806
 20
81.08879340743284
 30
0.0
 11
114.6419530960805
 21
81.08879340743284
 31
0.0
  0
LINE
  5
2C
330
A
100
AcDbEntity
  8
0
  6
Continuous
 62
     7
100
AcDbLine
 10
114.6419530960805
 20
160.0887934074328
 30
0.0
 11
112.6419530960806
 21
160.0887934074328
 31
0.0
  0
LINE
  5
2D
330
A
100
AcDbEntity
  8
0
  6
Continuous
 62
     7
100
AcDbLine
 10
172.8919530960806
 20
155.5887934074328
 30
0.0
 11
172.8919530960806
 21
170.0887934074363
 31
0.0
  0
LINE
  5
2E
330
A
100
AcDbEntity
  8
0
  6
Continuous
 62
     7
100
AcDbLine
 10
166.3919530960805
 20
170.5887934074328
 30
0.0
 11
166.3919530960805
 21
155.5887934074328
 31
0.0
  0
ARC
  5
2F
330
A
100
AcDbEntity
  8
0
  6
Continuous
 62
     7
100
AcDbCircle
 10
194.458210400781
 20
173.1601822682645
 30
0.0
 40
1.749999999999938
100
AcDbArc
 50
114.4999999999974
 51
294.5000000000002
  0
ARC
  5
30
330
A
100
AcDbEntity
  8
0
  6
Continuous
 62
     7
100
AcDbCircle
 10
293.1890082908861
 20
218.1543990964661
 30
0.0
 40
1.749999999999985
100
AcDbArc
 50
294.5000000000056
 51
114.5000000000008
  0
LINE
  5
31
330
A
100
AcDbEntity
  8
0
  6
Continuous
 62
     7
100
AcDbLine
 10
291.7326497428573
 20
219.4138570403671
 30
0.0
 11
240.4998142111819
 21
263.7199805470344
 31
0.0
  0
LINE
  5
32
330
A
100
AcDbEntity
  8
0
  6
Continuous
 62
     7
100
AcDbLine
 10
194.6366510578397
 20
242.8189329362819
 30
0.0
 11
194.6194108617681
 21
236.0887934074363
 31
0.0
  0
LINE
  5
33
330
A
100
AcDbEntity
  8
0
  6
Continuous
 62
     7
100
AcDbLine
 10
194.532315094448
 20
202.0887934074364
 30
0.0
 11
194.4631425995131
 21
175.0855887724313
 31
0.0
  0
ARC
  5
34
330
A
100
AcDbEntity
  8
0
  6
Continuous
 62
     7
100
AcDbCircle
 10
195.3866485971016
 20
242.817011712424
 30
0.0
 40
0.7500000000000237
100
AcDbArc
 50
114.499999999999
 51
179.8532291468006
  0
ARC
  5
35
330
A
100
AcDbEntity
  8
0
  6
Continuous
 62
     7
100
AcDbCircle
 10
240.0092215198798
 20
263.1526897827512
 30
0.0
 40
0.7500000000000379
100
AcDbArc
 50
49.14677085193332
 51
114.4999999999961
  0
LINE
  5
36
330
A
100
AcDbEntity
  8
0
  6
Continuous
 62
     7
100
AcDbLine
 10
239.6982015878876
 20
263.8351607359087
 30
0.0
 11
195.0756286651094
 21
243.4994826655815
 31
0.0
  0
LINE
  5
37
330
A
100
AcDbEntity
  8
0
  6
Continuous
 62
     7
100
AcDbLine
 10
196.5488654817444
 20
172.1897899082152
 30
0.0
 11
218.8119951410699
 21
123.3378104818647
 31
0.0
  0
LINE
  5
38
330
A
100
AcDbEntity
  8
0
  6
Continuous
 62
     7
100
AcDbLine
 10
220.631917682823
 20
124.1671969671773
 30
0.0
 11
198.3687880234976
 21
173.0191763935278
 31
0.0
  0
ARC
  5
39
330
A
100
AcDbEntity
  8
0
  6
Continuous
 62
     7
100
AcDbCircle
 10
221.6147081373469
 20
119.5992391223125
 30
0.0
 40
1.000000000000114
100
AcDbArc
 50
204.5000000000064
 51
24.50000000000164
  0
LINE
  5
3A
330
A
100
AcDbEntity
  8
0
  6
Continuous
 62
     7
100
AcDbLine
 10
218.8119951410699
 20
123.3378104818647
 30
0.0
 11
220.7047468664703
 21
119.1845458796563
 31
0.0
  0
LINE
  5
3B
330
A
100
AcDbEntity
  8
0
  6
Continuous
 62
     7
100
AcDbLine
 10
222.5246694082235
 20
120.0139323649689
 30
0.0
 11
220.631917682823
 21
124.1671969671773
 31
0.0
  0
ARC
  5
3C
330
A
100
AcDbEntity
  8
0
  6
Continuous
 62
     7
100
AcDbCircle
 10
192.1452583474355
 20
236.0887934074362
 30
0.0
 40
0.6249999999998864
100
AcDbArc
 50
0.0
 51
180.0000000000004
  0
ARC
  5
3D
330
A
100
AcDbEntity
  8
0
  6
Continuous
 62
     7
100
AcDbCircle
 10
192.1452583474355
 20
202.0887934074365
 30
0.0
 40
0.6249999999998864
100
AcDbArc
 50
180.0000000000004
 51
360.0000000000008
  0
LINE
  5
3E
330
A
100
AcDbEntity
  8
0
  6
Continuous
 62
     7
100
AcDbLine
 10
191.5202583474356
 20
236.0887934074363
 30
0.0
 11
191.5202583474356
 21
202.0887934074365
 31
0.0
  0
LINE
  5
3F
330
A
100
AcDbEntity
  8
0
  6
Continuous
 62
     7
100
AcDbLine
 10
194.6194108617681
 20
236.0887934074363
 30
0.0
 11
192.7702583474353
 21
236.0887934074363
 31
0.0
  0
LINE
  5
40
330
A
100
AcDbEntity
  8
0
  6
Continuous
 62
     7
100
AcDbLine
 10
192.7702583474353
 20
202.0887934074364
 30
0.0
 11
194.532315094448
 21
202.0887934074364
 31
0.0
  0
LINE
  5
41
330
A
100
AcDbEntity
  8
0
  6
Continuous
 62
     7
100
AcDbLine
 10
177.1452583474354
 20
235.5887934074364
 30
0.0
 11
162.1452583474354
 21
235.5887934074364
 31
0.0
  0
LINE
  5
42
330
A
100
AcDbEntity
  8
0
  6
Continuous
 62
     7
100
AcDbLine
 10
162.1452583474354
 20
202.5887934074364
 30
0.0
 11
166.3952583474358
 21
202.5887934074364
 31
0.0
  0
LINE
  5
43
330
A
100
AcDbEntity
  8
0
  6
Continuous
 62
     7
100
AcDbLine
 10
172.8952583474358
 20
202.5887934074364
 30
0.0
 11
177.1452583474354
 21
202.5887934074364
 31
0.0
  0
ARC
  5
44
330
A
100
AcDbEntity
  8
0
  6
Continuous
 62
     7
100
AcDbCircle
 10
149.3952583474354
 20
226.5887934074363
 30
0.0
 40
6.0
100
AcDbArc
 50
90.0
 51
180.0000000000004
  0
ARC
  5
45
330
A
100
AcDbEntity
  8
0
  6
Continuous
 62
     7
100
AcDbCircle
 10
149.3952583474354
 20
211.5887934074364
 30
0.0
 40
6.0
100
AcDbArc
 50
180.0000000000004
 51
270.0000000000008
  0
LINE
  5
46
330
A
100
AcDbEntity
  8
0
  6
Continuous
 62
     7
100
AcDbLine
 10
162.1452583474355
 20
232.5887934074363
 30
0.0
 11
149.3952583474354
 21
232.5887934074363
 31
0.0
  0
LINE
  5
47
330
A
100
AcDbEntity
  8
0
  6
Continuous
 62
     7
100
AcDbLine
 10
149.3952583474354
 20
205.5887934074365
 30
0.0
 11
162.1452583474355
 21
205.5887934074364
 31
0.0
  0
LINE
  5
48
330
A
100
AcDbEntity
  8
0
  6
Continuous
 62
     7
100
AcDbLine
 10
191.5202583474357
 20
232.5887934074363
 30
0.0
 11
177.1452583474354
 21
232.5887934074363
 31
0.0
  0
LINE
  5
49
330
A
100
AcDbEntity
  8
0
  6
Continuous
 62
     7
100
AcDbLine
 10
177.1452583474354
 20
205.5887934074365
 30
0.0
 11
191.5202583474357
 21
205.5887934074365
 31
0.0
  0
LINE
  5
4A
330
A
100
AcDbEntity
  8
0
  6
Continuous
 62
     7
100
AcDbLine
 10
143.3952583474354
 20
225.5887934074364
 30
0.0
 11
133.3952583474354
 21
225.5887934074364
 31
0.0
  0
LINE
  5
4B
330
A
100
AcDbEntity
  8
0
  6
Continuous
 62
     7
100
AcDbLine
 10
133.3952583474354
 20
212.5887934074364
 30
0.0
 11
143.3952583474354
 21
212.5887934074364
 31
0.0
  0
LINE
  5
4C
330
A
100
AcDbEntity
  8
0
  6
Continuous
 62
     7
100
AcDbLine
 10
172.8919530960806
 20
170.0887934074363
 30
0.0
 11
172.8952583474361
 21
170.0887934074363
 31
0.0
  0
LINE
  5
4D
330
A
100
AcDbEntity
  8
0
  6
Continuous
 62
     7
100
AcDbLine
 10
132.6419530960805
 20
120.5887934074328
 30
0.0
 11
132.6419530960805
 21
158.0887934074328
 31
0.0
  0
LINE
  5
4E
330
A
100
AcDbEntity
  8
0
  6
Continuous
 62
     7
100
AcDbLine
 10
132.6419530960805
 20
83.08879340743279
 30
0.0
 11
132.6419530960805
 21
120.5887934074328
 31
0.0
  0
LINE
  5
4F
330
A
100
AcDbEntity
  8
0
  6
Continuous
 62
     7
100
AcDbLine
 10
114.6419530960805
 20
120.5887934074328
 30
0.0
 11
114.6419530960805
 21
161.0887934074328
 31
0.0
  0
LINE
  5
50
330
A
100
AcDbEntity
  8
0
  6
Continuous
 62
     7
100
AcDbLine
 10
114.6419530960805
 20
80.08879340743284
 30
0.0
 11
114.6419530960805
 21
120.5887934074328
 31
0.0
  0
LINE
  5
51
330
A
100
AcDbEntity
  8
0
  6
Continuous
 62
     7
100
AcDbLine
 10
112.6419530960806
 20
120.5887934074328
 30
0.0
 11
112.6419530960806
 21
160.0887934074328
 31
0.0
  0
LINE
  5
52
330
A
100
AcDbEntity
  8
0
  6
Continuous
 62
     7
100
AcDbLine
 10
112.6419530960806
 20
81.08879340743284
 30
0.0
 11
112.6419530960806
 21
120.5887934074328
 31
0.0
  0
ARC
  5
53
330
A
100
AcDbEntity
  8
0
  6
Continuous
 62
     7
100
AcDbCircle
 10
133.6419530960805
 20
85.29509152108913
 30
0.0
 40
1.0
100
AcDbArc
 50
147.2647737278892
 51
180.0000000000004
  0
ARC
  5
54
330
A
100
AcDbEntity
  8
0
  6
Continuous
 62
     7
100
AcDbCircle
 10
133.6419530960805
 20
156.5887934074328
 30
0.0
 40
1.0
100
AcDbArc
 50
180.0000000000004
 51
270.0000000000008
  0
LINE
  5
55
330
A
100
AcDbEntity
  8
0
  6
Continuous
 62
     7
100
AcDbLine
 10
169.6419530960806
 20
127.5887934074328
 30
0.0
 11
160.1879043087301
 21
127.5887934074328
 31
0.0
  0
ARC
  5
56
330
A
100
AcDbEntity
  8
0
  6
Continuous
 62
     7
100
AcDbCircle
 10
178.6419530960806
 20
128.5887934074328
 30
0.0
 40
1.0
100
AcDbArc
 50
270.0000000000008
 51
0.0
  0
LINE
  5
57
330
A
100
AcDbEntity
  8
0
  6
Continuous
 62
     7
100
AcDbLine
 10
178.6419530960806
 20
127.5887934074328
 30
0.0
 11
169.6419530960806
 21
127.5887934074328
 31
0.0
  0
ARC
  5
58
330
A
100
AcDbEntity
  8
0
  6
Continuous
 62
     7
100
AcDbCircle
 10
160.1879043087301
 20
126.5887934074328
 30
0.0
 40
1.0
100
AcDbArc
 50
90.0
 51
147.2647737278892
  0
LINE
  5
59
330
A
100
AcDbEntity
  8
0
  6
Continuous
 62
     7
100
AcDbLine
 10
159.3467258333535
 20
127.1295509987463
 30
0.0
 11
132.800774620704
 21
85.83584911240263
 31
0.0
  0
LINE
  5
5A
330
A
100
AcDbEntity
  8
0
  6
Continuous
 62
     7
100
AcDbLine
 10
133.6419530960805
 20
155.5887934074328
 30
0.0
 11
169.6419530960806
 21
155.5887934074328
 31
0.0
  0
LINE
  5
5B
330
A
100
AcDbEntity
  8
0
  6
Continuous
 62
     7
100
AcDbLine
 10
169.6419530960806
 20
155.5887934074328
 30
0.0
 11
178.6419530960806
 21
155.5887934074328
 31
0.0
  0
ARC
  5
5C
330
A
100
AcDbEntity
  8
0
  6
Continuous
 62
     7
100
AcDbCircle
 10
178.6419530960806
 20
154.5887934074328
 30
0.0
 40
1.0
100
AcDbArc
 50
0.0
 51
90.0
  0
LINE
  5
5D
330
A
100
AcDbEntity
  8
0
  6
Continuous
 62
     7
100
AcDbLine
 10
179.6419530960806
 20
154.5887934074328
 30
0.0
 11
179.6419530960806
 21
128.5887934074328
 31
0.0
  0
LINE
  5
5E
330
A
100
AcDbEntity
  8
0
  6
Continuous
 62
     7
100
AcDbLine
 10
166.3919530960805
 20
170.5887934074328
 30
0.0
 11
166.3952583474362
 21
170.5887934074328
 31
0.0
  0
LINE
  5
5F
330
A
100
AcDbEntity
  8
0
  6
Continuous
 62
     7
100
AcDbLine
 10
292.4632951162377
 20
219.7468313205
 30
0.0
 11
193.7324972261327
 21
174.7526144922984
 31
0.0
  0
LINE
  5
60
330
A
100
AcDbEntity
  8
0
  6
Continuous
 62
     7
100
AcDbLine
 10
195.1839235754294
 20
171.5677500442307
 30
0.0
 11
293.9147214515106
 21
216.5619668660412
 31
0.0
  0
LINE
  5
61
330
A
100
AcDbEntity
  8
0
  6
Continuous
 62
     7
100
AcDbLine
 10
192.7702583474353
 20
202.0887934074364
 30
0.0
 11
192.7702583474353
 21
236.0887934074363
 31
0.0
  0
LINE
  5
62
330
A
100
AcDbEntity
  8
0
  6
Continuous
 62
     7
100
AcDbLine
 10
177.1452583474354
 20
202.5887934074364
 30
0.0
 11
177.1452583474354
 21
235.5887934074364
 31
0.0
  0
LINE
  5
63
330
A
100
AcDbEntity
  8
0
  6
Continuous
 62
     7
100
AcDbLine
 10
162.1452583474354
 20
235.5887934074364
 30
0.0
 11
162.1452583474354
 21
202.5887934074364
 31
0.0
  0
LINE
  5
64
330
A
100
AcDbEntity
  8
0
  6
Continuous
 62
     7
100
AcDbLine
 10
143.3952583474355
 20
219.0887934074364
 30
0.0
 11
143.3952583474354
 21
211.5887934074364
 31
0.0
  0
LINE
  5
65
330
A
100
AcDbEntity
  8
0
  6
Continuous
 62
     7
100
AcDbLine
 10
143.3952583474354
 20
226.5887934074363
 30
0.0
 11
143.3952583474355
 21
219.0887934074364
 31
0.0
  0
LINE
  5
66
330
A
100
AcDbEntity
  8
0
  6
Continuous
 62
     7
100
AcDbLine
 10
133.3952583474354
 20
225.5887934074364
 30
0.0
 11
133.3952583474354
 21
212.5887934074364
 31
0.0
  0
CIRCLE
  5
67
330
A
100
AcDbEntity
  8
0
  6
Continuous
 62
     7
100
AcDbCircle
 10
169.645258347436
 20
219.0887934074364
 30
0.0
 40
5.000000000000028
  0
LINE
  5
68
330
A
100
AcDbEntity
  8
0
  6
Continuous
 62
     7
100
AcDbLine
 10
166.3952583474357
 20
215.2891223690439
 30
0.0
 11
166.3952583474359
 21
195.0887934074362
 31
0.0
  0
LINE
  5
69
330
A
100
AcDbEntity
  8
0
  6
Continuous
 62
     7
100
AcDbLine
 10
172.8952583474357
 20
215.2891223690434
 30
0.0
 11
172.8952583474359
 21
195.0887934074363
 31
0.0
  0
LINE
  5
6A
330
A
100
AcDbEntity
  8
0
  6
Continuous
 62
     7
100
AcDbLine
 10
166.3952583474359
 20
195.0887934074362
 30
0.0
 11
166.3952583474362
 21
170.0887934074362
 31
0.0
  0
LINE
  5
6B
330
A
100
AcDbEntity
  8
0
  6
Continuous
 62
     7
100
AcDbLine
 10
172.8952583474361
 20
170.0887934074363
 30
0.0
 11
172.8952583474359
 21
195.0887934074363
 31
0.0
  0
LINE
  5
6C
330
A
100
AcDbEntity
  8
0
  6
PHANTOM
 62
     7
100
AcDbLine
 10
129.6419530960805
 20
120.5887934074328
 30
0.0
 11
129.6419530960805
 21
161.0887934074328
 31
0.0
  0
LINE
  5
6D
330
A
100
AcDbEntity
  8
0
  6
PHANTOM
 62
     7
100
AcDbLine
 10
129.6419530960805
 20
80.08879340743282
 30
0.0
 11
129.6419530960805
 21
120.5887934074328
 31
0.0
  0
LINE
  5
6E
330
A
100
AcDbEntity
  8
0
  6
PHANTOM
 62
     7
100
AcDbLine
 10
132.800774620704
 20
85.83584911240263
 30
0.0
 11
133.6419530960805
 21
88.99360640488763
 31
0.0
  0
LINE
  5
6F
330
A
100
AcDbEntity
  8
0
  6
PHANTOM
 62
     7
100
AcDbLine
 10
133.6419530960805
 20
88.99360640488763
 30
0.0
 11
132.6419530960805
 21
88.99360640488763
 31
0.0
  0
LINE
  5
70
330
A
100
AcDbEntity
  8
0
  6
PHANTOM
 62
     7
100
AcDbLine
 10
133.6419530960805
 20
154.5887934074328
 30
0.0
 11
133.6419530960805
 21
155.5887934074328
 31
0.0
  0
LINE
  5
71
330
A
100
AcDbEntity
  8
0
  6
PHANTOM
 62
     7
100
AcDbLine
 10
132.6419530960805
 20
154.5887934074328
 30
0.0
 11
133.6419530960805
 21
154.5887934074328
 31
0.0
  0
LINE
  5
72
330
A
100
AcDbEntity
  8
0
  6
PHANTOM
 62
     7
100
AcDbLine
 10
133.6419530960805
 20
154.5887934074328
 30
0.0
 11
133.6419530960805
 21
88.99360640488763
 31
0.0
  0
LINE
  5
73
330
A
100
AcDbEntity
  8
0
  6
PHANTOM
 62
     7
100
AcDbLine
 10
160.1879043087301
 20
128.5887934074328
 30
0.0
 11
169.6419530960806
 21
128.5887934074328
 31
0.0
  0
LINE
  5
74
330
A
100
AcDbEntity
  8
0
  6
PHANTOM
 62
     7
100
AcDbLine
 10
169.6419530960806
 20
128.5887934074328
 30
0.0
 11
169.6419530960806
 21
127.5887934074328
 31
0.0
  0
LINE
  5
75
330
A
100
AcDbEntity
  8
0
  6
PHANTOM
 62
     7
100
AcDbLine
 10
160.1879043087301
 20
127.5887934074328
 30
0.0
 11
160.1879043087301
 21
128.5887934074328
 31
0.0
  0
LINE
  5
76
330
A
100
AcDbEntity
  8
0
  6
PHANTOM
 62
     7
100
AcDbLine
 10
169.6419530960806
 20
128.5887934074328
 30
0.0
 11
179.6419530960806
 21
128.5887934074328
 31
0.0
  0
LINE
  5
77
330
A
100
AcDbEntity
  8
0
  6
PHANTOM
 62
     7
100
AcDbLine
 10
159.3467258333535
 20
127.1295509987463
 30
0.0
 11
158.5055473579769
 21
127.6703085900598
 31
0.0
  0
ARC
  5
78
330
A
100
AcDbEntity
  8
0
  6
PHANTOM
 62
     7
100
AcDbCircle
 10
160.1879043087301
 20
126.5887934074328
 30
0.0
 40
1.999999999999998
100
AcDbArc
 50
90.0
 51
147.2647737278922
  0
LINE
  5
79
330
A
100
AcDbEntity
  8
0
  6
PHANTOM
 62
     7
100
AcDbLine
 10
133.6419530960805
 20
88.99360640488763
 30
0.0
 11
158.5055473579769
 21
127.6703085900598
 31
0.0
  0
LINE
  5
7A
330
A
100
AcDbEntity
  8
0
  6
PHANTOM
 62
     7
100
AcDbLine
 10
169.6419530960806
 20
154.5887934074328
 30
0.0
 11
133.6419530960805
 21
154.5887934074328
 31
0.0
  0
LINE
  5
7B
330
A
100
AcDbEntity
  8
0
  6
PHANTOM
 62
     7
100
AcDbLine
 10
169.6419530960806
 20
154.5887934074328
 30
0.0
 11
169.6419530960806
 21
155.5887934074328
 31
0.0
  0
LINE
  5
7C
330
A
100
AcDbEntity
  8
0
  6
PHANTOM
 62
     7
100
AcDbLine
 10
179.6419530960806
 20
154.5887934074328
 30
0.0
 11
169.6419530960806
 21
154.5887934074328
 31
0.0
  0
LINE
  5
7D
330
A
100
AcDbEntity
  8
0
  6
PHANTOM
 62
     7
100
AcDbLine
 10
169.6419530960806
 20
128.5887934074328
 30
0.0
 11
169.6419530960806
 21
154.5887934074328
 31
0.0
  0
LINE
  5
7E
330
A
100
AcDbEntity
  8
0
  6
PHANTOM
 62
     7
100
AcDbLine
 10
240.4998142111819
 20
263.7199805470344
 30
0.0
 11
194.6366510578397
 21
242.8189329362819
 31
0.0
  0
LWPOLYLINE
  5
7F
330
A
100
AcDbEntity
  8
0
  6
PHANTOM
 62
     7
100
AcDbPolyline
 90
        9
 70
   128
 43
0.0
 10
218.8119951410699
 20
123.3378104818647
 10
218.8950931065056
 20
123.3390271336005
 10
219.1040735146603
 20
123.4031918481293
 10
219.4071209928043
 20
123.5205361293187
 10
219.7580993095226
 20
123.6731953740862
 10
220.1035751977211
 20
123.8379285962753
 10
220.3909530851682
 20
123.9896566561183
 10
220.5764822935874
 20
124.1052803319223
 10
220.631917682823
 20
124.1671969671773
  0
LINE
  5
8A
330
A
100
AcDbEntity
  8
0
  6
PHANTOM
 62
     7
100
AcDbLine
 10
149.3952583474354
 20
232.5887934074363
 30
0.0
 11
149.3952583474354
 21
205.5887934074365
 31
0.0
  0
LINE
  5
8B
330
A
100
AcDbEntity
  8
0
  6
PHANTOM
 62
     7
100
AcDbLine
 10
172.8952583474359
 20
195.0887934074363
 30
0.0
 11
166.3952583474359
 21
195.0887934074362
 31
0.0
  0
LINE
  5
8C
330
A
100
AcDbEntity
  8
0
  6
Continuous
 62
     7
100
AcDbLine
 10
114.6419530960805
 20
-140.1644202699408
 30
0.0
 11
129.6419530960805
 21
-140.1644202699408
 31
0.0
  0
LINE
  5
8D
330
A
100
AcDbEntity
  8
0
  6
Continuous
 62
     7
100
AcDbLine
 10
129.6419530960805
 20
-59.16442026994087
 30
0.0
 11
114.6419530960805
 21
-59.16442026994087
 31
0.0
  0
ARC
  5
8E
330
A
100
AcDbEntity
  8
0
  6
Continuous
 62
     7
100
AcDbCircle
 10
129.6419530960805
 20
-137.1644202699408
 30
0.0
 40
3.0
100
AcDbArc
 50
270.0000000000008
 51
0.0
  0
ARC
  5
8F
330
A
100
AcDbEntity
  8
0
  6
Continuous
 62
     7
100
AcDbCircle
 10
129.6419530960805
 20
-62.16442026994087
 30
0.0
 40
3.000000000000007
100
AcDbArc
 50
360.0000000000008
 51
90.0
  0
LINE
  5
90
330
A
100
AcDbEntity
  8
0
  6
Continuous
 62
     7
100
AcDbLine
 10
112.6419530960806
 20
-139.1644202699408
 30
0.0
 11
114.6419530960805
 21
-139.1644202699408
 31
0.0
  0
LINE
  5
91
330
A
100
AcDbEntity
  8
0
  6
Continuous
 62
     7
100
AcDbLine
 10
114.6419530960805
 20
-60.16442026994088
 30
0.0
 11
112.6419530960806
 21
-60.16442026994088
 31
0.0
  0
LWPOLYLINE
  5
92
330
A
100
AcDbEntity
  8
0
  6
Continuous
 62
     7
100
AcDbPolyline
 90
       93
 70
   128
 43
0.0
 10
195.1310190677837
 20
-116.6644202699391
 10
195.9098393063177
 20
-119.1743323204894
 10
197.0141443478579
 20
-122.163575777228
 10
198.3000563152281
 20
-125.1349064564948
 10
199.7671008047216
 20
-128.0634387712878
 10
201.4132279914048
 20
-130.9272405239344
 10
203.2350432631525
 20
-133.7065943352023
 10
205.2279778208391
 20
-136.3835138859603
 10
207.3864181750737
 20
-138.9414210307759
 10
209.7038071227001
 20
-141.3649272828217
 10
212.1727240957369
 20
-143.6396840687925
 10
214.7849499137057
 20
-145.7522791811064
 10
217.5315191818852
 20
-147.6901650222805
 10
220.402762476024
 20
-149.4416094684317
 10
223.3883398082151
 20
-150.9956636058666
 10
226.4772665466353
 20
-152.3421428846484
 10
229.657932888153
 20
-153.4716197757362
 10
232.9181181119547
 20
-154.3754270325287
 10
236.2450011391073
 20
-155.0456712538177
 10
239.6251693460918
 20
-155.4752566653367
 10
243.0446280707528
 20
-155.6579188848745
 10
246.4888137218326
 20
-155.5882679013284
 10
249.9425923568015
 20
-155.2618414057441
 10
253.3902764729933
 20
-154.6751708523545
 10
256.8157643223447
 20
-153.8258232928421
 10
260.2025438391846
 20
-152.712447570842
 10
263.5337677023019
 20
-151.3348070756823
 10
266.7923443331654
 20
-149.6937878841898
 10
269.9610426903081
 20
-147.7913693519271
 10
272.707900332803
 20
-145.8685513346056
 10
275.3361012796752
 20
-143.7588082990073
 10
277.8346911437587
 20
-141.4713884728399
 10
280.1934659777556
 20
-139.0162563201605
 10
282.4028058083799
 20
-136.4042388912624
 10
284.4537134347225
 20
-133.647063659767
 10
286.3378486122286
 20
-130.7574488221648
 10
288.0475566791794
 20
-127.7492943838435
 10
289.5758891818643
 20
-124.6380772763437
 10
290.9166103787132
 20
-121.4416905843856
 10
292.0641723809248
 20
-118.1823487870506
 10
293.0136024736778
 20
-114.8914121651642
 10
293.7600705820218
 20
-111.6238358825921
 10
294.2967066413416
 20
-108.5152762012408
 10
294.6175248192693
 20
-105.9360501670743
 10
294.8008431098779
 20
-103.7796212272636
 10
294.9210682805437
 20
-101.1481640239617
 10
294.939008290886
 20
-99.66442026993831
 10
294.8142908720014
 20
-95.75435570160824
 10
294.6938090172155
 20
-94.18514232673496
 10
294.4047923117397
 20
-91.58825258296262
 10
293.9878589694032
 20
-88.91021581299478
 10
293.4091932077756
 20
-86.06476271662172
 10
292.6615126663362
 20
-83.13272211715412
 10
291.7373793853507
 20
-80.15450821939131
 10
290.6330743438104
 20
-77.1652647626525
 10
289.3471623764396
 20
-74.19393408338326
 10
287.880117886948
 20
-71.2654017685938
 10
286.2339907002649
 20
-68.40160001594679
 10
284.4121754285173
 20
-65.62224620467856
 10
282.4192408708306
 20
-62.94532665391994
 10
280.2608005165965
 20
-60.38741950910455
 10
277.9434115689708
 20
-57.96391325705902
 10
275.4744945959337
 20
-55.68915647108752
 10
272.8622687779646
 20
-53.57656135877308
 10
270.1156995097857
 20
-51.63867551759904
 10
267.2444562156465
 20
-49.88723107144736
 10
264.2588788834559
 20
-48.33317693401244
 10
261.1699521450347
 20
-46.98669765522975
 10
257.9892858035188
 20
-45.85722076414243
 10
254.7291005797163
 20
-44.95341350734932
 10
251.402217552564
 20
-44.28316928606009
 10
248.0220493455803
 20
-43.85358387454094
 10
244.6025906209179
 20
-43.67092165500268
 10
241.1584049698397
 20
-43.74057263854857
 10
237.7046263348719
 20
-44.0669991341323
 10
234.2569422186802
 20
-44.65366968752149
 10
230.8314543693291
 20
-45.50301724703312
 10
227.4446748524872
 20
-46.61639296903344
 10
224.1134509893709
 20
-47.99403346419228
 10
220.8548743585069
 20
-49.63505265568453
 10
217.6861760013641
 20
-51.53747118794678
 10
214.9393183588686
 20
-53.4602892052683
 10
212.3111174119948
 20
-55.57003224086745
 10
209.8125275479115
 20
-57.85745206703428
 10
207.4537527139151
 20
-60.31258421971277
 10
205.2444128832908
 20
-62.92460164861023
 10
203.1935052569485
 20
-65.68177688010492
 10
201.3093700794401
 20
-68.57139171770967
 10
199.5996620124892
 20
-71.57954615603107
 10
198.0713295098045
 20
-74.69076326352994
 10
196.7306083129555
 20
-77.88714995548795
 10
195.5830463107433
 20
-81.14649175282373
 10
195.145126296358
 20
-82.66442026993891
  0
ARC
  5
F1
330
A
100
AcDbEntity
  8
0
  6
Continuous
 62
     7
100
AcDbCircle
 10
192.1452583474354
 20
-82.66442026993914
 30
0.0
 40
0.6249999999998864
100
AcDbArc
 50
0.0
 51
180.0000000000004
  0
ARC
  5
F2
330
A
100
AcDbEntity
  8
0
  6
Continuous
 62
     7
100
AcDbCircle
 10
192.1452583474356
 20
-116.6644202699389
 30
0.0
 40
0.6249999999998864
100
AcDbArc
 50
180.0000000000004
 51
360.0000000000008
  0
LINE
  5
F3
330
A
100
AcDbEntity
  8
0
  6
Continuous
 62
     7
100
AcDbLine
 10
191.5202583474355
 20
-82.66442026993914
 30
0.0
 11
191.5202583474357
 21
-116.6644202699389
 31
0.0
  0
LINE
  5
F4
330
A
100
AcDbEntity
  8
0
  6
Continuous
 62
     7
100
AcDbLine
 10
198.473762922513
 20
-82.66442026993907
 30
0.0
 11
192.7702583474352
 21
-82.66442026993912
 31
0.0
  0
LINE
  5
F5
330
A
100
AcDbEntity
  8
0
  6
Continuous
 62
     7
100
AcDbLine
 10
192.7702583474354
 20
-116.6644202699389
 30
0.0
 11
198.4737629225133
 21
-116.6644202699389
 31
0.0
  0
LINE
  5
F6
330
A
100
AcDbEntity
  8
0
  6
Continuous
 62
     7
100
AcDbLine
 10
164.6452583474354
 20
-83.16442026993925
 30
0.0
 11
162.1452583474353
 21
-83.16442026993927
 31
0.0
  0
LINE
  5
F7
330
A
100
AcDbEntity
  8
0
  6
Continuous
 62
     7
100
AcDbLine
 10
177.1452583474353
 20
-83.16442026993916
 30
0.0
 11
174.645258347436
 21
-83.16442026993918
 31
0.0
  0
LINE
  5
F8
330
A
100
AcDbEntity
  8
0
  6
Continuous
 62
     7
100
AcDbLine
 10
174.645258347436
 20
-116.1644202699391
 30
0.0
 11
177.1452583474355
 21
-116.1644202699391
 31
0.0
  0
LINE
  5
F9
330
A
100
AcDbEntity
  8
0
  6
Continuous
 62
     7
100
AcDbLine
 10
162.1452583474356
 20
-116.1644202699392
 30
0.0
 11
164.6452583474356
 21
-116.1644202699392
 31
0.0
  0
ARC
  5
FA
330
A
100
AcDbEntity
  8
0
  6
Continuous
 62
     7
100
AcDbCircle
 10
149.3952583474354
 20
-92.1644202699394
 30
0.0
 40
6.000000000000028
100
AcDbArc
 50
90.00000000000055
 51
180.0000000000004
  0
ARC
  5
FB
330
A
100
AcDbEntity
  8
0
  6
Continuous
 62
     7
100
AcDbCircle
 10
149.3952583474355
 20
-107.1644202699393
 30
0.0
 40
6.0
100
AcDbArc
 50
180.0000000000004
 51
270.0000000000013
  0
LINE
  5
FC
330
A
100
AcDbEntity
  8
0
  6
Continuous
 62
     7
100
AcDbLine
 10
162.1452583474354
 20
-86.16442026993929
 30
0.0
 11
149.3952583474353
 21
-86.1644202699394
 31
0.0
  0
LINE
  5
FD
330
A
100
AcDbEntity
  8
0
  6
Continuous
 62
     7
100
AcDbLine
 10
149.3952583474355
 20
-113.1644202699393
 30
0.0
 11
162.1452583474356
 21
-113.1644202699392
 31
0.0
  0
LINE
  5
FE
330
A
100
AcDbEntity
  8
0
  6
Continuous
 62
     7
100
AcDbLine
 10
191.5202583474355
 20
-86.16442026993913
 30
0.0
 11
177.1452583474353
 21
-86.16442026993926
 31
0.0
  0
LINE
  5
FF
330
A
100
AcDbEntity
  8
0
  6
Continuous
 62
     7
100
AcDbLine
 10
177.1452583474355
 20
-113.164420269939
 30
0.0
 11
191.5202583474357
 21
-113.1644202699389
 31
0.0
  0
LINE
  5
100
330
A
100
AcDbEntity
  8
0
  6
Continuous
 62
     7
100
AcDbLine
 10
143.3952583474354
 20
-93.16442026993941
 30
0.0
 11
133.3952583474354
 21
-93.16442026993948
 31
0.0
  0
LINE
  5
101
330
A
100
AcDbEntity
  8
0
  6
Continuous
 62
     7
100
AcDbLine
 10
133.3952583474355
 20
-106.1644202699394
 30
0.0
 11
143.3952583474355
 21
-106.1644202699393
 31
0.0
  0
LINE
  5
102
330
A
100
AcDbEntity
  8
0
  6
Continuous
 62
     7
100
AcDbLine
 10
164.645258347436
 20
-72.66442026994122
 30
0.0
 11
164.645258347436
 21
-83.16442026993925
 31
0.0
  0
LINE
  5
103
330
A
100
AcDbEntity
  8
0
  6
Continuous
 62
     7
100
AcDbLine
 10
164.645258347436
 20
-116.1644202699392
 30
0.0
 11
164.645258347436
 21
-126.6644202699412
 31
0.0
  0
LINE
  5
104
330
A
100
AcDbEntity
  8
0
  6
Continuous
 62
     7
100
AcDbLine
 10
174.645258347436
 20
-126.6644202699412
 30
0.0
 11
174.645258347436
 21
-116.1644202699391
 31
0.0
  0
LINE
  5
105
330
A
100
AcDbEntity
  8
0
  6
Continuous
 62
     7
100
AcDbLine
 10
174.645258347436
 20
-83.16442026993918
 30
0.0
 11
174.645258347436
 21
-72.66442026994122
 31
0.0
  0
LINE
  5
106
330
A
100
AcDbEntity
  8
0
  6
Continuous
 62
     7
100
AcDbLine
 10
114.6419530960805
 20
-140.1644202699408
 30
0.0
 11
114.6419530960805
 21
-59.16442026994087
 31
0.0
  0
LINE
  5
107
330
A
100
AcDbEntity
  8
0
  6
Continuous
 62
     7
100
AcDbLine
 10
132.6419530960805
 20
-137.1644202699408
 30
0.0
 11
132.6419530960805
 21
-62.16442028639229
 31
0.0
  0
LINE
  5
108
330
A
100
AcDbEntity
  8
0
  6
Continuous
 62
     7
100
AcDbLine
 10
112.6419530960806
 20
-139.1644202699408
 30
0.0
 11
112.6419530960806
 21
-60.16442026994088
 31
0.0
  0
ARC
  5
109
330
A
100
AcDbEntity
  8
0
  6
Continuous
 62
     7
100
AcDbCircle
 10
133.6419530960805
 20
-88.66442026994098
 30
0.0
 40
1.0
100
AcDbArc
 50
180.0000000000004
 51
270.0000000000008
  0
ARC
  5
10A
330
A
100
AcDbEntity
  8
0
  6
Continuous
 62
     7
100
AcDbCircle
 10
133.6419530960805
 20
-110.664420269941
 30
0.0
 40
1.0
100
AcDbArc
 50
90.0
 51
180.0000000000004
  0
LINE
  5
10B
330
A
100
AcDbEntity
  8
0
  6
Continuous
 62
     7
100
AcDbLine
 10
133.6419530960805
 20
-89.664420269941
 30
0.0
 11
143.9409022901168
 21
-89.664420269941
 31
0.0
  0
LINE
  5
10C
330
A
100
AcDbEntity
  8
0
  6
Continuous
 62
     7
100
AcDbLine
 10
143.9409022901184
 20
-109.664420269941
 30
0.0
 11
133.6419530960805
 21
-109.664420269941
 31
0.0
  0
LWPOLYLINE
  5
10D
330
A
100
AcDbEntity
  8
0
  6
Continuous
 62
     7
100
AcDbPolyline
 90
       15
 70
   128
 43
0.0
 10
194.6366510578397
 20
-99.66442026993911
 10
194.7665630489691
 20
-96.98575930358467
 10
195.1548270675875
 20
-94.33744863631764
 10
195.7970439272216
 20
-91.7494946862094
 10
196.685937054235
 20
-89.25122000560863
 10
197.8114349343148
 20
-86.87093104490642
 10
199.1607852267535
 20
-84.63559742914275
 10
200.718699253565
 20
-82.57054638137821
 10
202.4675252263146
 20
-80.69917575513647
 10
204.3874482479355
 20
-79.04268892737468
 10
206.4567148234306
 20
-77.6198545557499
 10
208.6518793356624
 20
-76.44679392222839
 10
210.9480696935642
 20
-75.53679827251922
 10
213.3192691428698
 20
-74.9001782209494
 10
215.558494746148
 20
-74.56077551561006
  0
LWPOLYLINE
  5
11E
330
A
100
AcDbEntity
  8
0
  6
Continuous
 62
     7
100
AcDbPolyline
 90
       15
 70
   128
 43
0.0
 10
214.3660062132072
 20
-124.6181165501906
 10
213.3192691428698
 20
-124.4286623189285
 10
210.9480696935642
 20
-123.7920422673587
 10
208.6518793356624
 20
-122.8820466176495
 10
206.4567148234306
 20
-121.708985984128
 10
204.3874482479355
 20
-120.2861516125032
 10
202.4675252263147
 20
-118.6296647847414
 10
200.7186992535651
 20
-116.7582941584996
 10
199.1607852267536
 20
-114.6932431107351
 10
197.8114349343148
 20
-112.4579094949714
 10
196.685937054235
 20
-110.0776205342692
 10
195.7970439272217
 20
-107.5793458536684
 10
195.1548270675876
 20
-104.9913919035602
 10
194.7665630489691
 20
-102.3430812362931
 10
194.6366510578397
 20
-99.66442026993911
  0
LWPOLYLINE
  5
12F
330
A
100
AcDbEntity
  8
0
  6
Continuous
 62
     7
100
AcDbPolyline
 90
       20
 70
   128
 43
0.0
 10
239.2819668989341
 20
-99.66442026993888
 10
239.1506271981973
 20
-102.2805424778411
 10
238.7582023820366
 20
-104.8649085060324
 10
238.1094559561272
 20
-107.3861476518057
 10
237.2122628232645
 20
-109.8136554872922
 10
236.0775136927116
 20
-112.1179653557584
 10
234.7189828817413
 20
-114.271106056902
 10
233.1531611140842
 20
-116.2469413793328
 10
231.3990553448814
 20
-118.0214873587739
 10
229.4779580419963
 20
-119.5732034108987
 10
227.4131887242985
 20
-120.8832538048445
 10
225.2298108942943
 20
-121.9357363034703
 10
222.954327801158
 20
-122.7178751949732
 10
220.614360727189
 20
-123.2201763727238
 10
218.2383137028621
 20
-123.4365425808594
 10
215.8550287203738
 20
-123.3643474267108
 10
213.4934356309284
 20
-123.0044672616511
 10
211.1822009755328
 20
-122.3612705433775
 10
208.949380012022
 20
-121.4425648087525
 10
208.648878923879
 20
-121.2947045782696
  0
LWPOLYLINE
  5
145
330
A
100
AcDbEntity
  8
0
  6
Continuous
 62
     7
100
AcDbPolyline
 90
       19
 70
   128
 43
0.0
 10
209.0162215850685
 20
-77.85420269938298
 10
211.1822009755328
 20
-76.96756999650045
 10
213.4934356309284
 20
-76.32437327822685
 10
215.8550287203738
 20
-75.96449311316714
 10
218.238313702862
 20
-75.89229795901849
 10
220.614360727189
 20
-76.10866416715414
 10
222.9543278011579
 20
-76.61096534490475
 10
225.2298108942943
 20
-77.39310423640766
 10
227.4131887242985
 20
-78.44558673503342
 10
229.4779580419963
 20
-79.75563712897929
 10
231.3990553448814
 20
-81.30735318110406
 10
233.1531611140842
 20
-83.08189916054521
 10
234.7189828817413
 20
-85.05773448297601
 10
236.0775136927116
 20
-87.21087518411962
 10
237.2122628232646
 20
-89.51518505258583
 10
238.1094559561272
 20
-91.94269288807234
 10
238.7582023820366
 20
-94.46393203384559
 10
239.1506271981974
 20
-97.04829806203697
 10
239.2819668989341
 20
-99.66442026993888
  0
LWPOLYLINE
  5
15A
330
A
100
AcDbEntity
  8
0
  6
Continuous
 62
     7
100
AcDbPolyline
 90
       79
 70
   128
 43
0.0
 10
196.9889087035758
 20
-82.66442026993907
 10
197.6722528910055
 20
-80.57147988915597
 10
199.0616442688011
 20
-76.97845811708207
 10
200.6859881037884
 20
-73.50647576869461
 10
202.5366178187986
 20
-70.1740573720549
 10
204.6036595035845
 20
-66.99898282115616
 10
206.8760845964049
 20
-63.99819251249608
 10
209.3417687261729
 20
-61.18769696073206
 10
211.9875564012214
 20
-58.58249137565799
 10
214.7993311995436
 20
-56.19647565627206
 10
217.7620910860116
 20
-54.04238022880157
 10
220.8600284547251
 20
-52.13169812437076
 10
224.0766144694286
 20
-50.47462365870711
 10
227.394687252004
 20
-49.0799980410562
 10
230.7965434485161
 20
-47.95526220250486
 10
234.2640326842656
 20
-47.10641709539449
 10
237.7786544038911
 20
-46.53799167564378
 10
241.3216565798369
 20
-46.25301873880938
 10
244.8741357625332
 20
-46.25301873880937
 10
248.417137938479
 20
-46.53799167564377
 10
251.9317596581045
 20
-47.10641709539447
 10
255.399248893854
 20
-47.95526220250484
 10
258.8011050903662
 20
-49.07999804105617
 10
262.1191778729416
 20
-50.4746236587071
 10
265.3357638876451
 20
-52.13169812437072
 10
268.4337012563586
 20
-54.04238022880152
 10
271.3964611428266
 20
-56.19647565627201
 10
274.2082359411488
 20
-58.58249137565792
 10
276.8540236161974
 20
-61.18769696073197
 10
279.3197077459654
 20
-63.99819251249599
 10
281.5921328387858
 20
-66.99898282115604
 10
283.6591745235717
 20
-70.1740573720548
 10
285.5098042385818
 20
-73.5064757686945
 10
287.1341480735692
 20
-76.97845811708195
 10
288.5235394513648
 20
-80.57147988915586
 10
289.6705653678159
 20
-84.26637075915905
 10
290.5691059433713
 20
-88.04341688562095
 10
291.2143670752863
 20
-91.88246609323137
 10
291.6029060162351
 20
-95.76303539341518
 10
291.7326497428573
 20
-99.66442026993874
 10
291.6029060162351
 20
-103.5658051464623
 10
291.2143670752863
 20
-107.4463744466461
 10
290.5691059433713
 20
-111.2854236542565
 10
289.6705653678159
 20
-115.0624697807184
 10
288.5235394513648
 20
-118.7573606507216
 10
287.1341480735692
 20
-122.3503824227955
 10
285.5098042385818
 20
-125.8223647711829
 10
283.6591745235717
 20
-129.1547831678226
 10
281.5921328387858
 20
-132.3298577187213
 10
279.3197077459654
 20
-135.3306480273814
 10
276.8540236161974
 20
-138.1411435791454
 10
274.2082359411488
 20
-140.7463491642194
 10
271.3964611428266
 20
-143.1323648836053
 10
268.4337012563586
 20
-145.2864603110758
 10
265.3357638876451
 20
-147.1971424155066
 10
262.1191778729416
 20
-148.8542168811702
 10
258.8011050903662
 20
-150.2488424988211
 10
255.399248893854
 20
-151.3735783373724
 10
251.9317596581045
 20
-152.2224234444828
 10
248.417137938479
 20
-152.7908488642334
 10
244.8741357625332
 20
-153.0758218010678
 10
241.3216565798369
 20
-153.0758218010678
 10
237.7786544038912
 20
-152.7908488642334
 10
234.2640326842657
 20
-152.2224234444826
 10
230.7965434485161
 20
-151.3735783373722
 10
227.394687252004
 20
-150.2488424988208
 10
224.0766144694286
 20
-148.8542168811699
 10
220.8600284547251
 20
-147.1971424155063
 10
217.7620910860116
 20
-145.2864603110755
 10
214.7993311995437
 20
-143.132364883605
 10
211.9875564012215
 20
-140.746349164219
 10
209.3417687261729
 20
-138.1411435791449
 10
206.8760845964049
 20
-135.3306480273809
 10
204.6036595035845
 20
-132.3298577187208
 10
202.5366178187986
 20
-129.154783167822
 10
200.6859881037885
 20
-125.8223647711823
 10
199.0616442688011
 20
-122.3503824227949
 10
197.6722528910056
 20
-118.757360650721
 10
196.9889087035761
 20
-116.6644202699389
  0
LWPOLYLINE
  5
1AB
330
A
100
AcDbEntity
  8
0
  6
Continuous
 62
     7
100
AcDbPolyline
 90
        8
 70
   128
 43
0.0
 10
226.5022628494238
 20
-121.3608602466771
 10
225.6092028130316
 20
-121.7536084433498
 10
223.3523279092752
 20
-122.5293512475083
 10
221.0314963545226
 20
-123.0275447632553
 10
218.6748798999669
 20
-123.2421415961807
 10
216.3110846770091
 20
-123.1705368314332
 10
213.9688039575739
 20
-122.8135996538585
 10
213.4874267497963
 20
-122.7039623138083
  0
LWPOLYLINE
  5
1B5
330
A
100
AcDbEntity
  8
0
  6
Continuous
 62
     7
100
AcDbPolyline
 90
        7
 70
   128
 43
0.0
 10
214.1523616759441
 20
-76.47674897496123
 10
216.311084677009
 20
-76.1583037084447
 10
218.6748798999669
 20
-76.08669894369722
 10
221.0314963545226
 20
-76.30129577662259
 10
223.3523279092752
 20
-76.79948929236967
 10
225.6092028130316
 20
-77.57523209652811
 10
226.5022628494231
 20
-77.96798029320057
  0
LWPOLYLINE
  5
1BE
330
A
100
AcDbEntity
  8
0
  6
Continuous
 62
     7
100
AcDbPolyline
 90
       38
 70
   128
 43
0.0
 10
227.5232609419045
 20
-99.66442026993892
 10
227.3923712969005
 20
-101.3544284731574
 10
227.0034678186651
 20
-102.9958182173595
 10
226.3677385521922
 20
-104.5413697080753
 10
225.5034722710091
 20
-105.9466202428954
 10
224.4355323424596
 20
-107.1711433224662
 10
223.1946414538948
 20
-108.1797116472721
 10
221.8164977768943
 20
-108.9433105429041
 10
220.3407479958657
 20
-109.4399726594158
 10
218.809846745118
 20
-109.6554099319858
 10
217.2678352663307
 20
-109.5834246225277
 10
215.7590744222151
 20
-109.2260876173315
 10
214.3269685152624
 20
-108.5936788514347
 10
213.012716624987
 20
-107.7043915736084
 10
211.8541273854198
 20
-106.5838089597144
 10
210.884531299545
 20
-105.2641681313149
 10
210.131821881414
 20
-103.7834327523789
 10
209.6176532105319
 20
-102.1842008837902
 10
209.3568169834155
 20
-100.512479514694
 10
209.3568169834155
 20
-98.81636102518386
 10
209.6176532105319
 20
-97.1446396560877
 10
210.131821881414
 20
-95.54540778749901
 10
210.884531299545
 20
-94.06467240856299
 10
211.8541273854198
 20
-92.74503158016347
 10
213.012716624987
 20
-91.62444896626954
 10
214.3269685152624
 20
-90.73516168844326
 10
215.7590744222151
 20
-90.10275292254645
 10
217.2678352663307
 20
-89.74541591735016
 10
218.809846745118
 20
-89.67343060789216
 10
220.3407479958657
 20
-89.88886788046212
 10
221.8164977768943
 20
-90.3855299969739
 10
223.1946414538948
 20
-91.14912889260589
 10
224.4355323424596
 20
-92.15769721741178
 10
225.5034722710091
 20
-93.38222029698261
 10
226.3677385521922
 20
-94.78747083180271
 10
227.0034678186651
 20
-96.3330223225185
 10
227.3923712969005
 20
-97.97441206672059
 10
227.5232609419045
 20
-99.66442026993892
  0
LWPOLYLINE
  5
1E6
330
A
100
AcDbEntity
  8
0
  6
Continuous
 62
     7
100
AcDbPolyline
 90
       20
 70
   128
 43
0.0
 10
218.6309948544581
 20
-109.6618238526198
 10
217.6825285089871
 20
-109.5834246225277
 10
216.1737676648715
 20
-109.2260876173315
 10
214.7416617579188
 20
-108.5936788514347
 10
213.4274098676434
 20
-107.7043915736084
 10
212.2688206280762
 20
-106.5838089597144
 10
211.2992245422014
 20
-105.2641681313149
 10
210.5465151240704
 20
-103.7834327523789
 10
210.0323464531884
 20
-102.1842008837902
 10
209.7715102260719
 20
-100.512479514694
 10
209.7715102260719
 20
-98.81636102518385
 10
210.0323464531884
 20
-97.14463965608768
 10
210.5465151240704
 20
-95.54540778749901
 10
211.2992245422014
 20
-94.06467240856299
 10
212.2688206280762
 20
-92.74503158016347
 10
213.4274098676435
 20
-91.62444896626952
 10
214.7416617579188
 20
-90.73516168844324
 10
216.1737676648715
 20
-90.10275292254643
 10
217.6825285089871
 20
-89.74541591735016
 10
218.6309948544578
 20
-89.66701668725809
  0
LINE
  5
1FC
330
A
100
AcDbEntity
  8
0
  6
Continuous
 62
     7
100
AcDbLine
 10
192.7702583474352
 20
-82.66442026993908
 30
0.0
 11
192.7702583474354
 21
-116.6644202699389
 31
0.0
  0
LINE
  5
1FD
330
A
100
AcDbEntity
  8
0
  6
Continuous
 62
     7
100
AcDbLine
 10
162.1452583474353
 20
-83.16442026993927
 30
0.0
 11
162.1452583474356
 21
-116.1644202699392
 31
0.0
  0
LWPOLYLINE
  5
1FE
330
A
100
AcDbEntity
  8
0
  6
Continuous
 62
     7
100
AcDbPolyline
 90
       12
 70
   128
 43
0.0
 10
174.5775639816411
 20
-116.1440375705407
 10
174.5635901516974
 20
-116.1398561590685
 10
174.02633044256
 20
-115.9875263684327
 10
173.0184868773679
 20
-115.7463564318305
 10
171.5943965396414
 20
-115.5089505467355
 10
169.9431383285032
 20
-115.3914267391666
 10
168.3249531833499
 20
-115.44393882173
 10
166.8721882577068
 20
-115.6312583327038
 10
165.6701484901712
 20
-115.88328269544
 10
164.8826131908657
 20
-116.0940516987753
 10
164.6452583474356
 20
-116.1644202699392
 10
164.6452583474356
 20
-116.1644202699392
  0
LWPOLYLINE
  5
20C
330
A
100
AcDbEntity
  8
0
  6
Continuous
 62
     7
100
AcDbPolyline
 90
       11
 70
   128
 43
0.0
 10
164.6452583474354
 20
-83.16442026993925
 10
164.912726740697
 20
-83.24349290852698
 10
165.6787710593017
 20
-83.44766901061094
 10
166.8937767826445
 20
-83.70131747626583
 10
168.4574043926716
 20
-83.89543181100986
 10
170.1200483611867
 20
-83.93306859383848
 10
171.6695776215352
 20
-83.81046592020387
 10
173.0200277405385
 20
-83.5821608373649
 10
174.0517740164068
 20
-83.33446679967817
 10
174.5891579047483
 20
-83.18133370119243
 10
174.5775639816409
 20
-83.18480296933756
  0
LINE
  5
219
330
A
100
AcDbEntity
  8
0
  6
Continuous
 62
     7
100
AcDbLine
 10
177.1452583474355
 20
-116.1644202699391
 30
0.0
 11
177.1452583474353
 21
-83.16442026993916
 31
0.0
  0
LINE
  5
21A
330
A
100
AcDbEntity
  8
0
  6
Continuous
 62
     7
100
AcDbLine
 10
143.3952583474354
 20
-92.16442026993943
 30
0.0
 11
143.3952583474355
 21
-107.1644202699393
 31
0.0
  0
LINE
  5
21B
330
A
100
AcDbEntity
  8
0
  6
Continuous
 62
     7
100
AcDbLine
 10
133.3952583474354
 20
-93.16442026993948
 30
0.0
 11
133.3952583474355
 21
-106.1644202699394
 31
0.0
  0
LINE
  5
21C
330
A
100
AcDbEntity
  8
0
  6
Continuous
 62
     7
100
AcDbLine
 10
169.645258347436
 20
-126.6644202699412
 30
0.0
 11
174.645258347436
 21
-126.6644202699412
 31
0.0
  0
LINE
  5
21D
330
A
100
AcDbEntity
  8
0
  6
Continuous
 62
     7
100
AcDbLine
 10
164.645258347436
 20
-126.6644202699412
 30
0.0
 11
169.645258347436
 21
-126.6644202699412
 31
0.0
  0
LINE
  5
21E
330
A
100
AcDbEntity
  8
0
  6
Continuous
 62
     7
100
AcDbLine
 10
169.645258347436
 20
-72.66442026994124
 30
0.0
 11
164.645258347436
 21
-72.66442026994122
 31
0.0
  0
LINE
  5
21F
330
A
100
AcDbEntity
  8
0
  6
Continuous
 62
     7
100
AcDbLine
 10
174.645258347436
 20
-72.66442026994122
 30
0.0
 11
169.645258347436
 21
-72.66442026994124
 31
0.0
  0
LINE
  5
220
330
A
100
AcDbEntity
  8
0
  6
PHANTOM
 62
     7
100
AcDbLine
 10
129.6419530960805
 20
-140.1644202699408
 30
0.0
 11
129.6419530960805
 21
-59.16442026994087
 31
0.0
  0
LINE
  5
221
330
A
100
AcDbEntity
  8
0
  6
PHANTOM
 62
     7
100
AcDbLine
 10
133.6419530960805
 20
-90.66442026994099
 30
0.0
 11
133.6419530960805
 21
-89.664420269941
 31
0.0
  0
LINE
  5
222
330
A
100
AcDbEntity
  8
0
  6
PHANTOM
 62
     7
100
AcDbLine
 10
132.6419530960805
 20
-90.66442026994099
 30
0.0
 11
133.6419530960805
 21
-90.66442026994099
 31
0.0
  0
LINE
  5
223
330
A
100
AcDbEntity
  8
0
  6
PHANTOM
 62
     7
100
AcDbLine
 10
133.6419530960805
 20
-90.66442026994099
 30
0.0
 11
133.6419530960805
 21
-93.16442026993948
 31
0.0
  0
LINE
  5
224
330
A
100
AcDbEntity
  8
0
  6
PHANTOM
 62
     7
100
AcDbLine
 10
133.6419530960805
 20
-106.1644202699394
 30
0.0
 11
133.6419530960805
 21
-108.664420269941
 31
0.0
  0
LINE
  5
225
330
A
100
AcDbEntity
  8
0
  6
PHANTOM
 62
     7
100
AcDbLine
 10
132.6419530960805
 20
-108.664420269941
 30
0.0
 11
133.6419530960805
 21
-108.664420269941
 31
0.0
  0
LINE
  5
226
330
A
100
AcDbEntity
  8
0
  6
PHANTOM
 62
     7
100
AcDbLine
 10
133.6419530960805
 20
-109.664420269941
 30
0.0
 11
133.6419530960805
 21
-108.664420269941
 31
0.0
  0
LINE
  5
227
330
A
100
AcDbEntity
  8
0
  6
PHANTOM
 62
     7
100
AcDbLine
 10
143.5857833281239
 20
-90.66442026994099
 30
0.0
 11
133.6419530960805
 21
-90.66442026994099
 31
0.0
  0
LINE
  5
228
330
A
100
AcDbEntity
  8
0
  6
PHANTOM
 62
     7
100
AcDbLine
 10
133.6419530960805
 20
-108.664420269941
 30
0.0
 11
143.5857833281249
 21
-108.664420269941
 31
0.0
  0
LWPOLYLINE
  5
229
330
A
100
AcDbEntity
  8
0
  6
PHANTOM
 62
     7
100
AcDbPolyline
 90
       34
 70
   128
 43
0.0
 10
215.558494746148
 20
-74.56077551561006
 10
215.7386110463353
 20
-74.54414692708366
 10
218.1786832934745
 20
-74.47273836774442
 10
220.6118388907241
 20
-74.6867616304424
 10
223.0105092129273
 20
-75.18379174609186
 10
225.3475163668737
 20
-75.95819716487934
 10
227.5963811276884
 20
-77.00120356397327
 10
229.7316229590305
 20
-78.3009932641077
 10
231.7290487177517
 20
-79.84283912861052
 10
233.5660267718747
 20
-81.60927142774657
 10
235.2217434260273
 20
-83.58027577773603
 10
236.6774387489269
 20
-85.73351991172023
 10
237.9166191308989
 20
-88.04460671326838
 10
238.925244163064
 20
-90.48735064545555
 10
239.6918857207819
 20
-93.03407444345905
 10
240.2078574488691
 20
-95.65592270902834
 10
240.4673131814745
 20
-98.32318885367712
 10
240.4673131814745
 20
-101.005651686201
 10
240.207857448869
 20
-103.6729178308497
 10
239.6918857207819
 20
-106.2947660964191
 10
238.925244163064
 20
-108.8414898944225
 10
237.9166191308989
 20
-111.2842338266097
 10
236.6774387489269
 20
-113.5953206281578
 10
235.2217434260273
 20
-115.748564762142
 10
233.5660267718747
 20
-117.7195691121315
 10
231.7290487177517
 20
-119.4860014112675
 10
229.7316229590305
 20
-121.0278472757703
 10
227.5963811276884
 20
-122.3276369759047
 10
225.3475163668737
 20
-123.3706433749987
 10
223.0105092129273
 20
-124.1450487937861
 10
220.6118388907241
 20
-124.6420789094356
 10
218.1786832934746
 20
-124.8561021721335
 10
215.7386110463353
 20
-124.7846936127943
 10
214.3660062132072
 20
-124.6181165501906
  0
LWPOLYLINE
  5
24D
330
A
100
AcDbEntity
  8
0
  6
PHANTOM
 62
     7
100
AcDbPolyline
 90
       23
 70
   128
 43
0.0
 10
208.648878923879
 20
-121.2947045782696
 10
206.8220761622338
 20
-120.2595019008828
 10
204.8261120131824
 20
-118.8264426008503
 10
202.9857158658324
 20
-117.1607823072839
 10
201.3232276363462
 20
-115.2827398797842
 10
199.8588276797633
 20
-113.2151122093575
 10
198.6102918278281
 20
-110.9829974950399
 10
197.5927756144714
 20
-108.6134905857607
 10
196.8186303081596
 20
-106.1353540855793
 10
196.2972529842261
 20
-103.5786692146353
 10
196.034972457107
 20
-100.9744706638848
 10
196.0349724571069
 20
-98.35436987599308
 10
196.297252984226
 20
-95.75017132524259
 10
196.8186303081596
 20
-93.19348645429856
 10
197.5927756144714
 20
-90.71534995411717
 10
198.6102918278281
 20
-88.34584304483795
 10
199.8588276797633
 20
-86.11372833052042
 10
201.3232276363461
 20
-84.04610066009366
 10
202.9857158658324
 20
-82.16805823259402
 10
204.8261120131823
 20
-80.50239793902759
 10
206.8220761622338
 20
-79.06933863899512
 10
208.949380012022
 20
-77.88627573112538
 10
209.0162215850685
 20
-77.85420269938298
  0
LWPOLYLINE
  5
266
330
A
100
AcDbEntity
  8
0
  6
PHANTOM
 62
     7
100
AcDbPolyline
 90
       27
 70
   128
 43
0.0
 10
213.4874267497963
 20
-122.7039623138083
 10
211.6764698566578
 20
-122.1756627972725
 10
209.4619082049679
 20
-121.2644699509418
 10
207.3520007810309
 20
-120.0910817616865
 10
205.3723590028173
 20
-118.6697415726104
 10
203.5470130398204
 20
-117.0177025282103
 10
201.8981201193521
 20
-115.155018144574
 10
200.4456955678173
 20
-113.1042988868595
 10
199.207369851765
 20
-110.8904377088776
 10
198.1981745679079
 20
-108.5403078863533
 10
197.4303599798997
 20
-106.0824368117617
 10
196.9132463167297
 20
-103.546659710428
 10
196.6531106377679
 20
-100.9637574813077
 10
196.6531106377679
 20
-98.36508305857016
 10
196.9132463167297
 20
-95.78218082944983
 10
197.4303599798997
 20
-93.24640372811613
 10
198.1981745679079
 20
-90.78853265352453
 10
199.207369851765
 20
-88.4384028310002
 10
200.4456955678172
 20
-86.22454165301837
 10
201.8981201193521
 20
-84.17382239530391
 10
203.5470130398204
 20
-82.31113801166754
 10
205.3723590028172
 20
-80.65909896726747
 10
207.3520007810309
 20
-79.23775877819132
 10
209.4619082049679
 20
-78.06437058893604
 10
211.6764698566578
 20
-77.15317774260544
 10
213.9688039575738
 20
-76.51524088601938
 10
214.1523616759441
 20
-76.47674897496123
  0
LWPOLYLINE
  5
283
330
A
100
AcDbEntity
  8
0
  6
PHANTOM
 62
     7
100
AcDbPolyline
 90
       25
 70
   128
 43
0.0
 10
238.9914650935429
 20
-99.66442026993888
 10
238.8388355821176
 20
-96.91479288459511
 10
238.3640134631187
 20
-94.12321231190579
 10
237.5473637283371
 20
-91.34439081829063
 10
236.6865715127672
 20
-89.26720218815511
 10
235.6388186208643
 20
-87.29586091245026
 10
232.9672910093335
 20
-83.68171502558828
 10
231.39227629881
 20
-82.12038562226039
 10
229.6785582249913
 20
-80.74584544846079
 10
227.8851403557599
 20
-79.59466142444128
 10
225.9945528066911
 20
-78.64845386866936
 10
222.166230970512
 20
-77.4388098151531
 10
218.4236482331389
 20
-77.06146174996674
 10
215.9218064800576
 20
-77.22915038141032
 10
213.3813635972789
 20
-77.750998382512
 10
210.8527436595869
 20
-78.64845386866943
 10
208.9625824534498
 20
-79.59441964030556
 10
207.1687382412866
 20
-80.74584544846088
 10
203.8800054569445
 20
-83.68171502558842
 10
202.4592561687564
 20
-85.41257408641575
 10
201.2084778454137
 20
-87.29586091245044
 10
200.1609449677921
 20
-89.26673365917967
 10
199.2999327379411
 20
-91.34439081829084
 10
198.199203497695
 20
-95.55151694409984
 10
197.8558313727353
 20
-99.6644202699391
  0
LWPOLYLINE
  5
29E
330
A
100
AcDbEntity
  8
0
  6
PHANTOM
 62
     7
100
AcDbPolyline
 90
       25
 70
   128
 43
0.0
 10
197.8558313727353
 20
-99.6644202699391
 10
198.0084608842203
 20
-102.4140476552646
 10
198.4832830030888
 20
-105.2056282279483
 10
199.2999327379412
 20
-107.9844497215873
 10
200.1607249538563
 20
-110.061638352479
 10
201.208477845414
 20
-112.0329796274277
 10
203.8800054569448
 20
-115.6471255142896
 10
205.4550201676903
 20
-117.208454917756
 10
207.1687382412869
 20
-118.5829950914172
 10
208.962156110262
 20
-119.7341791152731
 10
210.8527436595871
 20
-120.6803866712086
 10
214.6810654957662
 20
-121.8900307247248
 10
218.4236482331393
 20
-122.2673787899112
 10
220.9254899862513
 20
-122.0996901584676
 10
223.4659328691269
 20
-121.5778421573334
 10
225.9945528066913
 20
-120.6803866712085
 10
227.8847140130771
 20
-119.7344208994372
 10
229.6785582249915
 20
-118.582995091417
 10
232.9672910093337
 20
-115.6471255142895
 10
234.388040297736
 20
-113.9162664533561
 10
235.6388186208645
 20
-112.0329796274275
 10
236.6863514988314
 20
-110.0621068798694
 10
237.5473637283371
 20
-107.9844497215871
 10
238.6480929685831
 20
-103.7773235957781
 10
238.9914650935429
 20
-99.66442026993888
  0
LWPOLYLINE
  5
2B9
330
A
100
AcDbEntity
  8
0
  6
PHANTOM
 62
     7
100
AcDbPolyline
 90
       28
 70
   128
 43
0.0
 10
196.2773717546759
 20
-82.6644202699391
 10
197.1985257547957
 20
-79.69528227620727
 10
199.264911524583
 20
-74.70896656358291
 10
201.7792788446581
 20
-69.9782911487949
 10
204.7810911255175
 20
-65.45845389698624
 10
208.1912878211591
 20
-61.30387739056864
 10
211.972172038935
 20
-57.55590970594466
 10
216.0846683887035
 20
-54.25741378632697
 10
220.3898261436251
 20
-51.49401339299351
 10
224.9267539840999
 20
-49.22340493730192
 10
230.9954805675192
 20
-47.06948728389366
 10
237.0928551419166
 20
-45.81692476415658
 10
243.0978961711848
 20
-45.41442026993867
 10
247.608379566308
 20
-45.64086554167128
 10
252.0805748467698
 20
-46.32010403333945
 10
256.7392958593403
 20
-47.52621848103813
 10
261.26903835827
 20
-49.22340493730173
 10
265.8063925417057
 20
-51.49425517719556
 10
270.1111239536662
 20
-54.25741378632668
 10
274.2240008033409
 20
-57.55624899695273
 10
278.0045045212109
 20
-61.30387739056827
 10
281.4150099588152
 20
-65.45887204686046
 10
284.4165134977119
 20
-69.97829114879444
 10
286.9311008317946
 20
-74.70943509200935
 10
288.9972665875745
 20
-79.69528227620678
 10
290.9572482325625
 20
-86.36449642537275
 10
292.0969922612327
 20
-93.06495950436014
 10
292.4632951162377
 20
-99.66442026993835
  0
LWPOLYLINE
  5
2D7
330
A
100
AcDbEntity
  8
0
  6
PHANTOM
 62
     7
100
AcDbPolyline
 90
       29
 70
   128
 43
0.0
 10
292.4632951162377
 20
-99.66442026993835
 10
292.2572386889665
 20
-104.6212063873346
 10
291.6391579678812
 20
-109.5359158632972
 10
290.5416405323141
 20
-114.6556073948351
 10
288.9972665875749
 20
-119.63355826367
 10
286.9308808171124
 20
-124.6198739772878
 10
284.4165134977122
 20
-129.3505493910823
 10
281.4147012169605
 20
-133.8703866428542
 10
278.0045045212114
 20
-138.0249631493086
 10
274.2236203033401
 20
-141.772930833956
 10
270.1111239536669
 20
-145.0714267535502
 10
265.8059661996751
 20
-147.8348271462598
 10
261.2690383582705
 20
-150.1054356025753
 10
255.2003117756274
 20
-152.2593532558331
 10
249.1029372004198
 20
-153.5119157757207
 10
243.0978961711856
 20
-153.9144202699386
 10
238.5874127763116
 20
-153.6879749982059
 10
234.1152174956006
 20
-153.0087365065377
 10
229.4564964828859
 20
-151.8026220588635
 10
224.9267539841004
 20
-150.1054356025755
 10
220.3893997998447
 20
-147.8345853622341
 10
216.0846683887042
 20
-145.0714267535505
 10
211.9717915390777
 20
-141.7725915428145
 10
208.1912878211597
 20
-138.0249631493089
 10
204.7807823838887
 20
-133.869968493546
 10
201.7792788446585
 20
-129.3505493910827
 10
199.264691511575
 20
-124.6194054495777
 10
197.198525754796
 20
-119.6335582636704
 10
196.3259407935306
 20
-116.6644202699389
  0
LINE
  5
2F6
330
A
100
AcDbEntity
  8
0
  6
PHANTOM
 62
     7
100
AcDbLine
 10
149.3952583474353
 20
-86.1644202699394
 30
0.0
 11
149.3952583474355
 21
-113.1644202699393
 31
0.0
  0
LINE
  5
2F7
330
A
100
AcDbEntity
  8
0
  6
Continuous
 62
     7
100
AcDbLine
 10
-63.50020269938861
 20
155.5887934074328
 30
0.0
 11
-63.50020269938861
 21
170.300943561191
 31
0.0
  0
LINE
  5
2F8
330
A
100
AcDbEntity
  8
0
  6
Continuous
 62
     7
100
AcDbLine
 10
-70.00020269938861
 20
170.300943561191
 30
0.0
 11
-70.00020269938861
 21
155.5887934074328
 31
0.0
  0
LWPOLYLINE
  5
2F9
330
A
100
AcDbEntity
  8
0
  6
Continuous
 62
     7
100
AcDbPolyline
 90
       51
 70
   128
 43
0.0
 10
-66.75020269938617
 20
219.9043990964661
 10
-70.66224861930606
 20
219.8466056275095
 10
-72.22077933515646
 20
219.7912478009707
 10
-74.7968007465428
 20
219.6588888980366
 10
-77.44289242187758
 20
219.4690677804596
 10
-80.24426326581886
 20
219.2070842675688
 10
-83.11928680289019
 20
218.8706378750527
 10
-86.02779918658182
 20
218.457381404366
 10
-88.93541472314147
 20
217.9666975658995
 10
-91.81456384366239
 20
217.3989775940236
 10
-94.64227290112303
 20
216.7554127936608
 10
-97.39903913899901
 20
216.0377998080678
 10
-100.0680737762155
 20
215.2483911034112
 10
-102.6348058876563
 20
214.389766275826
 10
-105.0865463776448
 20
213.4647126010681
 10
-107.4122484467898
 20
212.4761063339661
 10
-109.6023194296315
 20
211.4267892767028
 10
-111.6484484653696
 20
210.31943843039
 10
-113.5434181292439
 20
209.1564316040568
 10
-115.2808688366592
 20
207.939720412214
 10
-116.8549867569319
 20
206.6707356640833
 10
-118.2595093313571
 20
205.3509670816634
 10
-119.4883053742443
 20
203.9813610293732
 10
-120.5346430139513
 20
202.5627454105694
 10
-121.3908869088093
 20
201.0960622825784
 10
-122.0483559332781
 20
199.5822945858707
 10
-122.4969802014739
 20
198.021994473905
 10
-122.7243091173969
 20
196.4146332695341
 10
-122.7137142389775
 20
194.7583258801208
 10
-122.4423033656051
 20
193.0507197433846
 10
-121.953243164752
 20
191.477420708203
 10
-121.2360364461888
 20
189.9228538489884
 10
-120.2928970625432
 20
188.3959743569444
 10
-119.1291911444932
 20
186.9063960047876
 10
-117.7529079917864
 20
185.462661849377
 10
-116.173189222688
 20
184.0712617285076
 10
-114.3992241521428
 20
182.7368302833886
 10
-112.440779011758
 20
181.4633838529581
 10
-110.306524779286
 20
180.2536569011677
 10
-108.0051457999595
 20
179.1102597869847
 10
-105.5458974155712
 20
178.0359569183583
 10
-102.9387541411312
 20
177.0336090762968
 10
-100.194565696667
 20
176.1061113311248
 10
-97.32522381948777
 20
175.2563233664044
 10
-94.34391050897673
 20
174.4870053609523
 10
-91.26555156133662
 20
173.8007647055603
 10
-88.10774487470798
 20
173.2000171532059
 10
-84.89284923716958
 20
172.6869702466382
 10
-81.65327337721022
 20
172.2636565713501
 10
-78.44738596595606
 20
171.9321370282032
 10
-77.35986512257785
 20
171.847095061117
  0
LWPOLYLINE
  5
32E
330
A
100
AcDbEntity
  8
0
  6
Continuous
 62
     7
100
AcDbPolyline
 90
        9
 70
   128
 43
0.0
 10
-75.33560659337652
 20
171.6907087157826
 10
-72.908165701532
 20
171.5536498695863
 10
-70.7586607708885
 20
171.4708632784447
 10
-68.08673353918888
 20
171.4169205248328
 10
-66.7502026993865
 20
171.4101822682645
 10
-62.83815678140629
 20
171.4679757371638
 10
-61.27962606230808
 20
171.5233335638141
 10
-58.70360465150254
 20
171.6556924667386
 10
-58.2611203233362
 20
171.6874347039684
  0
LWPOLYLINE
  5
339
330
A
100
AcDbEntity
  8
0
  6
Continuous
 62
     7
100
AcDbPolyline
 90
       52
 70
   128
 43
0.0
 10
-56.14127001133539
 20
171.8395051553087
 10
-56.05751297600417
 20
171.8455135843443
 10
-53.2561421320454
 20
172.1074970972572
 10
-50.3811185949555
 20
172.4439434897978
 10
-47.47260621126247
 20
172.8571999605087
 10
-44.56499067470569
 20
173.3478837990002
 10
-41.68584155419718
 20
173.9156037709007
 10
-38.85813249675737
 20
174.5591685712872
 10
-36.10136625890652
 20
175.2767815569034
 10
-33.4323316217191
 20
176.0661902615831
 10
-30.86559951031475
 20
176.9248150891894
 10
-28.41385902036467
 20
177.8498687639681
 10
-26.08815695126069
 20
178.8384750310904
 10
-23.89808596846443
 20
179.8877920883723
 10
-21.8519569327732
 20
180.9951429347033
 10
-19.95698726894789
 20
182.1581497610542
 10
-18.21953656158441
 20
183.3748609529136
 10
-16.64541864136491
 20
184.6438457010607
 10
-15.24089606699526
 20
185.9636142834961
 10
-14.01210002416459
 20
187.3332203358027
 10
-12.96576238451753
 20
188.7518359546214
 10
-12.1095184897212
 20
190.218519082628
 10
-11.45204946531751
 20
191.7322867793503
 10
-11.00342519719021
 20
193.2925868913312
 10
-10.77609628134011
 20
194.8999480957176
 10
-10.78669115983867
 20
196.5562554851466
 10
-11.05810203329855
 20
198.2638616218982
 10
-11.5471622342315
 20
199.8371606570746
 10
-12.26436895287391
 20
201.3917275162809
 10
-13.20750833659767
 20
202.9186070083133
 10
-14.37121425472354
 20
204.4081853604557
 10
-15.74749740750331
 20
205.8519195158494
 10
-17.32721617667081
 20
207.2433196366992
 10
-19.10118124728226
 20
208.5777510817977
 10
-21.05962638772977
 20
209.8511975122062
 10
-23.19388062026117
 20
211.0609244639738
 10
-25.49525959964587
 20
212.2043215781338
 10
-27.95450798408765
 20
213.2786244467355
 10
-30.56165125857799
 20
214.2809722887715
 10
-33.3058397030879
 20
215.2084700339167
 10
-36.17518158030749
 20
216.0582579986091
 10
-39.15649489085525
 20
216.8275760040327
 10
-42.23485383852665
 20
217.5138166593954
 10
-45.39266052518052
 20
218.1145642117195
 10
-48.60755616273412
 20
218.6276111182562
 10
-51.84713202269381
 20
219.0509247935124
 10
-55.05301943391946
 20
219.382444336627
 10
-58.07707938541179
 20
219.6189198105455
 10
-60.59223969641131
 20
219.7609314951054
 10
-62.74174462420469
 20
219.8437180861743
 10
-65.41367184058755
 20
219.8976608397062
 10
-66.75020269938617
 20
219.9043990964661
  0
LINE
  5
36F
330
A
100
AcDbEntity
  8
0
  6
Continuous
 62
     7
100
AcDbLine
 10
-17.18187689131725
 20
207.1153062819476
 30
0.0
 11
-42.10665693270643
 21
255.4546396264223
 31
0.0
  0
LINE
  5
370
330
A
100
AcDbEntity
  8
0
  6
Continuous
 62
     7
100
AcDbLine
 10
-91.39374846606642
 20
255.4546396264222
 30
0.0
 11
-116.329207091932
 21
207.0945961431295
 31
0.0
  0
LWPOLYLINE
  5
371
330
A
100
AcDbEntity
  8
0
  6
Continuous
 62
     7
100
AcDbPolyline
 90
       14
 70
   128
 43
0.0
 10
-66.75020269938634
 20
263.9026897827513
 10
-69.36921565704969
 20
263.8452521474883
 10
-70.40814578379123
 20
263.79034690372
 10
-72.11343313236429
 20
263.6596514023161
 10
-73.84358604351078
 20
263.4736757006972
 10
-75.64649317140895
 20
263.2193596935445
 10
-77.45896811003524
 20
262.8964419731625
 10
-79.24657240896303
 20
262.5048855443018
 10
-80.97978983577956
 20
262.0465767062293
 10
-82.63494794565579
 20
261.5244597038471
 10
-84.1928168988446
 20
260.9421797648543
 10
-85.63790888902115
 20
260.303695753961
 10
-86.95793998472598
 20
259.6128852981426
 10
-87.43996296964224
 20
259.31206460206
  0
LWPOLYLINE
  5
381
330
A
100
AcDbEntity
  8
0
  6
Continuous
 62
     7
100
AcDbPolyline
 90
       14
 70
   128
 43
0.0
 10
-45.16159722963755
 20
258.7284423048231
 10
-46.29813338428512
 20
259.4709900442765
 10
-47.73640404610851
 20
260.2426305311304
 10
-49.3282517069043
 20
260.9505664673358
 10
-51.05935826392445
 20
261.5903924118391
 10
-52.91206103186638
 20
262.1574635074341
 10
-54.86403654801563
 20
262.6472460059174
 10
-56.88487520583539
 20
263.0554994886436
 10
-58.92558051150351
 20
263.3782099345745
 10
-60.87666982702585
 20
263.6105038176093
 10
-62.55825578723055
 20
263.754898948932
 10
-63.98544572498763
 20
263.8386613131694
 10
-65.73225313831966
 20
263.8940330471505
 10
-66.75020269938634
 20
263.9026897827513
  0
LWPOLYLINE
  5
391
330
A
100
AcDbEntity
  8
0
  6
Continuous
 62
     7
100
AcDbPolyline
 90
       11
 70
   128
 43
0.0
 10
-66.75020269938641
 20
118.5992391223125
 10
-65.51425179134492
 20
118.7181190924266
 10
-65.01416141559707
 20
118.8363485001179
 10
-64.21513729264131
 20
119.1183740037645
 10
-63.43585074777179
 20
119.5219242490363
 10
-62.6776304654351
 20
120.0723054956867
 10
-61.99321262655502
 20
120.7654018962252
 10
-61.42351281817913
 20
121.5933580529443
 10
-61.00725853926864
 20
122.5410342993485
 10
-60.78099864602118
 20
123.5871073821459
 10
-60.780948925949
 20
123.6571667704638
  0
LWPOLYLINE
  5
39E
330
A
100
AcDbEntity
  8
0
  6
Continuous
 62
     7
100
AcDbPolyline
 90
       11
 70
   128
 43
0.0
 10
-72.72015378426812
 20
123.6583589180973
 10
-72.72019919906941
 20
123.5943659793805
 10
-72.45990683229884
 20
122.4426604223087
 10
-71.99708575559369
 20
121.4557187804073
 10
-71.34479652699841
 20
120.5785144412372
 10
-70.54246906575568
 20
119.8472338870642
 10
-69.65806451657222
 20
119.2938501829372
 10
-68.84867295640503
 20
118.9493416440432
 10
-68.17049209281076
 20
118.7567819637327
 10
-67.35202891936395
 20
118.6271935573456
 10
-66.75020269938641
 20
118.5992391223125
  0
LWPOLYLINE
  5
3AB
330
A
100
AcDbEntity
  8
0
  6
Continuous
 62
     7
100
AcDbPolyline
 90
        9
 70
   128
 43
0.0
 10
-66.75020269938641
 20
120.5992391223126
 10
-67.78894245902247
 20
120.7213464063945
 10
-68.18557086435608
 20
120.8362677214419
 10
-68.80679123511865
 20
121.1055321863052
 10
-69.38622170623782
 20
121.480812865456
 10
-69.91477957238775
 20
121.9799436124433
 10
-70.34480850291044
 20
122.5938389654445
 10
-70.63736285339733
 20
123.3130932535059
 10
-70.71208843853752
 20
123.8514300913823
  0
LWPOLYLINE
  5
3B6
330
A
100
AcDbEntity
  8
0
  6
Continuous
 62
     7
100
AcDbPolyline
 90
        9
 70
   128
 43
0.0
 10
-62.79380411853312
 20
123.8519920999294
 10
-62.87059115678507
 20
123.2859921351495
 10
-63.20353849598454
 20
122.5095867817021
 10
-63.71333533200568
 20
121.8407065140856
 10
-64.34198294608051
 20
121.3161900509721
 10
-64.98316800925545
 20
120.9652834058003
 10
-65.50477955658962
 20
120.7761500451963
 10
-66.12086126856159
 20
120.6435726545129
 10
-66.75020269938641
 20
120.5992391223126
  0
LINE
  5
3C1
330
A
100
AcDbEntity
  8
0
  6
Continuous
 62
     7
100
AcDbLine
 10
-77.57658820346795
 20
174.1012112193405
 30
0.0
 11
-72.72657943811686
 21
123.6567313355169
 31
0.0
  0
LINE
  5
3C2
330
A
100
AcDbEntity
  8
0
  6
Continuous
 62
     7
100
AcDbLine
 10
-70.73576636740627
 20
123.8482078800856
 30
0.0
 11
-75.5857685585902
 21
174.2926195304698
 31
0.0
  0
LINE
  5
3C3
330
A
100
AcDbEntity
  8
0
  6
Continuous
 62
     7
100
AcDbLine
 10
-57.91463684018282
 20
174.2926195304697
 30
0.0
 11
-62.76463903136655
 21
123.8482078800857
 31
0.0
  0
LINE
  5
3C4
330
A
100
AcDbEntity
  8
0
  6
Continuous
 62
     7
100
AcDbLine
 10
-60.7738508358892
 20
123.6564757078175
 30
0.0
 11
-55.92381719530507
 21
174.1012112193404
 31
0.0
  0
ARC
  5
3C5
330
A
100
AcDbEntity
  8
0
  6
Continuous
 62
     7
100
AcDbCircle
 10
-66.46333579441353
 20
216.8293174074352
 30
0.0
 40
20.00000000000003
100
AcDbArc
 50
185.141196209196
 51
354.592677649165
  0
LINE
  5
3C6
330
A
100
AcDbEntity
  8
0
  6
Continuous
 62
     7
100
AcDbLine
 10
-66.75020269938864
 20
155.5887934074328
 30
0.0
 11
-59.71292518793794
 21
155.5887934074328
 31
0.0
  0
ARC
  5
3C7
330
A
100
AcDbEntity
  8
0
  6
Continuous
 62
     7
100
AcDbCircle
 10
-57.75020269938861
 20
154.5887934074328
 30
0.0
 40
1.000000000000015
100
AcDbArc
 50
0.0
 51
87.34071248352895
  0
ARC
  5
3C8
330
A
100
AcDbEntity
  8
0
  6
Continuous
 62
     7
100
AcDbCircle
 10
-57.75020269938861
 20
128.5887934074328
 30
0.0
 40
1.0
100
AcDbArc
 50
270.0000000000008
 51
0.0
  0
LINE
  5
3C9
330
A
100
AcDbEntity
  8
0
  6
Continuous
 62
     7
100
AcDbLine
 10
-57.75020269938861
 20
127.5887934074328
 30
0.0
 11
-60.39577594999276
 21
127.5887934074328
 31
0.0
  0
LINE
  5
3CA
330
A
100
AcDbEntity
  8
0
  6
Continuous
 62
     7
100
AcDbLine
 10
-62.40499863889493
 20
127.5887934074328
 30
0.0
 11
-66.75020269938864
 21
127.5887934074328
 31
0.0
  0
LINE
  5
3CB
330
A
100
AcDbEntity
  8
0
  6
Continuous
 62
     7
100
AcDbLine
 10
-56.75020269938861
 20
154.5887934074328
 30
0.0
 11
-56.75020269938861
 21
128.5887934074328
 31
0.0
  0
LINE
  5
3CC
330
A
100
AcDbEntity
  8
0
  6
Continuous
 62
     7
100
AcDbLine
 10
-76.75020269938861
 20
128.5887934074328
 30
0.0
 11
-76.75020269938861
 21
154.5887934074328
 31
0.0
  0
ARC
  5
3CD
330
A
100
AcDbEntity
  8
0
  6
Continuous
 62
     7
100
AcDbCircle
 10
-75.75020269938862
 20
154.5887934074328
 30
0.0
 40
1.000000000000016
100
AcDbArc
 50
92.65928751622572
 51
180.0000000000004
  0
LINE
  5
3CE
330
A
100
AcDbEntity
  8
0
  6
Continuous
 62
     7
100
AcDbLine
 10
-73.787480210835
 20
155.5887934074328
 30
0.0
 11
-66.75020269938864
 21
155.5887934074328
 31
0.0
  0
LINE
  5
3CF
330
A
100
AcDbEntity
  8
0
  6
Continuous
 62
     7
100
AcDbLine
 10
-66.75020269938864
 20
127.5887934074328
 30
0.0
 11
-71.09540675987791
 21
127.5887934074328
 31
0.0
  0
LINE
  5
3D0
330
A
100
AcDbEntity
  8
0
  6
Continuous
 62
     7
100
AcDbLine
 10
-73.10462944878008
 20
127.5887934074328
 30
0.0
 11
-75.75020269938862
 21
127.5887934074328
 31
0.0
  0
ARC
  5
3D1
330
A
100
AcDbEntity
  8
0
  6
Continuous
 62
     7
100
AcDbCircle
 10
-75.75020269938862
 20
128.5887934074328
 30
0.0
 40
0.9999999999999857
100
AcDbArc
 50
180.0000000000004
 51
270.0000000000008
  0
LINE
  5
3D2
330
A
100
AcDbEntity
  8
0
  6
Continuous
 62
     7
100
AcDbLine
 10
-70.00020269938861
 20
170.5887934074328
 30
0.0
 11
-63.50020269938861
 21
170.5887934074328
 31
0.0
  0
LINE
  5
3D3
330
A
100
AcDbEntity
  8
0
  6
Continuous
 62
     7
100
AcDbLine
 10
-56.75020269938857
 20
127.6703085900598
 30
0.0
 11
-56.75020269938857
 21
128.5887934074328
 31
0.0
  0
LINE
  5
3D4
330
A
100
AcDbEntity
  8
0
  6
Continuous
 62
     7
100
AcDbLine
 10
-76.75020269938858
 20
128.5887934074328
 30
0.0
 11
-76.75020269938856
 21
127.6703085900598
 31
0.0
  0
LINE
  5
3D5
330
A
100
AcDbEntity
  8
0
  6
Continuous
 62
     7
100
AcDbLine
 10
-56.75020269938857
 20
127.6703085900598
 30
0.0
 11
-56.75020269938848
 21
88.99360640488765
 31
0.0
  0
LINE
  5
3D6
330
A
100
AcDbEntity
  8
0
  6
Continuous
 62
     7
100
AcDbLine
 10
-76.75020269938848
 20
88.99360640488763
 30
0.0
 11
-76.75020269938856
 21
127.6703085900598
 31
0.0
  0
ARC
  5
3D7
330
A
100
AcDbEntity
  8
0
  6
Continuous
 62
     7
100
AcDbCircle
 10
-66.75020269938847
 20
120.5887934074328
 30
0.0
 40
40.50000000000001
100
AcDbArc
 50
103.5187357729074
 51
180.0000000000004
  0
ARC
  5
3D8
330
A
100
AcDbEntity
  8
0
  6
Continuous
 62
     7
100
AcDbCircle
 10
-66.75020269938847
 20
120.5887934074328
 30
0.0
 40
40.50000000000003
100
AcDbArc
 50
94.60275847226766
 51
100.6701299876019
  0
ARC
  5
3D9
330
A
100
AcDbEntity
  8
0
  6
Continuous
 62
     7
100
AcDbCircle
 10
-66.75020269938847
 20
120.5887934074328
 30
0.0
 40
40.50000000000001
100
AcDbArc
 50
79.32987001239244
 51
85.39724152773276
  0
ARC
  5
3DA
330
A
100
AcDbEntity
  8
0
  6
Continuous
 62
     7
100
AcDbCircle
 10
-66.75020269938847
 20
120.5887934074328
 30
0.0
 40
40.50000000000003
100
AcDbArc
 50
180.0000000000004
 51
76.48126422708696
  0
LWPOLYLINE
  5
3DB
330
A
100
AcDbEntity
  8
0
  6
Continuous
 62
     7
100
AcDbPolyline
 90
        4
 70
   128
 43
0.0
 10
-66.75020269938652
 20
171.5677500442307
 10
-70.66476095156996
 20
171.6263947973818
 10
-74.5589105096075
 20
171.8020233102469
 10
-75.35114195986402
 20
171.8522905855083
  0
LWPOLYLINE
  5
3E1
330
A
100
AcDbEntity
  8
0
  6
Continuous
 62
     7
100
AcDbPolyline
 90
       84
 70
   128
 43
0.0
 10
-77.37489486393444
 20
172.0034179719345
 10
-78.41234908083461
 20
172.0937199370823
 10
-82.20498662082128
 20
172.4999639067415
 10
-85.91705007356138
 20
173.0186372512724
 10
-89.52918645903094
 20
173.6470358480209
 10
-93.02256377066495
 20
174.3818835176747
 10
-96.37896915671966
 20
175.2193491047452
 10
-99.58090387364837
 20
176.1550664514378
 10
-102.6116745164477
 20
177.1841571607777
 10
-105.4554800503417
 20
178.3012560303123
 10
-108.0974941900608
 20
179.5005390237928
 10
-110.5239426972279
 20
180.7757536350022
 10
-112.7221751928592
 20
182.1202514854279
 10
-114.6807311105833
 20
183.5270229858285
 10
-116.3893994467267
 20
184.9887338809865
 10
-117.8392719957596
 20
186.4977634871193
 10
-119.0227897935544
 20
188.0462444225954
 10
-119.9337825263245
 20
189.6261036248195
 10
-120.5675006997837
 20
191.2291044394427
 10
-120.9206404008099
 20
192.8468895624644
 10
-120.9913605225182
 20
194.4710246113458
 10
-120.77929236294
 20
196.093042097975
 10
-120.2855415472641
 20
197.7044855742289
 10
-119.5126822636192
 20
199.2969537199784
 10
-118.4647438424486
 20
200.8621441436818
 10
-117.1471897494472
 20
202.391896667209
 10
-115.5668891015809
 20
203.8782358692327
 10
-113.732080854692
 20
205.3134126653821
 10
-111.6523308493974
 20
206.6899447083803
 10
-109.3384819392261
 20
208.0006553975389
 10
-106.8025974610004
 20
209.2387112942307
 10
-104.0578983421843
 20
210.3976577482748
 10
-101.118694173089
 20
211.4714525494935
 10
-98.00030860329526
 20
212.4544974289988
 10
-94.7189994512394
 20
213.3416672459742
 10
-91.29187394347635
 20
214.1283367077852
 10
-87.73679952552143
 20
214.8104044841143
 10
-84.07231070926279
 20
215.3843145893976
 10
-80.31751244259853
 20
215.847074922087
 10
-76.49198050508463
 20
216.1962728640825
 10
-72.61565944888466
 20
216.4300878590059
 10
-68.70875861710985
 20
216.5473009037383
 10
-64.79164678166172
 20
216.5473009037383
 10
-60.88474594988692
 20
216.4300878590059
 10
-57.00842489368697
 20
216.1962728640825
 10
-53.18289295617308
 20
215.8470749220869
 10
-49.42809468950884
 20
215.3843145893974
 10
-45.76360587325023
 20
214.8104044841142
 10
-42.20853145529535
 20
214.1283367077851
 10
-38.78140594753234
 20
213.341667245974
 10
-35.50009679547654
 20
212.4544974289987
 10
-32.38171122568281
 20
211.4714525494933
 10
-29.44250705658761
 20
210.3976577482746
 10
-26.69780793777154
 20
209.2387112942304
 10
-24.1619234595459
 20
208.0006553975386
 10
-21.84807454937459
 20
206.68994470838
 10
-19.76832454408014
 20
205.3134126653818
 10
-17.93351629719124
 20
203.8782358692325
 10
-16.35321564932508
 20
202.3918966672087
 10
-15.03566155632371
 20
200.8621441436815
 10
-13.98772313515318
 20
199.2969537199781
 10
-13.21486385150837
 20
197.7044855742285
 10
-12.72111303583262
 20
196.0930420979747
 10
-12.50904487625449
 20
194.4710246113455
 10
-12.57976499796286
 20
192.846889562464
 10
-12.9329046989891
 20
191.2291044394423
 10
-13.56662287244842
 20
189.6261036248192
 10
-14.47761560521866
 20
188.0462444225951
 10
-15.6611334030135
 20
186.497763487119
 10
-17.11100595204647
 20
184.9887338809862
 10
-18.81967428818994
 20
183.5270229858282
 10
-20.77823020591405
 20
182.1202514854276
 10
-22.97646270154549
 20
180.775753635002
 10
-25.40291120871258
 20
179.5005390237926
 10
-28.04492534843174
 20
178.3012560303121
 10
-30.88873088232586
 20
177.1841571607775
 10
-33.91950152512526
 20
176.1550664514376
 10
-37.121436242054
 20
175.219349104745
 10
-40.47784162810875
 20
174.3818835176746
 10
-43.97121893974279
 20
173.6470358480208
 10
-47.58335532521238
 20
173.0186372512724
 10
-51.2954187779525
 20
172.4999639067415
 10
-55.08805631793919
 20
172.0937199370823
 10
-56.12551053483858
 20
172.0034179719345
  0
LWPOLYLINE
  5
437
330
A
100
AcDbEntity
  8
0
  6
Continuous
 62
     7
100
AcDbPolyline
 90
        4
 70
   128
 43
0.0
 10
-58.14926343890899
 20
171.8522905855083
 10
-58.94149488916631
 20
171.8020233102469
 10
-62.83564444720386
 20
171.6263947973818
 10
-66.75020269938652
 20
171.5677500442307
  0
LWPOLYLINE
  5
43D
330
A
100
AcDbEntity
  8
0
  6
Continuous
 62
     7
100
AcDbPolyline
 90
        5
 70
   128
 43
0.0
 10
-42.10665693270643
 20
255.4546396264223
 10
-42.26957417553931
 20
255.7496450683126
 10
-43.04397959432679
 20
256.8146805877335
 10
-44.08698599342073
 20
257.8395473043788
 10
-44.99070166197675
 20
258.5410380907619
  0
LWPOLYLINE
  5
444
330
A
100
AcDbEntity
  8
0
  6
Continuous
 62
     7
100
AcDbPolyline
 90
        6
 70
   128
 43
0.0
 10
-87.63076294220375
 20
259.1204989685048
 10
-88.11362970521779
 20
258.8126330688327
 10
-89.41341940535222
 20
257.8395473043786
 10
-90.45642580444612
 20
256.8146805877333
 10
-91.23083122323357
 20
255.7496450683125
 10
-91.39374846606642
 20
255.4546396264222
  0
LWPOLYLINE
  5
44C
330
A
100
AcDbEntity
  8
0
  6
Continuous
 62
     7
100
AcDbPolyline
 90
        6
 70
   128
 43
0.0
 10
-76.58117838102907
 20
174.6116086175614
 10
-76.96240558739877
 20
174.5496919823063
 10
-77.28559440743189
 20
174.4340683065024
 10
-77.50154227299237
 20
174.2823402466595
 10
-77.57737307912091
 20
174.1176070244703
 10
-77.57658820346795
 20
174.1012112193405
  0
LWPOLYLINE
  5
454
330
A
100
AcDbEntity
  8
0
  6
Continuous
 62
     7
100
AcDbPolyline
 90
        5
 70
   128
 43
0.0
 10
-75.5857685585902
 20
174.2926195304698
 10
-75.66081448906581
 20
174.4288829701075
 10
-75.87676235462629
 20
174.5462272512968
 10
-76.19995117465942
 20
174.6103919658256
 10
-76.58117838102907
 20
174.6116086175614
  0
LWPOLYLINE
  5
45B
330
A
100
AcDbEntity
  8
0
  6
Continuous
 62
     7
100
AcDbPolyline
 90
        5
 70
   128
 43
0.0
 10
-56.91922701774394
 20
174.6116086175613
 10
-57.30045422411363
 20
174.6103919658255
 10
-57.62364304414676
 20
174.5462272512967
 10
-57.83959090970724
 20
174.4288829701073
 10
-57.91463684018282
 20
174.2926195304697
  0
LWPOLYLINE
  5
462
330
A
100
AcDbEntity
  8
0
  6
Continuous
 62
     7
100
AcDbPolyline
 90
        6
 70
   128
 43
0.0
 10
-55.92381719530507
 20
174.1012112193404
 10
-55.92303231965214
 20
174.1176070244702
 10
-55.99886312578068
 20
174.2823402466594
 10
-56.21481099134115
 20
174.4340683065023
 10
-56.53799981137428
 20
174.5496919823063
 10
-56.91922701774394
 20
174.6116086175613
  0
ARC
  5
46A
330
A
100
AcDbEntity
  8
0
  6
Continuous
 62
     7
100
AcDbCircle
 10
-66.75020269938862
 20
195.0887934074363
 30
0.0
 40
25.0
100
AcDbArc
 50
249.9346741693385
 51
289.9473742787133
  0
LINE
  5
46B
330
A
100
AcDbEntity
  8
0
  6
PHANTOM
 62
     7
100
AcDbLine
 10
-56.75020269938861
 20
154.5887934074328
 30
0.0
 11
-57.79984797942709
 21
154.5887934074328
 31
0.0
  0
LINE
  5
46C
330
A
100
AcDbEntity
  8
0
  6
PHANTOM
 62
     7
100
AcDbLine
 10
-59.80907066832926
 20
154.5887934074328
 30
0.0
 11
-66.75020269938864
 21
154.5887934074328
 31
0.0
  0
LINE
  5
46D
330
A
100
AcDbEntity
  8
0
  6
PHANTOM
 62
     7
100
AcDbLine
 10
-66.75020269938864
 20
155.5887934074328
 30
0.0
 11
-66.75020269938864
 21
154.5887934074328
 31
0.0
  0
LINE
  5
46E
330
A
100
AcDbEntity
  8
0
  6
PHANTOM
 62
     7
100
AcDbLine
 10
-66.75020269938864
 20
128.5887934074328
 30
0.0
 11
-62.30885315850362
 21
128.5887934074328
 31
0.0
  0
LINE
  5
46F
330
A
100
AcDbEntity
  8
0
  6
PHANTOM
 62
     7
100
AcDbLine
 10
-60.29963046960144
 20
128.5887934074328
 30
0.0
 11
-56.75020269938861
 21
128.5887934074328
 31
0.0
  0
LINE
  5
470
330
A
100
AcDbEntity
  8
0
  6
PHANTOM
 62
     7
100
AcDbLine
 10
-66.75020269938864
 20
128.5887934074328
 30
0.0
 11
-66.75020269938864
 21
127.5887934074328
 31
0.0
  0
LINE
  5
471
330
A
100
AcDbEntity
  8
0
  6
PHANTOM
 62
     7
100
AcDbLine
 10
-66.75020269938864
 20
154.5887934074328
 30
0.0
 11
-66.75020269938864
 21
128.5887934074328
 31
0.0
  0
LINE
  5
472
330
A
100
AcDbEntity
  8
0
  6
PHANTOM
 62
     7
100
AcDbLine
 10
-76.75020269938861
 20
128.5887934074328
 30
0.0
 11
-73.2007749291714
 21
128.5887934074328
 31
0.0
  0
LINE
  5
473
330
A
100
AcDbEntity
  8
0
  6
PHANTOM
 62
     7
100
AcDbLine
 10
-71.19155224026923
 20
128.5887934074328
 30
0.0
 11
-66.75020269938864
 21
128.5887934074328
 31
0.0
  0
LINE
  5
474
330
A
100
AcDbEntity
  8
0
  6
PHANTOM
 62
     7
100
AcDbLine
 10
-66.75020269938864
 20
154.5887934074328
 30
0.0
 11
-73.69133473044367
 21
154.5887934074328
 31
0.0
  0
LINE
  5
475
330
A
100
AcDbEntity
  8
0
  6
PHANTOM
 62
     7
100
AcDbLine
 10
-75.70055741934585
 20
154.5887934074328
 30
0.0
 11
-76.75020269938861
 21
154.5887934074328
 31
0.0
  0
LWPOLYLINE
  5
476
330
A
100
AcDbEntity
  8
0
  6
PHANTOM
 62
     7
100
AcDbPolyline
 90
        9
 70
   128
 43
0.0
 10
-56.75020269938857
 20
127.6703085900598
 10
-56.76941741898534
 20
127.5648120174378
 10
-56.82632316687729
 20
127.4633696189385
 10
-56.91873308708602
 20
127.3698797690467
 10
-57.04309591820202
 20
127.287935230264
 10
-57.19463246636897
 20
127.2206850852607
 10
-57.36751926702348
 20
127.1707137193952
 10
-57.55511237737245
 20
127.1399415042332
 10
-57.75020269938857
 20
127.1295509987463
  0
LINE
  5
481
330
A
100
AcDbEntity
  8
0
  6
PHANTOM
 62
     7
100
AcDbLine
 10
-57.75020269938857
 20
127.5887934074328
 30
0.0
 11
-57.75020269938857
 21
127.1295509987463
 31
0.0
  0
LINE
  5
482
330
A
100
AcDbEntity
  8
0
  6
PHANTOM
 62
     7
100
AcDbLine
 10
-57.75020269938857
 20
127.1295509987463
 30
0.0
 11
-60.439930031992
 21
127.1295509987463
 31
0.0
  0
LINE
  5
483
330
A
100
AcDbEntity
  8
0
  6
PHANTOM
 62
     7
100
AcDbLine
 10
-62.44915272089417
 20
127.1295509987463
 30
0.0
 11
-71.05125267787868
 21
127.1295509987463
 31
0.0
  0
LINE
  5
484
330
A
100
AcDbEntity
  8
0
  6
PHANTOM
 62
     7
100
AcDbLine
 10
-73.06047536678083
 20
127.1295509987463
 30
0.0
 11
-75.75020269938858
 21
127.1295509987463
 31
0.0
  0
LINE
  5
485
330
A
100
AcDbEntity
  8
0
  6
PHANTOM
 62
     7
100
AcDbLine
 10
-75.75020269938858
 20
127.5887934074328
 30
0.0
 11
-75.75020269938858
 21
127.1295509987463
 31
0.0
  0
LWPOLYLINE
  5
486
330
A
100
AcDbEntity
  8
0
  6
PHANTOM
 62
     7
100
AcDbPolyline
 90
        9
 70
   128
 43
0.0
 10
-75.75020269938858
 20
127.1295509987463
 10
-75.94529302140471
 20
127.1399415042332
 10
-76.13288613175367
 20
127.1707137193952
 10
-76.30577293240818
 20
127.2206850852607
 10
-76.45730948057511
 20
127.2879352302639
 10
-76.58167231169112
 20
127.3698797690467
 10
-76.67408223189986
 20
127.4633696189385
 10
-76.7309879797918
 20
127.5648120174378
 10
-76.75020269938856
 20
127.6703085900598
  0
LINE
  5
491
330
A
100
AcDbEntity
  8
0
  6
PHANTOM
 62
     7
100
AcDbLine
 10
-75.75020269938848
 20
85.83584911240263
 30
0.0
 11
-57.75020269938848
 21
85.83584911240263
 31
0.0
  0
LINE
  5
492
330
A
100
AcDbEntity
  8
0
  6
PHANTOM
 62
     7
100
AcDbLine
 10
-75.75020269938858
 20
127.1295509987463
 30
0.0
 11
-75.75020269938848
 21
85.83584911240263
 31
0.0
  0
LINE
  5
493
330
A
100
AcDbEntity
  8
0
  6
PHANTOM
 62
     7
100
AcDbLine
 10
-57.75020269938848
 20
85.83584911240263
 30
0.0
 11
-57.75020269938857
 21
127.1295509987463
 31
0.0
  0
LWPOLYLINE
  5
494
330
A
100
AcDbEntity
  8
0
  6
PHANTOM
 62
     7
100
AcDbPolyline
 90
        9
 70
   128
 43
0.0
 10
-56.75020269938848
 20
88.99360640488765
 10
-56.76941741898525
 20
88.37755851784796
 10
-56.82632316687719
 20
87.78518500562361
 10
-56.91873308708593
 20
87.23925045008241
 10
-57.04309591820194
 20
86.76073481003022
 10
-57.19463246636887
 20
86.36802717315962
 10
-57.36751926702339
 20
86.0762190737225
 10
-57.55511237737235
 20
85.89652453333242
 10
-57.75020269938848
 20
85.83584911240263
  0
LWPOLYLINE
  5
49F
330
A
100
AcDbEntity
  8
0
  6
PHANTOM
 62
     7
100
AcDbPolyline
 90
        9
 70
   128
 43
0.0
 10
-75.75020269938848
 20
85.83584911240263
 10
-75.94529302140461
 20
85.89652453333242
 10
-76.13288613175358
 20
86.0762190737225
 10
-76.30577293240809
 20
86.36802717315962
 10
-76.45730948057502
 20
86.76073481003022
 10
-76.58167231169102
 20
87.23925045008241
 10
-76.67408223189977
 20
87.78518500562361
 10
-76.73098797979172
 20
88.37755851784796
 10
-76.75020269938848
 20
88.99360640488763
  0
ARC
  5
4AA
330
A
100
AcDbEntity
  8
0
  6
PHANTOM
 62
     7
100
AcDbCircle
 10
-57.75020269938848
 20
154.5887934074328
 30
0.0
 40
2.0
100
AcDbArc
 50
0.0
 51
85.92399867702644
  0
LINE
  5
4AB
330
A
100
AcDbEntity
  8
0
  6
PHANTOM
 62
     7
100
AcDbLine
 10
-55.75020269938848
 20
154.5887934074328
 30
0.0
 11
-56.75020269938848
 21
154.5887934074328
 31
0.0
  0
LINE
  5
4AC
330
A
100
AcDbEntity
  8
0
  6
PHANTOM
 62
     7
100
AcDbLine
 10
-56.75020269938848
 20
88.99360640488765
 30
0.0
 11
-55.75020269938848
 21
88.99360640488765
 31
0.0
  0
LWPOLYLINE
  5
4AD
330
A
100
AcDbEntity
  8
0
  6
PHANTOM
 62
     7
100
AcDbPolyline
 90
        9
 70
   128
 43
0.0
 10
-55.75020269938847
 20
88.99360640488765
 10
-55.78863213858202
 20
88.27206194522595
 10
-55.9024436343659
 20
87.57824603450226
 10
-56.08726347478339
 20
86.93882162906923
 10
-56.33598913701538
 20
86.37836145023435
 10
-56.63906223334927
 20
85.9184036683605
 10
-56.98483583465829
 20
85.57662420305785
 10
-57.36002205535623
 20
85.36615744750582
 10
-57.75020269938848
 20
85.29509152108914
  0
LINE
  5
4B8
330
A
100
AcDbEntity
  8
0
  6
PHANTOM
 62
     7
100
AcDbLine
 10
-57.75020269938848
 20
85.83584911240263
 30
0.0
 11
-57.75020269938848
 21
85.29509152108913
 31
0.0
  0
LINE
  5
4B9
330
A
100
AcDbEntity
  8
0
  6
PHANTOM
 62
     7
100
AcDbLine
 10
-55.75020269938848
 20
154.5887934074328
 30
0.0
 11
-55.75020269938848
 21
88.99360640488765
 31
0.0
  0
LINE
  5
4BA
330
A
100
AcDbEntity
  8
0
  6
PHANTOM
 62
     7
100
AcDbLine
 10
-73.88362569122633
 20
156.5887934074328
 30
0.0
 11
-70.00020269938861
 21
156.5887934074328
 31
0.0
  0
LINE
  5
4BB
330
A
100
AcDbEntity
  8
0
  6
PHANTOM
 62
     7
100
AcDbLine
 10
-63.50020269938861
 20
156.5887934074328
 30
0.0
 11
-59.61677970754663
 21
156.5887934074328
 31
0.0
  0
LINE
  5
4BC
330
A
100
AcDbEntity
  8
0
  6
PHANTOM
 62
     7
100
AcDbLine
 10
-75.75020269938848
 20
85.83584911240263
 30
0.0
 11
-75.75020269938848
 21
85.29509152108913
 31
0.0
  0
LWPOLYLINE
  5
4BD
330
A
100
AcDbEntity
  8
0
  6
PHANTOM
 62
     7
100
AcDbPolyline
 90
       10
 70
   128
 43
0.0
 10
-75.75020269938848
 20
85.29509152108914
 10
-76.09749905472234
 20
85.35128027269184
 10
-76.43424298603981
 20
85.51813926071536
 10
-76.75020269938849
 20
85.79059855924331
 10
-77.03577791876156
 20
86.16037963036099
 10
-77.28229158562645
 20
86.61624686334073
 10
-77.48225350695737
 20
87.14434896298842
 10
-77.6295879409603
 20
87.72863981423881
 10
-77.71981820541291
 20
88.35136603524208
 10
-77.75020269938848
 20
88.99360640488771
  0
LINE
  5
4C9
330
A
100
AcDbEntity
  8
0
  6
PHANTOM
 62
     7
100
AcDbLine
 10
-76.75020269938848
 20
88.99360640488763
 30
0.0
 11
-77.75020269938848
 21
88.99360640488763
 31
0.0
  0
ARC
  5
4CA
330
A
100
AcDbEntity
  8
0
  6
PHANTOM
 62
     7
100
AcDbCircle
 10
-75.75020269938848
 20
154.5887934074328
 30
0.0
 40
2.0
100
AcDbArc
 50
94.07600132285928
 51
180.0000000000004
  0
LINE
  5
4CB
330
A
100
AcDbEntity
  8
0
  6
PHANTOM
 62
     7
100
AcDbLine
 10
-77.75020269938848
 20
154.5887934074328
 30
0.0
 11
-76.75020269938848
 21
154.5887934074328
 31
0.0
  0
LINE
  5
4CC
330
A
100
AcDbEntity
  8
0
  6
PHANTOM
 62
     7
100
AcDbLine
 10
-77.75020269938848
 20
88.99360640488763
 30
0.0
 11
-77.75020269938848
 21
154.5887934074328
 31
0.0
  0
LINE
  5
4CD
330
A
100
AcDbEntity
  8
0
  6
PHANTOM
 62
     7
100
AcDbLine
 10
-57.75020269938848
 20
85.29509152108913
 30
0.0
 11
-75.75020269938848
 21
85.29509152108913
 31
0.0
  0
ARC
  5
4CE
330
A
100
AcDbEntity
  8
0
  6
PHANTOM
 62
     7
100
AcDbCircle
 10
-66.75020269938848
 20
120.5887934074328
 30
0.0
 40
37.49999999999997
100
AcDbArc
 50
104.165649781324
 51
180.0000000000004
  0
ARC
  5
4CF
330
A
100
AcDbEntity
  8
0
  6
PHANTOM
 62
     7
100
AcDbCircle
 10
-66.75020269938848
 20
120.5887934074328
 30
0.0
 40
37.5
100
AcDbArc
 50
94.97187156817306
 51
101.0856642363257
  0
ARC
  5
4D0
330
A
100
AcDbEntity
  8
0
  6
PHANTOM
 62
     7
100
AcDbCircle
 10
-66.75020269938848
 20
120.5887934074328
 30
0.0
 40
37.5
100
AcDbArc
 50
78.91433576366813
 51
85.02812843182734
  0
ARC
  5
4D1
330
A
100
AcDbEntity
  8
0
  6
PHANTOM
 62
     7
100
AcDbCircle
 10
-66.75020269938848
 20
120.5887934074328
 30
0.0
 40
37.49999999999998
100
AcDbArc
 50
180.0000000000004
 51
75.83435021866984
  0
LWPOLYLINE
  5
4D2
330
A
100
AcDbEntity
  8
0
  6
PHANTOM
 62
     7
100
AcDbPolyline
 90
       21
 70
   128
 43
0.0
 10
-44.99070166197675
 20
258.5410380907619
 10
-45.38677569355517
 20
258.8126330688329
 10
-46.92862155805799
 20
259.7229124305591
 10
-48.69505385719403
 20
260.5600715606601
 10
-50.66605820718351
 20
261.31462511168
 10
-52.81930234116771
 20
261.9780236903813
 10
-55.13038914271587
 20
262.5427507257868
 10
-57.57313307490302
 20
263.0024076349319
 10
-60.11985687290653
 20
263.3517863213663
 10
-62.74170513847582
 20
263.5869281849681
 10
-65.40897128312458
 20
263.7051689744648
 10
-68.0914341156485
 20
263.7051689744648
 10
-70.75870026029726
 20
263.5869281849681
 10
-73.38054852586655
 20
263.3517863213663
 10
-75.92727232387004
 20
263.0024076349319
 10
-78.37001625605719
 20
262.5427507257867
 10
-80.68110305760534
 20
261.9780236903813
 10
-82.83434719158952
 20
261.3146251116799
 10
-84.80535154157898
 20
260.5600715606601
 10
-86.57178384071498
 20
259.722912430559
 10
-87.63076294220375
 20
259.1204989685048
  0
LWPOLYLINE
  5
4E9
330
A
100
AcDbEntity
  8
0
  6
PHANTOM
 62
     7
100
AcDbPolyline
 90
        5
 70
   128
 43
0.0
 10
-71.73117618984514
 20
124.1671969671773
 10
-71.34994898347546
 20
124.1659803154415
 10
-71.02676016344233
 20
124.1018156009127
 10
-70.81081229788185
 20
123.9844713197233
 10
-70.73557357361503
 20
123.8460603342857
  0
LWPOLYLINE
  5
4F0
330
A
100
AcDbEntity
  8
0
  6
PHANTOM
 62
     7
100
AcDbPolyline
 90
        6
 70
   128
 43
0.0
 10
-72.72657943811686
 20
123.6567313355169
 10
-72.72737088793697
 20
123.6731953740862
 10
-72.65154008180845
 20
123.8379285962753
 10
-72.43559221624796
 20
123.9896566561183
 10
-72.11240339621483
 20
124.1052803319223
 10
-71.73117618984514
 20
124.1671969671773
  0
LWPOLYLINE
  5
4F8
330
A
100
AcDbEntity
  8
0
  6
PHANTOM
 62
     7
100
AcDbPolyline
 90
       10
 70
   128
 43
0.0
 10
-60.7738508358892
 20
123.6564757078175
 10
-60.77303451083586
 20
123.6731953740862
 10
-60.84886531696438
 20
123.8379285962754
 10
-61.06481318252487
 20
123.9896566561183
 10
-61.38800200255798
 20
124.1052803319223
 10
-61.76922920892766
 20
124.1671969671773
 10
-62.15045641529734
 20
124.1659803154415
 10
-62.47364523533046
 20
124.1018156009127
 10
-62.68959310089092
 20
123.9844713197233
 10
-62.76483591940779
 20
123.8460111627547
  0
ENDSEC
  0
SECTION
  2
OBJECTS
  0
DICTIONARY
  5
19
330
0
100
AcDbDictionary
281
     1
  3
ACAD_COLOR
350
508
  3
ACAD_GROUP
350
1A
  3
ACAD_LAYOUT
350
509
  3
ACAD_MATERIAL
350
507
  3
ACAD_MLINESTYLE
350
1B
  3
ACAD_PLOTSETTINGS
350
50A
  3
ACAD_PLOTSTYLENAME
350
505
  3
ACDBHEADERROUNDTRIPXREC
350
522
  3
AcDbVariableDictionary
350
51B
  3
ASE_INDEX_DICTIONARY
350
510
  0
DICTIONARY
  5
508
102
{ACAD_REACTORS
330
19
102
}
330
19
100
AcDbDictionary
281
     1
  0
DICTIONARY
  5
1A
102
{ACAD_REACTORS
330
19
102
}
330
19
100
AcDbDictionary
281
     1
  0
DICTIONARY
  5
509
102
{ACAD_REACTORS
330
19
102
}
330
19
100
AcDbDictionary
281
     1
  3
Layout1
350
50C
  3
Model
350
50B
  0
DICTIONARY
  5
507
102
{ACAD_REACTORS
330
19
102
}
330
19
100
AcDbDictionary
281
     1
  0
DICTIONARY
  5
1B
102
{ACAD_REACTORS
330
19
102
}
330
19
100
AcDbDictionary
281
     1
  3
STANDARD
350
1C
  0
DICTIONARY
  5
50A
102
{ACAD_REACTORS
330
19
102
}
330
19
100
AcDbDictionary
281
     1
  0
ACDBDICTIONARYWDFLT
  5
505
102
{ACAD_REACTORS
330
19
102
}
330
19
100
AcDbDictionary
281
     1
  3
Normal
350
506
100
AcDbDictionaryWithDefault
340
506
  0
DICTIONARY
  5
522
102
{ACAD_REACTORS
330
19
102
}
330
19
100
AcDbDictionary
281
     1
  3
COLORDICT
350
524
  3
MATERIALDICT
350
523
  0
DICTIONARY
  5
51B
102
{ACAD_REACTORS
330
19
102
}
330
19
100
AcDbDictionary
281
     1
  3
DIMASSOC
350
51C
  3
PROJECTNAME
350
51D
  0
DICTIONARY
  5
510
102
{ACAD_REACTORS
330
19
102
}
330
19
100
AcDbDictionary
281
     1
  3
ASEBlockHierarchyIndexRecord
350
512
1001
DCO15
1040
1552229343.296
  0
LAYOUT
  5
50C
102
{ACAD_XDICTIONARY
360
527
102
}
102
{ACAD_REACTORS
330
509
102
}
330
509
100
AcDbPlotSettings
  1

  2
ProgeSOFT PDF Wizard
  4

  6

 40
0.0
 41
0.0
 42
0.0
 43
0.0
 44
0.0
 45
0.0
 46
0.0
 47
0.0
 48
0.0
 49
0.0
140
0.0
141
0.0
142
1.0
143
1.0
 70
   688
 72
     0
 73
     0
 74
     5
  7

 75
    16
147
1.0
148
0.0
149
0.0
100
AcDbLayout
  1
Layout1
 70
     1
 71
     1
 10
0.0
 20
0.0
 11
12.0
 21
9.0
 12
0.0
 22
0.0
 32
0.0
 14
1.000000000000000E+20
 24
1.000000000000000E+20
 34
1.000000000000000E+20
 15
-1.000000000000000E+20
 25
-1.000000000000000E+20
 35
-1.000000000000000E+20
146
0.0
 13
0.0
 23
0.0
 33
0.0
 16
1.0
 26
0.0
 36
0.0
 17
0.0
 27
1.0
 37
0.0
 76
     0
330
B
  0
LAYOUT
  5
50B
102
{ACAD_XDICTIONARY
360
525
102
}
102
{ACAD_REACTORS
330
509
102
}
330
509
100
AcDbPlotSettings
  1

  2
ProgeSOFT PDF Wizard
  4

  6

 40
0.0
 41
0.0
 42
0.0
 43
0.0
 44
0.0
 45
0.0
 46
0.0
 47
0.0
 48
0.0
 49
0.0
140
0.0
141
0.0
142
1.0
143
1.0
 70
  1712
 72
     0
 73
     0
 74
     0
  7

 75
     0
147
1.0
148
0.0
149
0.0
100
AcDbLayout
  1
Model
 70
     1
 71
     0
 10
0.0
 20
0.0
 11
12.0
 21
9.0
 12
0.0
 22
0.0
 32
0.0
 14
0.0
 24
0.0
 34
0.0
 15
0.0
 25
0.0
 35
0.0
146
0.0
 13
0.0
 23
0.0
 33
0.0
 16
1.0
 26
0.0
 36
0.0
 17
0.0
 27
1.0
 37
0.0
 76
     0
330
A
  0
MLINESTYLE
  5
1C
102
{ACAD_REACTORS
330
1B
102
}
330
1B
100
AcDbMlineStyle
  2
STANDARD
 70
     0
  3

 62
     0
 51
90.0
 52
90.0
 71
     2
 49
0.5
 62
   256
  6
BYLAYER
 49
-0.5
 62
   256
  6
BYLAYER
  0
ACDBPLACEHOLDER
  5
506
102
{ACAD_REACTORS
330
505
102
}
330
505
  0
XRECORD
  5
524
102
{ACAD_REACTORS
330
522
102
}
330
522
100
AcDbXrecord
280
     1
340
508
  0
XRECORD
  5
523
102
{ACAD_REACTORS
330
522
102
}
330
522
100
AcDbXrecord
280
     1
340
507
  0
DICTIONARYVAR
  5
51C
102
{ACAD_REACTORS
330
51B
102
}
330
51B
100
DictionaryVariables
280
     0
  1
1
  0
DICTIONARYVAR
  5
51D
102
{ACAD_REACTORS
330
51B
102
}
330
51B
100
DictionaryVariables
280
     0
  1

  0
XRECORD
  5
512
102
{ACAD_REACTORS
330
510
102
}
330
510
100
AcDbXrecord
280
     1
  0
DICTIONARY
  5
527
330
50C
100
AcDbDictionary
280
     1
281
     1
  3
ACAD_XREC_ROUNDTRIP
360
528
  0
DICTIONARY
  5
525
330
50B
100
AcDbDictionary
280
     1
281
     1
  3
ACAD_XREC_ROUNDTRIP
360
526
  0
XRECORD
  5
528
102
{ACAD_REACTORS
330
527
102
}
330
527
100
AcDbXrecord
280
     1
102
SHADEPLOT
 70
     0
102
SHADEPLOTRESLEVEL
 70
     2
102
SHADEPLOTCUSTOMDPI
 70
   300
  0
XRECORD
  5
526
102
{ACAD_REACTORS
330
525
102
}
330
525
100
AcDbXrecord
280
     1
102
SHADEPLOT
 70
     0
102
SHADEPLOTRESLEVEL
 70
     2
102
SHADEPLOTCUSTOMDPI
 70
   300
  0
ENDSEC
  0
EOF
