  0
SECTION
  2
HEADER
  9
$ACADVER
  1
AC1018
  9
$ACADMAINTVER
 70
     0
  9
$DWGCODEPAGE
  3
ANSI_1252
  9
$INSBASE
 10
0.0
 20
0.0
 30
0.0
  9
$EXTMIN
 10
-296.1500000000003
 20
-1061.051017861487
 30
0.0
  9
$EXTMAX
 10
1168.878580793419
 20
725.3077294296789
 30
0.0
  9
$LIMMIN
 10
0.0
 20
0.0
  9
$LIMMAX
 10
0.0
 20
0.0
  9
$ORTHOMODE
 70
     0
  9
$REGENMODE
 70
     1
  9
$FILLMODE
 70
     1
  9
$QTEXTMODE
 70
     0
  9
$MIRRTEXT
 70
     1
  9
$LTSCALE
 40
1.0
  9
$ATTMODE
 70
     1
  9
$TEXTSIZE
 40
0.0
  9
$TRACEWID
 40
0.05
  9
$TEXTSTYLE
  7
STANDARD
  9
$CLAYER
  8
0
  9
$CELTYPE
  6
CONTINUOUS
  9
$CECOLOR
 62
   256
  9
$CELTSCALE
 40
1.0
  9
$DISPSILH
 70
     0
  9
$DIMSCALE
 40
1.0
  9
$DIMASZ
 40
6.0
  9
$DIMEXO
 40
1.0
  9
$DIMDLI
 40
0.38
  9
$DIMRND
 40
0.0
  9
$DIMDLE
 40
1.0
  9
$DIMEXE
 40
0.18
  9
$DIMTP
 40
0.0
  9
$DIMTM
 40
0.0
  9
$DIMTXT
 40
3.5
  9
$DIMCEN
 40
0.09
  9
$DIMTSZ
 40
0.0
  9
$DIMTOL
 70
     0
  9
$DIMLIM
 70
     0
  9
$DIMTIH
 70
     1
  9
$DIMTOH
 70
     1
  9
$DIMSE1
 70
     0
  9
$DIMSE2
 70
     0
  9
$DIMTAD
 70
     1
  9
$DIMZIN
 70
     0
  9
$DIMBLK
  1

  9
$DIMASO
 70
     1
  9
$DIMSHO
 70
     1
  9
$DIMPOST
  1

  9
$DIMAPOST
  1

  9
$DIMALT
 70
     0
  9
$DIMALTD
 70
     2
  9
$DIMALTF
 40
0.0394
  9
$DIMLFAC
 40
20.0
  9
$DIMTOFL
 70
     0
  9
$DIMTVP
 40
0.0
  9
$DIMTIX
 70
     0
  9
$DIMSOXD
 70
     0
  9
$DIMSAH
 70
     0
  9
$DIMBLK1
  1

  9
$DIMBLK2
  1

  9
$DIMSTYLE
  2
STANDARD
  9
$DIMCLRD
 70
     0
  9
$DIMCLRE
 70
     0
  9
$DIMCLRT
 70
     0
  9
$DIMTFAC
 40
1.0
  9
$DIMGAP
 40
1.0
  9
$DIMJUST
 70
     0
  9
$DIMSD1
 70
     0
  9
$DIMSD2
 70
     0
  9
$DIMTOLJ
 70
     1
  9
$DIMTZIN
 70
     0
  9
$DIMALTZ
 70
     0
  9
$DIMALTTZ
 70
     0
  9
$DIMUPT
 70
     0
  9
$DIMDEC
 70
     4
  9
$DIMTDEC
 70
     4
  9
$DIMALTU
 70
     2
  9
$DIMALTTD
 70
     2
  9
$DIMTXSTY
  7
STANDARD
  9
$DIMAUNIT
 70
     0
  9
$DIMADEC
 70
     0
  9
$DIMALTRND
 40
0.0
  9
$DIMAZIN
 70
     0
  9
$DIMDSEP
 70
    46
  9
$DIMATFIT
 70
     3
  9
$DIMFRAC
 70
     0
  9
$DIMLDRBLK
  1

  9
$DIMLUNIT
 70
     2
  9
$DIMLWD
 70
    -2
  9
$DIMLWE
 70
    -2
  9
$DIMTMOVE
 70
     0
  9
$LUNITS
 70
     2
  9
$LUPREC
 70
     2
  9
$SKETCHINC
 40
0.1
  9
$FILLETRAD
 40
0.0
  9
$AUNITS
 70
     0
  9
$AUPREC
 70
     2
  9
$MENU
  1
acad
  9
$ELEVATION
 40
0.0
  9
$PELEVATION
 40
0.0
  9
$THICKNESS
 40
0.0
  9
$LIMCHECK
 70
     0
  9
$CHAMFERA
 40
0.0
  9
$CHAMFERB
 40
0.0
  9
$CHAMFERC
 40
0.0
  9
$CHAMFERD
 40
0.0
  9
$SKPOLY
 70
     0
  9
$TDCREATE
 40
2444972.041666667
  9
$TDUCREATE
 40
2444972.000000000
  9
$TDUPDATE
 40
2453768.829839942
  9
$TDUUPDATE
 40
2453768.788173276
  9
$TDINDWG
 40
0.0041775116
  9
$TDUSRTIMER
 40
0.0041775116
  9
$USRTIMER
 70
     1
  9
$ANGBASE
 50
0.0
  9
$ANGDIR
 70
     0
  9
$PDMODE
 70
     0
  9
$PDSIZE
 40
-1.0
  9
$PLINEWID
 40
0.0
  9
$SPLFRAME
 70
     0
  9
$SPLINETYPE
 70
     6
  9
$SPLINESEGS
 70
     8
  9
$HANDSEED
  5
485
  9
$SURFTAB1
 70
     6
  9
$SURFTAB2
 70
     6
  9
$SURFTYPE
 70
     6
  9
$SURFU
 70
     6
  9
$SURFV
 70
     6
  9
$UCSBASE
  2

  9
$UCSNAME
  2

  9
$UCSORG
 10
0.0
 20
0.0
 30
0.0
  9
$UCSXDIR
 10
1.0
 20
0.0
 30
0.0
  9
$UCSYDIR
 10
0.0
 20
1.0
 30
0.0
  9
$UCSORTHOREF
  2

  9
$UCSORTHOVIEW
 70
     1
  9
$UCSORGTOP
 10
0.0
 20
0.0
 30
0.0
  9
$UCSORGBOTTOM
 10
0.0
 20
0.0
 30
0.0
  9
$UCSORGLEFT
 10
0.0
 20
0.0
 30
0.0
  9
$UCSORGRIGHT
 10
0.0
 20
0.0
 30
0.0
  9
$UCSORGFRONT
 10
0.0
 20
0.0
 30
0.0
  9
$UCSORGBACK
 10
0.0
 20
0.0
 30
0.0
  9
$PUCSBASE
  2

  9
$PUCSNAME
  2

  9
$PUCSORG
 10
0.0
 20
0.0
 30
0.0
  9
$PUCSXDIR
 10
1.0
 20
0.0
 30
0.0
  9
$PUCSYDIR
 10
0.0
 20
1.0
 30
0.0
  9
$PUCSORTHOREF
  2

  9
$PUCSORTHOVIEW
 70
     0
  9
$PUCSORGTOP
 10
0.0
 20
0.0
 30
0.0
  9
$PUCSORGBOTTOM
 10
0.0
 20
0.0
 30
0.0
  9
$PUCSORGLEFT
 10
0.0
 20
0.0
 30
0.0
  9
$PUCSORGRIGHT
 10
0.0
 20
0.0
 30
0.0
  9
$PUCSORGFRONT
 10
0.0
 20
0.0
 30
0.0
  9
$PUCSORGBACK
 10
0.0
 20
0.0
 30
0.0
  9
$USERI1
 70
     0
  9
$USERI2
 70
     0
  9
$USERI3
 70
     0
  9
$USERI4
 70
     0
  9
$USERI5
 70
     0
  9
$USERR1
 40
0.0
  9
$USERR2
 40
0.0
  9
$USERR3
 40
0.0
  9
$USERR4
 40
0.0
  9
$USERR5
 40
0.0
  9
$WORLDVIEW
 70
     1
  9
$SHADEDGE
 70
     3
  9
$SHADEDIF
 70
    70
  9
$TILEMODE
 70
     1
  9
$MAXACTVP
 70
    16
  9
$PINSBASE
 10
0.0
 20
0.0
 30
0.0
  9
$PLIMCHECK
 70
     0
  9
$PEXTMIN
 10
1.000000000000000E+20
 20
1.000000000000000E+20
 30
1.000000000000000E+20
  9
$PEXTMAX
 10
-1.000000000000000E+20
 20
-1.000000000000000E+20
 30
-1.000000000000000E+20
  9
$PLIMMIN
 10
0.0
 20
0.0
  9
$PLIMMAX
 10
12.0
 20
9.0
  9
$UNITMODE
 70
     0
  9
$VISRETAIN
 70
     0
  9
$PLINEGEN
 70
     1
  9
$PSLTSCALE
 70
     1
  9
$TREEDEPTH
 70
  3020
  9
$CMLSTYLE
  2
STANDARD
  9
$CMLJUST
 70
     0
  9
$CMLSCALE
 40
1.0
  9
$PROXYGRAPHICS
 70
     0
  9
$MEASUREMENT
 70
     0
  9
$CELWEIGHT
370
    -1
  9
$ENDCAPS
280
     0
  9
$JOINSTYLE
280
     0
  9
$LWDISPLAY
290
     0
  9
$INSUNITS
 70
     0
  9
$HYPERLINKBASE
  1

  9
$STYLESHEET
  1

  9
$XEDIT
290
     1
  9
$CEPSNTYPE
380
     0
  9
$PSTYLEMODE
290
     1
  9
$FINGERPRINTGUID
  2
{8C683889-1924-4950-8815-E746A50256D5}
  9
$VERSIONGUID
  2
{D0D70C16-D96E-4333-BA57-8D363B8474E5}
  9
$EXTNAMES
290
     1
  9
$PSVPSCALE
 40
0.0
  9
$OLESTARTUP
290
     0
  9
$SORTENTS
280
   127
  9
$INDEXCTL
280
     0
  9
$HIDETEXT
280
     0
  9
$XCLIPFRAME
290
     0
  9
$HALOGAP
280
     0
  9
$OBSCOLOR
 70
   257
  9
$OBSLTYPE
280
     0
  9
$INTERSECTIONDISPLAY
280
     0
  9
$INTERSECTIONCOLOR
 70
   257
  9
$DIMASSOC
280
     1
  9
$PROJECTNAME
  1

  0
ENDSEC
  0
SECTION
  2
CLASSES
  0
CLASS
  1
IMAGE
  2
AcDbRasterImage
  3
ISM
 90
      127
 91
        0
280
     0
281
     1
  0
CLASS
  1
DICTIONARYVAR
  2
AcDbDictionaryVar
  3
ObjectDBX Classes
 90
        0
 91
        2
280
     0
281
     0
  0
CLASS
  1
RASTERVARIABLES
  2
AcDbRasterVariables
  3
ISM
 90
        0
 91
        0
280
     0
281
     0
  0
CLASS
  1
IMAGEDEF
  2
AcDbRasterImageDef
  3
ISM
 90
        0
 91
        0
280
     0
281
     0
  0
CLASS
  1
IMAGEDEF_REACTOR
  2
AcDbRasterImageDefReactor
  3
ISM
 90
        1
 91
        0
280
     0
281
     0
  0
CLASS
  1
IDBUFFER
  2
AcDbIdBuffer
  3
ObjectDBX Classes
 90
        0
 91
        0
280
     0
281
     0
  0
CLASS
  1
SPATIAL_FILTER
  2
AcDbSpatialFilter
  3
ObjectDBX Classes
 90
        0
 91
        0
280
     0
281
     0
  0
CLASS
  1
SORTENTSTABLE
  2
AcDbSortentsTable
  3
ObjectDBX Classes
 90
        0
 91
        0
280
     0
281
     0
  0
CLASS
  1
LAYER_INDEX
  2
AcDbLayerIndex
  3
ObjectDBX Classes
 90
        0
 91
        0
280
     0
281
     0
  0
CLASS
  1
SPATIAL_INDEX
  2
AcDbSpatialIndex
  3
ObjectDBX Classes
 90
        0
 91
        0
280
     0
281
     0
  0
CLASS
  1
OBJECT_PTR
  2
CAseDLPNTableRecord
  3
ASE-LPNTableRecord
 90
        1
 91
        0
280
     0
281
     0
  0
CLASS
  1
PLOTSETTINGS
  2
AcDbPlotSettings
  3
ObjectDBX Classes
 90
        0
 91
        0
280
     0
281
     0
  0
CLASS
  1
ACDBDICTIONARYWDFLT
  2
AcDbDictionaryWithDefault
  3
ObjectDBX Classes
 90
        0
 91
        1
280
     0
281
     0
  0
CLASS
  1
WIPEOUT
  2
AcDbWipeout
  3
"WipeOut|Product Desc: Object Enabler for WipeOut entity^I^I^I^I^I^I|Company: Autodesk, Inc.^I^I^I^I^I^I|WEB Address: www.autodesk.com"
 90
      127
 91
        0
280
     0
281
     1
  0
CLASS
  1
WIPEOUTVARIABLES
  2
AcDbWipeoutVariables
  3
"WipeOut|Product Desc:     WipeOut Dbx Application|Company:          Autodesk, Inc.|WEB Address:      www.autodesk.com"
 90
        0
 91
        0
280
     0
281
     0
  0
CLASS
  1
RTEXT
  2
RText
  3
RText|AutoCAD Express Tool|expresstools@autodesk.com
 90
        0
 91
        0
280
     0
281
     1
  0
CLASS
  1
ARCALIGNEDTEXT
  2
AcDbArcAlignedText
  3
ATEXT|AutoCAD Express Tool|expresstools@autodesk.com
 90
        0
 91
        0
280
     0
281
     1
  0
ENDSEC
  0
SECTION
  2
TABLES
  0
TABLE
  2
VPORT
  5
7
330
0
100
AcDbSymbolTable
 70
     2
  0
VPORT
  5
484
330
7
100
AcDbSymbolTableRecord
100
AcDbViewportTableRecord
  2
*Active
 70
     0
 10
0.0
 20
0.0
 11
1.0
 21
1.0
 12
531.1557292347401
 22
-151.8289111087056
 13
0.0
 23
0.0
 14
1.0
 24
1.0
 15
0.0
 25
0.0
 16
0.0
 26
0.0
 36
1.0
 17
0.0
 27
0.0
 37
0.0
 40
1768.784491676855
 41
1.569570871261378
 42
50.0
 43
0.0
 44
0.0
 50
0.0
 51
0.0
 71
     0
 72
  2000
 73
     1
 74
     1
 75
     0
 76
     0
 77
     0
 78
     0
281
     0
 65
     1
110
0.0
120
0.0
130
0.0
111
1.0
121
0.0
131
0.0
112
0.0
122
1.0
132
0.0
 79
     1
146
0.0
  0
ENDTAB
  0
TABLE
  2
LTYPE
  5
4
330
0
100
AcDbSymbolTable
 70
     6
  0
LTYPE
  5
11
330
4
100
AcDbSymbolTableRecord
100
AcDbLinetypeTableRecord
  2
BYBLOCK
 70
     0
  3

 72
    65
 73
     0
 40
0.0
  0
LTYPE
  5
12
330
4
100
AcDbSymbolTableRecord
100
AcDbLinetypeTableRecord
  2
BYLAYER
 70
     0
  3

 72
    65
 73
     0
 40
0.0
  0
LTYPE
  5
13
330
4
100
AcDbSymbolTableRecord
100
AcDbLinetypeTableRecord
  2
CONTINUOUS
 70
     0
  3
Solid line
 72
    65
 73
     0
 40
0.0
  0
LTYPE
  5
1E
330
4
100
AcDbSymbolTableRecord
100
AcDbLinetypeTableRecord
  2
HIDDEN
 70
     0
  3
Hidden __ __ __ __ __ __ __ __ __ __ __ __ __ __
 72
    65
 73
     2
 40
1.905
 49
1.27
 74
     0
 49
-0.635
 74
     0
  0
LTYPE
  5
1F
330
4
100
AcDbSymbolTableRecord
100
AcDbLinetypeTableRecord
  2
PHANTOM
 70
     0
  3
Phantom ______  __  __  ______  __  __  ______
 72
    65
 73
     6
 40
12.7
 49
6.349999999999999
 74
     0
 49
-1.27
 74
     0
 49
1.27
 74
     0
 49
-1.27
 74
     0
 49
1.27
 74
     0
 49
-1.27
 74
     0
  0
LTYPE
  5
20
330
4
100
AcDbSymbolTableRecord
100
AcDbLinetypeTableRecord
  2
CENTER
 70
     0
  3
Center ____ _ ____ _ ____ _ ____ _ ____ _ ____
 72
    65
 73
     4
 40
10.16
 49
6.349999999999999
 74
     0
 49
-1.27
 74
     0
 49
1.27
 74
     0
 49
-1.27
 74
     0
  0
LTYPE
  5
21
330
4
100
AcDbSymbolTableRecord
100
AcDbLinetypeTableRecord
  2
CENTERX2
 70
     0
  3
Center (2x) ________  __  ________  __  _____
 72
    65
 73
     4
 40
20.32
 49
12.7
 74
     0
 49
-2.54
 74
     0
 49
2.54
 74
     0
 49
-2.54
 74
     0
  0
LTYPE
  5
22
330
4
100
AcDbSymbolTableRecord
100
AcDbLinetypeTableRecord
  2
DOT2
 70
     0
  3
Dot (.5x) ........................................
 72
    65
 73
     2
 40
0.635
 49
0.0
 74
     0
 49
-0.635
 74
     0
  0
ENDTAB
  0
TABLE
  2
LAYER
  5
2
330
0
100
AcDbSymbolTable
 70
     2
  0
LAYER
  5
14
330
2
100
AcDbSymbolTableRecord
100
AcDbLayerTableRecord
  2
0
 70
     0
 62
     7
  6
CONTINUOUS
370
    -3
390
45E
  0
LAYER
  5
26
330
2
100
AcDbSymbolTableRecord
100
AcDbLayerTableRecord
  2
DEFPOINTS
 70
     0
 62
     7
  6
CONTINUOUS
290
     0
370
    -3
390
45E
  0
ENDTAB
  0
TABLE
  2
STYLE
  5
3
330
0
100
AcDbSymbolTable
 70
     1
  0
STYLE
  5
17
330
3
100
AcDbSymbolTableRecord
100
AcDbTextStyleTableRecord
  2
STANDARD
 70
     0
 40
0.0
 41
1.0
 50
0.0
 71
     0
 42
0.0
  3
Century Gothic
  4

  0
ENDTAB
  0
TABLE
  2
VIEW
  5
5
330
0
100
AcDbSymbolTable
 70
     0
  0
ENDTAB
  0
TABLE
  2
UCS
  5
6
330
0
100
AcDbSymbolTable
 70
     0
  0
ENDTAB
  0
TABLE
  2
APPID
  5
8
330
0
100
AcDbSymbolTable
 70
     2
  0
APPID
  5
16
330
8
100
AcDbSymbolTableRecord
100
AcDbRegAppTableRecord
  2
ACAD
 70
     0
  0
APPID
  5
469
330
8
100
AcDbSymbolTableRecord
100
AcDbRegAppTableRecord
  2
DCO15
 70
     0
  0
ENDTAB
  0
TABLE
  2
DIMSTYLE
  5
9
330
0
100
AcDbSymbolTable
 70
     1
100
AcDbDimStyleTable
 71
     0
  0
DIMSTYLE
105
18
330
9
100
AcDbSymbolTableRecord
100
AcDbDimStyleTableRecord
  2
STANDARD
 70
     0
289
     0
340
17
  0
ENDTAB
  0
TABLE
  2
BLOCK_RECORD
  5
1
330
0
100
AcDbSymbolTable
 70
     0
  0
BLOCK_RECORD
  5
A
330
1
100
AcDbSymbolTableRecord
100
AcDbBlockTableRecord
  2
*MODEL_SPACE
340
463
  0
BLOCK_RECORD
  5
B
330
1
100
AcDbSymbolTableRecord
100
AcDbBlockTableRecord
  2
*PAPER_SPACE
340
464
  0
ENDTAB
  0
ENDSEC
  0
SECTION
  2
BLOCKS
  0
BLOCK
  5
D
330
A
100
AcDbEntity
  8
0
100
AcDbBlockBegin
  2
*MODEL_SPACE
 70
     0
 10
0.0
 20
0.0
 30
0.0
  3
*MODEL_SPACE
  1

  0
ENDBLK
  5
E
330
A
100
AcDbEntity
  8
0
100
AcDbBlockEnd
  0
BLOCK
  5
F
330
B
100
AcDbEntity
 67
     1
  8
0
100
AcDbBlockBegin
  2
*PAPER_SPACE
 70
     0
 10
0.0
 20
0.0
 30
0.0
  3
*PAPER_SPACE
  1

  0
ENDBLK
  5
10
330
B
100
AcDbEntity
 67
     1
  8
0
100
AcDbBlockEnd
  0
ENDSEC
  0
SECTION
  2
ENTITIES
  0
LINE
  5
27
330
A
100
AcDbEntity
  8
0
  6
Continuous
 62
     7
100
AcDbLine
 10
-111.4084318803419
 20
469.1745247480664
 30
0.0
 11
-113.9719210848935
 21
511.0872027570464
 31
0.0
  0
LINE
  5
28
330
A
100
AcDbEntity
  8
0
  6
Continuous
 62
     7
100
AcDbLine
 10
-158.9719210848921
 20
511.0872027570464
 30
0.0
 11
-161.5354102894436
 21
469.1745247480664
 31
0.0
  0
LINE
  5
29
330
A
100
AcDbEntity
  8
0
  6
Continuous
 62
     7
100
AcDbLine
 10
-113.9719210848935
 20
511.0872027570464
 30
0.0
 11
-121.4719210848929
 21
518.5872027570463
 31
0.0
  0
LINE
  5
2A
330
A
100
AcDbEntity
  8
0
  6
Continuous
 62
     7
100
AcDbLine
 10
-151.4719210848927
 20
518.5872027570463
 30
0.0
 11
-158.9719210848921
 21
511.0872027570464
 31
0.0
  0
ARC
  5
2B
330
A
100
AcDbEntity
  8
0
  6
Continuous
 62
     7
100
AcDbCircle
 10
-209.9981908119211
 20
715.3077294296787
 30
0.0
 40
10.00000000000023
100
AcDbArc
 50
33.0000000000001
 51
213.0000000000033
  0
LINE
  5
2C
330
A
100
AcDbEntity
  8
0
  6
Continuous
 62
     7
100
AcDbLine
 10
-218.1819198954833
 20
709.5608539058088
 30
0.0
 11
-149.636924243833
 21
611.9506530032262
 31
0.0
  0
LINE
  5
2D
330
A
100
AcDbEntity
  8
0
  6
Continuous
 62
     7
100
AcDbLine
 10
-141.6783204912149
 20
620.714070795975
 30
0.0
 11
-201.4195363880966
 21
720.4464730355945
 31
0.0
  0
LINE
  5
2E
330
A
100
AcDbEntity
  8
0
  6
Continuous
 62
     7
100
AcDbLine
 10
392.3834179744352
 20
-262.2681363022813
 30
0.0
 11
392.3834179744351
 21
557.7318636977184
 31
0.0
  0
LINE
  5
2F
330
A
100
AcDbEntity
  8
0
  6
Continuous
 62
     7
100
AcDbLine
 10
305.0280789151074
 20
609.0872027570462
 30
0.0
 11
-84.97192108489269
 21
609.0872027570462
 31
0.0
  0
LINE
  5
30
330
A
100
AcDbEntity
  8
0
  6
Continuous
 62
     7
100
AcDbLine
 10
-141.740114422784
 20
583.4993135395475
 30
0.0
 11
-139.9719210848917
 21
538.5872027570543
 31
0.0
  0
LINE
  5
31
330
A
100
AcDbEntity
  8
0
  6
Continuous
 62
     7
100
AcDbLine
 10
-132.9719210848938
 20
538.5872027570543
 30
0.0
 11
-131.3363953298473
 21
580.1295569352637
 31
0.0
  0
ARC
  5
32
330
A
100
AcDbEntity
  8
0
  6
Continuous
 62
     7
100
AcDbCircle
 10
375.3834179744346
 20
562.5897280739878
 30
0.0
 40
4.50000000000017
100
AcDbArc
 50
360.0000000000008
 51
44.99999999999967
  0
LINE
  5
33
330
A
100
AcDbEntity
  8
0
  6
Continuous
 62
     7
100
AcDbLine
 10
361.2013619499736
 20
583.1357451291283
 30
0.0
 11
378.5653984897742
 21
565.7717085893273
 31
0.0
  0
LINE
  5
34
330
A
100
AcDbEntity
  8
0
  6
Continuous
 62
     7
100
AcDbLine
 10
386.3435730828263
 20
573.5498831823794
 30
0.0
 11
368.9795365430256
 21
590.9139197221803
 31
0.0
  0
LINE
  5
35
330
A
100
AcDbEntity
  8
0
  6
Continuous
 62
     7
100
AcDbLine
 10
379.883417974435
 20
-262.2681363022813
 30
0.0
 11
379.883417974435
 21
-285.9667278981403
 31
0.0
  0
LINE
  5
36
330
A
100
AcDbEntity
  8
0
  6
Continuous
 62
     7
100
AcDbLine
 10
390.8834179744351
 20
-285.9667278981405
 30
0.0
 11
390.8834179744351
 21
-262.2681363022813
 31
0.0
  0
LINE
  5
37
330
A
100
AcDbEntity
  8
0
  6
Continuous
 62
     7
100
AcDbLine
 10
390.8834179744351
 20
557.7318636977184
 30
0.0
 11
390.883417974435
 21
559.2514386677367
 31
0.0
  0
LINE
  5
38
330
A
100
AcDbEntity
  8
0
  6
Continuous
 62
     7
100
AcDbLine
 10
379.8834179744348
 20
562.5897280739876
 30
0.0
 11
379.883417974435
 21
557.7318636977184
 31
0.0
  0
LINE
  5
39
330
A
100
AcDbEntity
  8
0
  6
Continuous
 62
     7
100
AcDbLine
 10
-84.97192108489269
 20
607.5872027570462
 30
0.0
 11
-108.6705126807517
 21
607.5872027570462
 31
0.0
  0
LINE
  5
3A
330
A
100
AcDbEntity
  8
0
  6
Continuous
 62
     7
100
AcDbLine
 10
-108.6705126807517
 20
596.5872027570465
 30
0.0
 11
-84.97192108489269
 21
596.5872027570465
 31
0.0
  0
LINE
  5
3B
330
A
100
AcDbEntity
  8
0
  6
Continuous
 62
     7
100
AcDbLine
 10
328.7266705109667
 20
607.5872027570462
 30
0.0
 11
305.0280789151074
 21
607.5872027570462
 31
0.0
  0
LINE
  5
3C
330
A
100
AcDbEntity
  8
0
  6
Continuous
 62
     7
100
AcDbLine
 10
305.0280789151074
 20
596.5872027570465
 30
0.0
 11
328.7266705109666
 21
596.5872027570465
 31
0.0
  0
LINE
  5
3D
330
A
100
AcDbEntity
  8
0
  6
Continuous
 62
     7
100
AcDbLine
 10
374.3834179744352
 20
-326.3206951855392
 30
0.0
 11
374.3834179744352
 21
-346.8254752519337
 31
0.0
  0
LINE
  5
3E
330
A
100
AcDbEntity
  8
0
  6
Continuous
 62
     7
100
AcDbLine
 10
385.3834179744351
 20
-346.8254752519337
 30
0.0
 11
385.3834179744351
 21
-329.2681363022812
 31
0.0
  0
ARC
  5
3F
330
A
100
AcDbEntity
  8
0
  6
Continuous
 62
     7
100
AcDbCircle
 10
-141.4719210848929
 20
520.0872027570463
 30
0.0
 40
1.500000000000113
100
AcDbArc
 50
270.0000000000008
 51
0.0
  0
ARC
  5
40
330
A
100
AcDbEntity
  8
0
  6
Continuous
 62
     7
100
AcDbCircle
 10
-131.4719210848924
 20
520.0872027570463
 30
0.0
 40
1.500000000000284
100
AcDbArc
 50
180.0000000000004
 51
269.9999999999921
  0
LINE
  5
41
330
A
100
AcDbEntity
  8
0
  6
Continuous
 62
     7
100
AcDbLine
 10
370.3834179744352
 20
557.7318636977184
 30
0.0
 11
370.3834179744353
 21
-262.2681363022813
 31
0.0
  0
LINE
  5
42
330
A
100
AcDbEntity
  8
0
  6
Continuous
 62
     7
100
AcDbLine
 10
-84.97192108489269
 20
587.0872027570465
 30
0.0
 11
305.0280789151074
 21
587.0872027570465
 31
0.0
  0
LINE
  5
43
330
A
100
AcDbEntity
  8
0
  6
Continuous
 62
     7
100
AcDbLine
 10
-139.9719210848917
 20
538.5872027570543
 30
0.0
 11
-139.9719210848928
 21
520.0872027570463
 31
0.0
  0
LINE
  5
44
330
A
100
AcDbEntity
  8
0
  6
Continuous
 62
     7
100
AcDbLine
 10
-132.9719210848927
 20
520.0872027570463
 30
0.0
 11
-132.9719210848938
 21
538.5872027570543
 31
0.0
  0
LINE
  5
45
330
A
100
AcDbEntity
  8
0
  6
Continuous
 62
     7
100
AcDbLine
 10
361.0534660091582
 20
648.4601290395931
 30
0.0
 11
-111.5887951781284
 21
614.1727595045055
 31
0.0
  0
LINE
  5
46
330
A
100
AcDbEntity
  8
0
  6
Continuous
 62
     7
100
AcDbLine
 10
-110.7186228135194
 20
612.7319435088703
 30
0.0
 11
360.4912307785464
 21
646.9154004390654
 31
0.0
  0
LINE
  5
47
330
A
100
AcDbEntity
  8
0
  6
Continuous
 62
     7
100
AcDbLine
 10
419.345271995795
 20
-265.8546720616885
 30
0.0
 11
396.2001362792247
 21
562.0767004729454
 31
0.0
  0
LINE
  5
48
330
A
100
AcDbEntity
  8
0
  6
Continuous
 62
     7
100
AcDbLine
 10
394.7388180576384
 20
560.6720409017979
 30
0.0
 11
417.8804596252265
 21
-267.1343414146746
 31
0.0
  0
LINE
  5
49
330
A
100
AcDbEntity
  8
0
  6
Continuous
 62
     7
100
AcDbLine
 10
419.4981045047155
 20
-271.3216881305515
 30
0.0
 11
419.4923442977152
 21
-271.1156380928084
 31
0.0
  0
LINE
  5
4A
330
A
100
AcDbEntity
  8
0
  6
Continuous
 62
     7
100
AcDbLine
 10
417.9929300818255
 20
-271.1575547862367
 30
0.0
 11
417.9986189030191
 21
-271.3610512615531
 31
0.0
  0
LINE
  5
4B
330
A
100
AcDbEntity
  8
0
  6
Continuous
 62
     7
100
AcDbLine
 10
366.2920048060214
 20
648.8401537015874
 30
0.0
 11
366.0351396623179
 21
648.8215196715268
 31
0.0
  0
LINE
  5
4C
330
A
100
AcDbEntity
  8
0
  6
Continuous
 62
     7
100
AcDbLine
 10
366.1436704876482
 20
647.325451137016
 30
0.0
 11
366.4005356313518
 21
647.3440851670767
 31
0.0
  0
LINE
  5
4D
330
A
100
AcDbEntity
  8
0
  6
Continuous
 62
     7
100
AcDbLine
 10
23.84999999999979
 20
249.1745247480662
 30
0.0
 11
-30.18718286226194
 21
469.1745247480664
 31
0.0
  0
LINE
  5
4E
330
A
100
AcDbEntity
  8
0
  6
Continuous
 62
     7
100
AcDbLine
 10
-242.1128171377384
 20
469.1745247480664
 30
0.0
 11
-296.1500000000001
 21
249.1745247480662
 31
0.0
  0
LINE
  5
4F
330
A
100
AcDbEntity
  8
0
  6
Continuous
 62
     7
100
AcDbLine
 10
-296.1500000000001
 20
249.1745247480662
 30
0.0
 11
-295.1788657200905
 21
248.9359912904877
 31
0.0
  0
LINE
  5
50
330
A
100
AcDbEntity
  8
0
  6
Continuous
 62
     7
100
AcDbLine
 10
22.87886572009016
 20
248.9359912904877
 30
0.0
 11
23.84999999999979
 21
249.1745247480662
 31
0.0
  0
ARC
  5
51
330
A
100
AcDbEntity
  8
0
  6
Continuous
 62
     7
100
AcDbCircle
 10
474.8499999999998
 20
-275.8254752519337
 30
0.0
 40
7.000000000000056
100
AcDbArc
 50
90.0
 51
180.0000000000004
  0
ARC
  5
52
330
A
100
AcDbEntity
  8
0
  6
Continuous
 62
     7
100
AcDbCircle
 10
474.8499999999998
 20
-376.8254752519336
 30
0.0
 40
7.000000000000056
100
AcDbArc
 50
180.0000000000004
 51
270.0000000000008
  0
LINE
  5
53
330
A
100
AcDbEntity
  8
0
  6
Continuous
 62
     7
100
AcDbLine
 10
483.8499999999998
 20
-268.8254752519337
 30
0.0
 11
474.8499999999998
 21
-268.8254752519337
 31
0.0
  0
LINE
  5
54
330
A
100
AcDbEntity
  8
0
  6
Continuous
 62
     7
100
AcDbLine
 10
474.8499999999998
 20
-383.8254752519337
 30
0.0
 11
483.8499999999998
 21
-383.8254752519337
 31
0.0
  0
LINE
  5
55
330
A
100
AcDbEntity
  8
0
  6
Continuous
 62
     7
100
AcDbLine
 10
485.8499999999998
 20
-270.3254752519336
 30
0.0
 11
483.8499999999998
 21
-270.3254752519336
 31
0.0
  0
LINE
  5
56
330
A
100
AcDbEntity
  8
0
  6
Continuous
 62
     7
100
AcDbLine
 10
483.8499999999998
 20
-382.3254752519337
 30
0.0
 11
485.8499999999998
 21
-382.3254752519337
 31
0.0
  0
LINE
  5
57
330
A
100
AcDbEntity
  8
0
  6
Continuous
 62
     7
100
AcDbLine
 10
368.8499999999998
 20
-346.8254752519337
 30
0.0
 11
368.8499999999998
 21
-390.8254752519336
 31
0.0
  0
LINE
  5
58
330
A
100
AcDbEntity
  8
0
  6
Continuous
 62
     7
100
AcDbLine
 10
390.8499999999998
 20
-390.8254752519336
 30
0.0
 11
390.8499999999998
 21
-374.8254752519337
 31
0.0
  0
ARC
  5
59
330
A
100
AcDbEntity
  8
0
  6
Continuous
 62
     7
100
AcDbCircle
 10
379.8499999999998
 20
-390.8254752519336
 30
0.0
 40
11.0
100
AcDbArc
 50
180.0000000000004
 51
0.0
  0
LINE
  5
5A
330
A
100
AcDbEntity
  8
0
  6
Continuous
 62
     7
100
AcDbLine
 10
-158.9719210848921
 20
511.0872027570464
 30
0.0
 11
-113.9719210848935
 21
511.0872027570464
 31
0.0
  0
LINE
  5
5B
330
A
100
AcDbEntity
  8
0
  6
Continuous
 62
     7
100
AcDbLine
 10
-151.4719210848927
 20
518.5872027570463
 30
0.0
 11
-121.4719210848929
 21
518.5872027570463
 31
0.0
  0
CIRCLE
  5
5C
330
A
100
AcDbEntity
  8
0
  6
Continuous
 62
     7
100
AcDbCircle
 10
385.3834179744349
 20
-307.2681363022812
 30
0.0
 40
5.0
  0
CIRCLE
  5
5D
330
A
100
AcDbEntity
  8
0
  6
Continuous
 62
     7
100
AcDbCircle
 10
385.3834179744349
 20
-307.2681363022812
 30
0.0
 40
22.00000000000006
  0
CIRCLE
  5
5E
330
A
100
AcDbEntity
  8
0
  6
Continuous
 62
     7
100
AcDbCircle
 10
350.0280789151075
 20
602.0872027570462
 30
0.0
 40
22.00000000000006
  0
CIRCLE
  5
5F
330
A
100
AcDbEntity
  8
0
  6
Continuous
 62
     7
100
AcDbCircle
 10
350.0280789151075
 20
602.0872027570462
 30
0.0
 40
5.0
  0
CIRCLE
  5
60
330
A
100
AcDbEntity
  8
0
  6
Continuous
 62
     7
100
AcDbCircle
 10
-129.9719210848926
 20
602.0872027570463
 30
0.0
 40
4.9999999999999
  0
CIRCLE
  5
61
330
A
100
AcDbEntity
  8
0
  6
Continuous
 62
     7
100
AcDbCircle
 10
-129.9719210848926
 20
602.0872027570463
 30
0.0
 40
22.00000000000003
  0
LINE
  5
62
330
A
100
AcDbEntity
  8
0
  6
Continuous
 62
     7
100
AcDbLine
 10
392.3834179744351
 20
557.7318636977184
 30
0.0
 11
383.4743270653443
 21
557.7318636977184
 31
0.0
  0
LINE
  5
63
330
A
100
AcDbEntity
  8
0
  6
Continuous
 62
     7
100
AcDbLine
 10
392.3834179744352
 20
-262.2681363022813
 30
0.0
 11
383.4743270653444
 21
-262.2681363022813
 31
0.0
  0
LINE
  5
64
330
A
100
AcDbEntity
  8
0
  6
Continuous
 62
     7
100
AcDbLine
 10
-84.97192108489269
 20
609.0872027570462
 30
0.0
 11
-84.97192108489269
 21
600.1781118479555
 31
0.0
  0
LINE
  5
65
330
A
100
AcDbEntity
  8
0
  6
Continuous
 62
     7
100
AcDbLine
 10
305.0280789151074
 20
600.1781118479555
 30
0.0
 11
305.0280789151074
 21
609.0872027570462
 31
0.0
  0
LINE
  5
66
330
A
100
AcDbEntity
  8
0
  6
Continuous
 62
     7
100
AcDbLine
 10
383.4743270653443
 20
557.7318636977184
 30
0.0
 11
373.2925088835261
 21
557.7318636977184
 31
0.0
  0
LINE
  5
67
330
A
100
AcDbEntity
  8
0
  6
Continuous
 62
     7
100
AcDbLine
 10
383.4743270653444
 20
-262.2681363022813
 30
0.0
 11
373.2925088835262
 21
-262.2681363022813
 31
0.0
  0
LINE
  5
68
330
A
100
AcDbEntity
  8
0
  6
Continuous
 62
     7
100
AcDbLine
 10
-84.97192108489269
 20
589.9962936661372
 30
0.0
 11
-84.97192108489269
 21
600.1781118479555
 31
0.0
  0
LINE
  5
69
330
A
100
AcDbEntity
  8
0
  6
Continuous
 62
     7
100
AcDbLine
 10
305.0280789151074
 20
589.9962936661372
 30
0.0
 11
305.0280789151074
 21
600.1781118479555
 31
0.0
  0
LINE
  5
6A
330
A
100
AcDbEntity
  8
0
  6
Continuous
 62
     7
100
AcDbLine
 10
-136.4719210848928
 20
538.5872027570543
 30
0.0
 11
-132.9719210848938
 21
538.5872027570543
 31
0.0
  0
LINE
  5
6B
330
A
100
AcDbEntity
  8
0
  6
Continuous
 62
     7
100
AcDbLine
 10
-139.9719210848917
 20
538.5872027570543
 30
0.0
 11
-136.4719210848928
 21
538.5872027570543
 31
0.0
  0
ARC
  5
6C
330
A
100
AcDbEntity
  8
0
  6
Continuous
 62
     7
100
AcDbCircle
 10
390.3197064181754
 20
566.7318636977188
 30
0.0
 40
7.50000000000004
100
AcDbArc
 50
228.8394081044016
 51
163.1889938068321
  0
ARC
  5
6D
330
A
100
AcDbEntity
  8
0
  6
Continuous
 62
     7
100
AcDbCircle
 10
390.3197064181754
 20
566.7318636977188
 30
0.0
 40
7.50000000000004
100
AcDbArc
 50
163.1889938068321
 51
228.8394081044016
  0
LINE
  5
6E
330
A
100
AcDbEntity
  8
0
  6
Continuous
 62
     7
100
AcDbLine
 10
363.8418874553597
 20
656.1212539989554
 30
0.0
 11
352.145280256208
 21
623.9850898350555
 31
0.0
  0
LINE
  5
6F
330
A
100
AcDbEntity
  8
0
  6
Continuous
 62
     7
100
AcDbLine
 10
370.3721076329943
 20
641.9010380792794
 30
0.0
 11
368.5165396355728
 21
644.1124179065093
 31
0.0
  0
LINE
  5
70
330
A
100
AcDbEntity
  8
0
  6
Continuous
 62
     7
100
AcDbLine
 10
362.4818990848527
 20
620.2228682584731
 30
0.0
 11
370.3721076329943
 21
641.9010380792797
 31
0.0
  0
LINE
  5
71
330
A
100
AcDbEntity
  8
0
  6
Continuous
 62
     7
100
AcDbLine
 10
396.6454922776677
 20
-288.3693087622336
 30
0.0
 11
418.6881473683211
 21
-266.3266536715799
 31
0.0
  0
LINE
  5
72
330
A
100
AcDbEntity
  8
0
  6
Continuous
 62
     7
100
AcDbLine
 10
420.1730716088127
 20
-280.1152359047176
 30
0.0
 11
404.2822455144824
 21
-296.006061999048
 31
0.0
  0
LINE
  5
73
330
A
100
AcDbEntity
  8
0
  6
Continuous
 62
     7
100
AcDbLine
 10
418.4053046558463
 20
-278.347468951751
 30
0.0
 11
420.1730716088127
 21
-280.1152359047176
 31
0.0
  0
LINE
  5
74
330
A
100
AcDbEntity
  8
0
  6
Continuous
 62
     7
100
AcDbLine
 10
372.9391581166197
 20
648.9539513176406
 30
0.0
 11
374.1785062840047
 21
652.359032422373
 31
0.0
  0
LINE
  5
75
330
A
100
AcDbEntity
  8
0
  6
Continuous
 62
     7
100
AcDbLine
 10
371.7330389182957
 20
650.3913482053401
 30
0.0
 11
372.9391581166197
 21
648.9539513176406
 31
0.0
  0
LWPOLYLINE
  5
76
330
A
100
AcDbEntity
  8
0
  6
Continuous
 62
     7
100
AcDbPolyline
 90
        3
 70
   128
 43
0.0
 10
371.029726602315
 20
651.0173423485009
 10
371.6078514935531
 20
650.5320514707611
 10
371.7330389182958
 20
650.3913482053404
  0
ARC
  5
7B
330
A
100
AcDbEntity
  8
0
  6
Continuous
 62
     7
100
AcDbCircle
 10
371.8292747320397
 20
653.2140827806872
 30
0.0
 40
2.50000000000015
100
AcDbArc
 50
340.0000000000014
 51
0.0
  0
ARC
  5
7C
330
A
100
AcDbEntity
  8
0
  6
Continuous
 62
     7
100
AcDbCircle
 10
371.8292747320397
 20
653.2140827806872
 30
0.0
 40
2.500000000000115
100
AcDbArc
 50
0.0
 51
69.99999999999885
  0
ARC
  5
7D
330
A
100
AcDbEntity
  8
0
  6
Continuous
 62
     7
100
AcDbCircle
 10
366.1911190073246
 20
655.2662036406412
 30
0.0
 40
2.500000000000096
100
AcDbArc
 50
70.00000000000423
 51
160.0000000000001
  0
LINE
  5
7E
330
A
100
AcDbEntity
  8
0
  6
Continuous
 62
     7
100
AcDbLine
 10
426.3249006051357
 20
-273.9634069083944
 30
0.0
 11
424.6985550084066
 21
-275.5897525051235
 31
0.0
  0
LINE
  5
7F
330
A
100
AcDbEntity
  8
0
  6
Continuous
 62
     7
100
AcDbLine
 10
424.6985550084066
 20
-275.5897525051235
 30
0.0
 11
422.9307880554402
 21
-273.8219855521572
 31
0.0
  0
ARC
  5
80
330
A
100
AcDbEntity
  8
0
  6
Continuous
 62
     7
100
AcDbCircle
 10
424.5571336521694
 20
-272.1956399554281
 30
0.0
 40
2.499999999999939
100
AcDbArc
 50
315.0000000000008
 51
45.0
  0
ARC
  5
81
330
A
100
AcDbEntity
  8
0
  6
Continuous
 62
     7
100
AcDbCircle
 10
420.4559143212876
 20
-268.0944206245463
 30
0.0
 40
2.5000000000001
100
AcDbArc
 50
45.00000000000367
 51
135.0000000000037
  0
LINE
  5
82
330
A
100
AcDbEntity
  8
0
  6
Continuous
 62
     7
100
AcDbLine
 10
422.223681274254
 20
-266.3266536715799
 30
0.0
 11
426.3249006051357
 21
-270.4278730024618
 31
0.0
  0
LINE
  5
83
330
A
100
AcDbEntity
  8
0
  6
Continuous
 62
     7
100
AcDbLine
 10
422.9307880554402
 20
-273.8219855521572
 30
0.0
 11
421.0923104243553
 21
-271.9835079210723
 31
0.0
  0
ARC
  5
84
330
A
100
AcDbEntity
  8
0
  6
Continuous
 62
     7
100
AcDbCircle
 10
418.8295687245584
 20
-274.2462496208692
 30
0.0
 40
3.199999999999953
100
AcDbArc
 50
45.00000000000072
 51
135.000000000005
  0
LINE
  5
85
330
A
100
AcDbEntity
  8
0
  6
Continuous
 62
     7
100
AcDbLine
 10
416.5668270247615
 20
-276.5089913206661
 30
0.0
 11
418.4053046558463
 21
-278.347468951751
 31
0.0
  0
ARC
  5
86
330
A
100
AcDbEntity
  8
0
  6
Continuous
 62
     7
100
AcDbCircle
 10
418.8295687245584
 20
-274.2462496208692
 30
0.0
 40
3.199999999999953
100
AcDbArc
 50
135.000000000005
 51
225.0000000000015
  0
LINE
  5
87
330
A
100
AcDbEntity
  8
0
  6
Continuous
 62
     7
100
AcDbLine
 10
368.5165396355728
 20
644.1124179065093
 30
0.0
 11
366.7537500380225
 21
646.2132287423777
 31
0.0
  0
ARC
  5
88
330
A
100
AcDbEntity
  8
0
  6
Continuous
 62
     7
100
AcDbCircle
 10
369.2433944781591
 20
648.302288473859
 30
0.0
 40
3.250000000000059
100
AcDbArc
 50
56.65763620291044
 51
220.0000000000026
  0
LINE
  5
89
330
A
100
AcDbEntity
  8
0
  6
Continuous
 62
     7
100
AcDbLine
 10
372.684325090354
 20
655.5633143326521
 30
0.0
 11
367.0461693656386
 21
657.6154351926061
 31
0.0
  0
LINE
  5
8A
330
A
100
AcDbEntity
  8
0
  6
Continuous
 62
     7
100
AcDbLine
 10
373.2925088835261
 20
557.7318636977184
 30
0.0
 11
370.3834179744352
 21
557.7318636977184
 31
0.0
  0
LINE
  5
8B
330
A
100
AcDbEntity
  8
0
  6
Continuous
 62
     7
100
AcDbLine
 10
373.2925088835262
 20
-262.2681363022813
 30
0.0
 11
370.3834179744353
 21
-262.2681363022813
 31
0.0
  0
LINE
  5
8C
330
A
100
AcDbEntity
  8
0
  6
Continuous
 62
     7
100
AcDbLine
 10
-84.97192108489269
 20
589.9962936661372
 30
0.0
 11
-84.97192108489269
 21
587.0872027570465
 31
0.0
  0
LINE
  5
8D
330
A
100
AcDbEntity
  8
0
  6
Continuous
 62
     7
100
AcDbLine
 10
305.0280789151074
 20
587.0872027570465
 30
0.0
 11
305.0280789151074
 21
589.9962936661372
 31
0.0
  0
CIRCLE
  5
8E
330
A
100
AcDbEntity
  8
0
  6
Continuous
 62
     7
100
AcDbCircle
 10
418.8295687245584
 20
-274.2462496208692
 30
0.0
 40
3.0
  0
CIRCLE
  5
8F
330
A
100
AcDbEntity
  8
0
  6
Continuous
 62
     7
100
AcDbCircle
 10
369.2433944781591
 20
648.302288473859
 30
0.0
 40
3.0
  0
LINE
  5
90
330
A
100
AcDbEntity
  8
0
  6
Continuous
 62
     7
100
AcDbLine
 10
-136.1500000000001
 20
469.1745247480664
 30
0.0
 11
-30.18718286226194
 21
469.1745247480664
 31
0.0
  0
LINE
  5
91
330
A
100
AcDbEntity
  8
0
  6
Continuous
 62
     7
100
AcDbLine
 10
-242.1128171377384
 20
469.1745247480664
 30
0.0
 11
-136.1500000000001
 21
469.1745247480664
 31
0.0
  0
LINE
  5
92
330
A
100
AcDbEntity
  8
0
  6
Continuous
 62
     7
100
AcDbLine
 10
-136.1500000000001
 20
249.1745247480662
 30
0.0
 11
23.84999999999979
 21
249.1745247480662
 31
0.0
  0
LINE
  5
93
330
A
100
AcDbEntity
  8
0
  6
Continuous
 62
     7
100
AcDbLine
 10
-296.1500000000001
 20
249.1745247480662
 30
0.0
 11
-136.1500000000001
 21
249.1745247480662
 31
0.0
  0
LINE
  5
94
330
A
100
AcDbEntity
  8
0
  6
Continuous
 62
     7
100
AcDbLine
 10
-136.1500000000001
 20
248.9359912904877
 30
0.0
 11
22.87886572009016
 21
248.9359912904877
 31
0.0
  0
LINE
  5
95
330
A
100
AcDbEntity
  8
0
  6
Continuous
 62
     7
100
AcDbLine
 10
-295.1788657200905
 20
248.9359912904877
 30
0.0
 11
-136.1500000000001
 21
248.9359912904877
 31
0.0
  0
LINE
  5
96
330
A
100
AcDbEntity
  8
0
  6
Continuous
 62
     7
100
AcDbLine
 10
467.8499999999997
 20
-275.8254752519337
 30
0.0
 11
467.8499999999997
 21
-376.8254752519336
 31
0.0
  0
LINE
  5
97
330
A
100
AcDbEntity
  8
0
  6
Continuous
 62
     7
100
AcDbLine
 10
483.8499999999998
 20
-268.8254752519337
 30
0.0
 11
483.8499999999998
 21
-383.8254752519337
 31
0.0
  0
LINE
  5
98
330
A
100
AcDbEntity
  8
0
  6
Continuous
 62
     7
100
AcDbLine
 10
485.8499999999998
 20
-270.3254752519336
 30
0.0
 11
485.8499999999998
 21
-382.3254752519337
 31
0.0
  0
LINE
  5
99
330
A
100
AcDbEntity
  8
0
  6
Continuous
 62
     7
100
AcDbLine
 10
368.8499999999998
 20
-346.8254752519337
 30
0.0
 11
390.8499999999998
 21
-346.8254752519337
 31
0.0
  0
ARC
  5
9A
330
A
100
AcDbEntity
  8
0
  6
Continuous
 62
     7
100
AcDbCircle
 10
465.3499999999998
 20
-374.8254752519337
 30
0.0
 40
2.499999999999943
100
AcDbArc
 50
0.0
 51
90.0
  0
ARC
  5
9B
330
A
100
AcDbEntity
  8
0
  6
Continuous
 62
     7
100
AcDbCircle
 10
465.3499999999998
 20
-323.8254752519337
 30
0.0
 40
2.499999999999943
100
AcDbArc
 50
270.0000000000008
 51
0.0
  0
ARC
  5
9C
330
A
100
AcDbEntity
  8
0
  6
Continuous
 62
     7
100
AcDbCircle
 10
393.3499999999999
 20
-374.8254752519337
 30
0.0
 40
2.500000000000056
100
AcDbArc
 50
90.0
 51
180.0000000000004
  0
LINE
  5
9D
330
A
100
AcDbEntity
  8
0
  6
Continuous
 62
     7
100
AcDbLine
 10
465.3499999999998
 20
-372.3254752519337
 30
0.0
 11
393.3499999999999
 21
-372.3254752519337
 31
0.0
  0
ARC
  5
9E
330
A
100
AcDbEntity
  8
0
  6
Continuous
 62
     7
100
AcDbCircle
 10
391.8368237890399
 20
-339.8254752519337
 30
0.0
 40
10.00000000000005
100
AcDbArc
 50
281.6397123908878
 51
292.7650091075125
  0
LINE
  5
9F
330
A
100
AcDbEntity
  8
0
  6
Continuous
 62
     7
100
AcDbLine
 10
447.9936509449115
 20
-327.1044788732654
 30
0.0
 11
395.7063490550882
 21
-349.046471630602
 31
0.0
  0
ARC
  5
A0
330
A
100
AcDbEntity
  8
0
  6
Continuous
 62
     7
100
AcDbCircle
 10
451.8631762109598
 20
-336.3254752519337
 30
0.0
 40
10.00000000000003
100
AcDbArc
 50
90.0
 51
112.7650091075117
  0
LINE
  5
A1
330
A
100
AcDbEntity
  8
0
  6
Continuous
 62
     7
100
AcDbLine
 10
465.3499999999998
 20
-326.3254752519336
 30
0.0
 11
451.8631762109598
 21
-326.3254752519336
 31
0.0
  0
ARC
  5
A2
330
A
100
AcDbEntity
  8
0
  6
Continuous
 62
     7
100
AcDbCircle
 10
393.3499999999999
 20
-347.1712425879297
 30
0.0
 40
2.500000000000056
100
AcDbArc
 50
180.0000000000004
 51
281.639712390887
  0
LINE
  5
A3
330
A
100
AcDbEntity
  8
0
  6
PHANTOM
 62
     7
100
AcDbLine
 10
-201.4195363880966
 20
720.4464730355945
 30
0.0
 11
-218.1819198954833
 21
709.5608539058088
 31
0.0
  0
LINE
  5
A4
330
A
100
AcDbEntity
  8
0
  6
PHANTOM
 62
     7
100
AcDbLine
 10
383.4743270653444
 20
-262.2681363022813
 30
0.0
 11
383.4743270653443
 21
557.7318636977184
 31
0.0
  0
LINE
  5
A5
330
A
100
AcDbEntity
  8
0
  6
PHANTOM
 62
     7
100
AcDbLine
 10
-84.97192108489269
 20
600.1781118479555
 30
0.0
 11
305.0280789151074
 21
600.1781118479555
 31
0.0
  0
LINE
  5
A6
330
A
100
AcDbEntity
  8
0
  6
PHANTOM
 62
     7
100
AcDbLine
 10
373.2925088835262
 20
-262.2681363022813
 30
0.0
 11
373.2925088835261
 21
557.7318636977184
 31
0.0
  0
LINE
  5
A7
330
A
100
AcDbEntity
  8
0
  6
PHANTOM
 62
     7
100
AcDbLine
 10
305.0280789151074
 20
589.9962936661372
 30
0.0
 11
-84.97192108489269
 21
589.9962936661372
 31
0.0
  0
LINE
  5
A8
330
A
100
AcDbEntity
  8
0
  6
PHANTOM
 62
     7
100
AcDbLine
 10
384.0672898873757
 20
562.5897280739876
 30
0.0
 11
379.8834179744348
 21
562.5897280739876
 31
0.0
  0
LINE
  5
A9
330
A
100
AcDbEntity
  8
0
  6
PHANTOM
 62
     7
100
AcDbLine
 10
386.3435730828263
 20
573.5498831823794
 30
0.0
 11
378.5653984897742
 21
565.7717085893273
 31
0.0
  0
LINE
  5
AA
330
A
100
AcDbEntity
  8
0
  6
PHANTOM
 62
     7
100
AcDbLine
 10
-136.4719210848928
 20
520.0872027570463
 30
0.0
 11
-132.9719210848927
 21
520.0872027570463
 31
0.0
  0
LINE
  5
AB
330
A
100
AcDbEntity
  8
0
  6
PHANTOM
 62
     7
100
AcDbLine
 10
-139.9719210848928
 20
520.0872027570463
 30
0.0
 11
-136.4719210848928
 21
520.0872027570463
 31
0.0
  0
LINE
  5
AC
330
A
100
AcDbEntity
  8
0
  6
PHANTOM
 62
     7
100
AcDbLine
 10
366.1911190073245
 20
655.2662036406412
 30
0.0
 11
363.8418874553597
 21
656.1212539989554
 31
0.0
  0
LINE
  5
AD
330
A
100
AcDbEntity
  8
0
  6
PHANTOM
 62
     7
100
AcDbLine
 10
354.6631572598092
 20
623.5933890470065
 30
0.0
 11
366.1911190073245
 21
655.2662036406412
 31
0.0
  0
LINE
  5
AE
330
A
100
AcDbEntity
  8
0
  6
PHANTOM
 62
     7
100
AcDbLine
 10
368.5165396355728
 20
644.1124179065093
 30
0.0
 11
360.3013129845246
 21
621.5412681870525
 31
0.0
  0
LINE
  5
AF
330
A
100
AcDbEntity
  8
0
  6
PHANTOM
 62
     7
100
AcDbLine
 10
420.4559143212875
 20
-268.094420624546
 30
0.0
 11
416.5668270247612
 21
-271.9835079210725
 31
0.0
  0
LINE
  5
B0
330
A
100
AcDbEntity
  8
0
  6
PHANTOM
 62
     7
100
AcDbLine
 10
416.5668270247612
 20
-271.9835079210725
 30
0.0
 11
398.7534114100402
 21
-289.7969235357937
 31
0.0
  0
LINE
  5
B1
330
A
100
AcDbEntity
  8
0
  6
PHANTOM
 62
     7
100
AcDbLine
 10
418.6881473683211
 20
-266.3266536715799
 30
0.0
 11
420.4559143212875
 21
-268.094420624546
 31
0.0
  0
LINE
  5
B2
330
A
100
AcDbEntity
  8
0
  6
PHANTOM
 62
     7
100
AcDbLine
 10
402.8546307409221
 20
-293.8981428666756
 30
0.0
 11
418.4053046558463
 21
-278.347468951751
 31
0.0
  0
LINE
  5
B3
330
A
100
AcDbEntity
  8
0
  6
PHANTOM
 62
     7
100
AcDbLine
 10
371.029726602315
 20
651.0173423485009
 30
0.0
 11
371.8292747320397
 21
653.2140827806872
 31
0.0
  0
LINE
  5
B4
330
A
100
AcDbEntity
  8
0
  6
PHANTOM
 62
     7
100
AcDbLine
 10
374.1785062840047
 20
652.359032422373
 30
0.0
 11
371.8292747320397
 21
653.2140827806872
 31
0.0
  0
LINE
  5
B5
330
A
100
AcDbEntity
  8
0
  6
PHANTOM
 62
     7
100
AcDbLine
 10
371.8292747320397
 20
653.2140827806872
 30
0.0
 11
372.684325090354
 21
655.5633143326521
 31
0.0
  0
LINE
  5
B6
330
A
100
AcDbEntity
  8
0
  6
PHANTOM
 62
     7
100
AcDbLine
 10
366.1911190073245
 20
655.2662036406412
 30
0.0
 11
367.0461693656386
 21
657.6154351926061
 31
0.0
  0
LINE
  5
B7
330
A
100
AcDbEntity
  8
0
  6
PHANTOM
 62
     7
100
AcDbLine
 10
422.9307880554402
 20
-273.8219855521572
 30
0.0
 11
424.5571336521694
 21
-272.1956399554281
 31
0.0
  0
LINE
  5
B8
330
A
100
AcDbEntity
  8
0
  6
PHANTOM
 62
     7
100
AcDbLine
 10
426.3249006051357
 20
-273.9634069083944
 30
0.0
 11
424.5571336521694
 21
-272.1956399554281
 31
0.0
  0
LINE
  5
B9
330
A
100
AcDbEntity
  8
0
  6
PHANTOM
 62
     7
100
AcDbLine
 10
426.3249006051357
 20
-270.4278730024618
 30
0.0
 11
424.5571336521694
 21
-272.1956399554281
 31
0.0
  0
LINE
  5
BA
330
A
100
AcDbEntity
  8
0
  6
PHANTOM
 62
     7
100
AcDbLine
 10
422.223681274254
 20
-266.3266536715799
 30
0.0
 11
420.4559143212875
 21
-268.094420624546
 31
0.0
  0
LINE
  5
BB
330
A
100
AcDbEntity
  8
0
  6
PHANTOM
 62
     7
100
AcDbLine
 10
424.5571336521694
 20
-272.1956399554281
 30
0.0
 11
420.4559143212875
 21
-268.094420624546
 31
0.0
  0
LINE
  5
BC
330
A
100
AcDbEntity
  8
0
  6
PHANTOM
 62
     7
100
AcDbLine
 10
371.8292747320397
 20
653.2140827806872
 30
0.0
 11
366.1911190073245
 21
655.2662036406412
 31
0.0
  0
LINE
  5
BD
330
A
100
AcDbEntity
  8
0
  6
PHANTOM
 62
     7
100
AcDbLine
 10
474.8499999999998
 20
-268.8254752519337
 30
0.0
 11
474.8499999999998
 21
-383.8254752519337
 31
0.0
  0
LINE
  5
BE
330
A
100
AcDbEntity
  8
0
  6
PHANTOM
 62
     7
100
AcDbLine
 10
368.8499999999998
 20
-390.8254752519336
 30
0.0
 11
390.8499999999998
 21
-390.8254752519336
 31
0.0
  0
LINE
  5
BF
330
A
100
AcDbEntity
  8
0
  6
PHANTOM
 62
     7
100
AcDbLine
 10
387.2397010599772
 20
-364.8254752519337
 30
0.0
 11
387.2397010599772
 21
-357.3254752519337
 31
0.0
  0
LWPOLYLINE
  5
C0
330
A
100
AcDbEntity
  8
0
  6
PHANTOM
 62
     7
100
AcDbPolyline
 90
        8
 70
   128
 43
0.0
 10
390.8499999999998
 20
-374.8254752519337
 10
390.8366554318662
 20
-374.8033546738243
 10
390.4991188635017
 20
-374.2360286124557
 10
389.663386303204
 20
-372.7501672169672
 10
389.4352428704749
 20
-372.3177917246854
 10
388.3437521389954
 20
-369.964824487928
 10
387.5709919442807
 20
-367.571396119939
 10
387.2397010599773
 20
-364.8254752519337
  0
LWPOLYLINE
  5
CA
330
A
100
AcDbEntity
  8
0
  6
PHANTOM
 62
     7
100
AcDbPolyline
 90
        5
 70
   128
 43
0.0
 10
389.6170416058843
 20
-349.4874943544387
 10
389.8895211678892
 20
-348.9789418454403
 10
390.6348310163592
 20
-347.5850504495574
 10
390.8432917805959
 20
-347.1842812230006
 10
390.8499999999998
 20
-347.1712425879297
  0
LWPOLYLINE
  5
D1
330
A
100
AcDbEntity
  8
0
  6
PHANTOM
 62
     7
100
AcDbPolyline
 90
        5
 70
   128
 43
0.0
 10
387.2397010599772
 20
-357.3254752519337
 10
387.4528292035945
 20
-355.1316655564152
 10
388.2215763496648
 20
-352.497500891103
 10
389.382487329545
 20
-349.9352313190574
 10
389.6170416058843
 20
-349.4874943544387
  0
LINE
  5
D8
330
A
100
AcDbEntity
  8
0
  6
PHANTOM
 62
     7
100
AcDbLine
 10
465.3499999999998
 20
-372.3254752519337
 30
0.0
 11
465.3499999999998
 21
-364.8254752519337
 31
0.0
  0
LINE
  5
D9
330
A
100
AcDbEntity
  8
0
  6
PHANTOM
 62
     7
100
AcDbLine
 10
465.3499999999998
 20
-364.8254752519337
 30
0.0
 11
467.8499999999998
 21
-364.8254752519337
 31
0.0
  0
LINE
  5
DA
330
A
100
AcDbEntity
  8
0
  6
PHANTOM
 62
     7
100
AcDbLine
 10
465.3499999999998
 20
-333.8254752519336
 30
0.0
 11
465.3499999999998
 21
-326.3254752519336
 31
0.0
  0
LINE
  5
DB
330
A
100
AcDbEntity
  8
0
  6
PHANTOM
 62
     7
100
AcDbLine
 10
465.3499999999998
 20
-333.8254752519336
 30
0.0
 11
467.8499999999998
 21
-333.8254752519336
 31
0.0
  0
LINE
  5
DC
330
A
100
AcDbEntity
  8
0
  6
PHANTOM
 62
     7
100
AcDbLine
 10
465.3499999999998
 20
-364.8254752519337
 30
0.0
 11
465.3499999999998
 21
-333.8254752519336
 31
0.0
  0
LINE
  5
DD
330
A
100
AcDbEntity
  8
0
  6
PHANTOM
 62
     7
100
AcDbLine
 10
387.2397010599772
 20
-364.8254752519337
 30
0.0
 11
388.9191785736084
 21
-364.8254752519337
 31
0.0
  0
LWPOLYLINE
  5
DE
330
A
100
AcDbEntity
  8
0
  6
PHANTOM
 62
     7
100
AcDbPolyline
 90
        9
 70
   128
 43
0.0
 10
388.9191785736084
 20
-364.8254752519337
 10
389.1511370070588
 20
-366.3736666688929
 10
389.3257628407082
 20
-366.8849159029377
 10
390.2741503524034
 20
-368.6799871789295
 10
391.6137071592192
 20
-370.4447126064975
 10
392.3370746903752
 20
-371.2634461993421
 10
392.9193731506614
 20
-371.8833902723252
 10
393.3336225754722
 20
-372.3088848183516
 10
393.3499999999999
 20
-372.3254752519337
  0
LWPOLYLINE
  5
E9
330
A
100
AcDbEntity
  8
0
  6
PHANTOM
 62
     7
100
AcDbPolyline
 90
        9
 70
   128
 43
0.0
 10
389.6170416058843
 20
-349.4874943544387
 10
389.7509535590605
 20
-349.8135271153608
 10
389.9382402460805
 20
-350.131217117664
 10
390.1741092417353
 20
-350.4324350831827
 10
390.4525249620834
 20
-350.709473231966
 10
390.766363107272
 20
-350.9552425144443
 10
391.1075929632001
 20
-351.1634540110816
 10
391.4674828971523
 20
-351.3287798577296
 10
391.8368237890399
 20
-351.4469895788125
  0
LWPOLYLINE
  5
F4
330
A
100
AcDbEntity
  8
0
  6
PHANTOM
 62
     7
100
AcDbPolyline
 90
        5
 70
   128
 43
0.0
 10
391.8368237890399
 20
-351.4469895788125
 10
391.5489617226235
 20
-351.7827923022765
 10
390.1242073382249
 20
-353.7044944813107
 10
389.1807449316841
 20
-355.6801179802949
 10
388.9191785736084
 20
-357.3254752519337
  0
LINE
  5
FB
330
A
100
AcDbEntity
  8
0
  6
PHANTOM
 62
     7
100
AcDbLine
 10
387.2397010599772
 20
-357.3254752519337
 30
0.0
 11
388.9191785736084
 21
-357.3254752519337
 31
0.0
  0
LINE
  5
FC
330
A
100
AcDbEntity
  8
0
  6
PHANTOM
 62
     7
100
AcDbLine
 10
388.9191785736084
 20
-357.3254752519337
 30
0.0
 11
388.9191785736084
 21
-364.8254752519337
 31
0.0
  0
LINE
  5
FD
330
A
100
AcDbEntity
  8
0
  6
PHANTOM
 62
     7
100
AcDbLine
 10
391.8368237890399
 20
-357.3254752519337
 30
0.0
 11
388.9191785736084
 21
-357.3254752519337
 31
0.0
  0
LINE
  5
FE
330
A
100
AcDbEntity
  8
0
  6
PHANTOM
 62
     7
100
AcDbLine
 10
391.8368237890399
 20
-357.3254752519337
 30
0.0
 11
391.8368237890399
 21
-351.4469895788125
 31
0.0
  0
ARC
  5
FF
330
A
100
AcDbEntity
  8
0
  6
PHANTOM
 62
     7
100
AcDbCircle
 10
391.8368237890399
 20
-339.8254752519337
 30
0.0
 40
17.50000000000006
100
AcDbArc
 50
270.0000000000008
 51
292.7650091075123
  0
LINE
  5
100
330
A
100
AcDbEntity
  8
0
  6
PHANTOM
 62
     7
100
AcDbLine
 10
450.8957948944477
 20
-334.0202261572666
 30
0.0
 11
398.6084930046244
 21
-355.9622189146032
 31
0.0
  0
ARC
  5
101
330
A
100
AcDbEntity
  8
0
  6
PHANTOM
 62
     7
100
AcDbCircle
 10
451.8631762109598
 20
-336.3254752519337
 30
0.0
 40
2.500000000000056
100
AcDbArc
 50
90.0
 51
112.7650091075116
  0
LINE
  5
102
330
A
100
AcDbEntity
  8
0
  6
PHANTOM
 62
     7
100
AcDbLine
 10
465.3499999999998
 20
-333.8254752519336
 30
0.0
 11
451.8631762109598
 21
-333.8254752519336
 31
0.0
  0
LINE
  5
103
330
A
100
AcDbEntity
  8
0
  6
PHANTOM
 62
     7
100
AcDbLine
 10
388.9191785736084
 20
-364.8254752519337
 30
0.0
 11
465.3499999999998
 21
-364.8254752519337
 31
0.0
  0
LINE
  5
104
330
A
100
AcDbEntity
  8
0
  6
PHANTOM
 62
     7
100
AcDbLine
 10
398.6084930046244
 20
-355.9622189146032
 30
0.0
 11
395.7063490550882
 21
-349.046471630602
 31
0.0
  0
LWPOLYLINE
  5
105
330
A
100
AcDbEntity
  8
0
  6
PHANTOM
 62
     7
100
AcDbPolyline
 90
        5
 70
   128
 43
0.0
 10
393.8543920703198
 20
-349.6198316999283
 10
393.6579336170325
 20
-349.7959018737606
 10
393.4689712027331
 20
-349.9645497961246
 10
392.2473556593253
 20
-351.062658492625
 10
391.8368237890402
 20
-351.4469895788127
  0
LINE
  5
10C
330
A
100
AcDbEntity
  8
0
  6
PHANTOM
 62
     7
100
AcDbLine
 10
450.8957948944477
 20
-334.0202261572666
 30
0.0
 11
447.9936509449115
 21
-327.1044788732654
 31
0.0
  0
LINE
  5
10D
330
A
100
AcDbEntity
  8
0
  6
PHANTOM
 62
     7
100
AcDbLine
 10
451.8631762109598
 20
-333.8254752519336
 30
0.0
 11
451.8631762109598
 21
-326.3254752519336
 31
0.0
  0
LWPOLYLINE
  5
10E
330
A
100
AcDbEntity
  8
0
  6
Continuous
 62
     7
100
AcDbPolyline
 90
       12
 70
   128
 43
0.0
 10
-209.317841516798
 20
-859.0090324872853
 10
-209.5885436787155
 20
-858.9739457087913
 10
-211.3599346593964
 20
-859.058702819443
 10
-213.1049614484956
 20
-859.4603964031341
 10
-214.7688391660549
 20
-860.1768706151498
 10
-216.3000314700572
 20
-861.2010938862766
 10
-217.5079041218923
 20
-862.3622035567624
 10
-218.4982234246893
 20
-863.6977773939669
 10
-219.2353025849749
 20
-865.1346553952837
 10
-219.6309479006977
 20
-866.2804090310231
 10
-219.8625193846006
 20
-867.3238994883753
 10
-219.998190811921
 20
-868.9655516470905
  0
LWPOLYLINE
  5
11C
330
A
100
AcDbEntity
  8
0
  6
Continuous
 62
     7
100
AcDbPolyline
 90
       12
 70
   128
 43
0.0
 10
-219.998190811921
 20
-868.9655516470905
 10
-219.8297497611769
 20
-870.7932410701889
 10
-219.6605794953412
 20
-871.5420308204034
 10
-219.2465918607183
 20
-872.7691128784375
 10
-218.6297639032774
 20
-874.0149026913902
 10
-217.7647011257935
 20
-875.2648625256322
 10
-216.6553916922131
 20
-876.4275672219495
 10
-215.323176419468
 20
-877.4298607316772
 10
-213.8054518415615
 20
-878.2124302259505
 10
-212.1493891783812
 20
-878.7314282379623
 10
-210.4078379451211
 20
-878.95715758539
 10
-209.3211963693817
 20
-878.9051642077113
  0
LINE
  5
12A
330
A
100
AcDbEntity
  8
0
  6
Continuous
 62
     7
100
AcDbLine
 10
-209.3291489727013
 20
-878.9431462644383
 30
0.0
 11
-140.4773204404827
 21
-874.3496067287855
 31
0.0
  0
LINE
  5
12B
330
A
100
AcDbEntity
  8
0
  6
Continuous
 62
     7
100
AcDbLine
 10
-140.4718292988549
 20
-863.5818629140699
 30
0.0
 11
-209.3294252830566
 21
-858.9879385953372
 31
0.0
  0
ARC
  5
12C
330
A
100
AcDbEntity
  8
0
  6
Continuous
 62
     7
100
AcDbCircle
 10
371.8292747320397
 20
-866.9655516470903
 30
0.0
 40
2.5
100
AcDbArc
 50
0.0
 51
89.99999999999479
  0
ARC
  5
12D
330
A
100
AcDbEntity
  8
0
  6
Continuous
 62
     7
100
AcDbCircle
 10
371.8292747320397
 20
-870.9655516470903
 30
0.0
 40
2.5
100
AcDbArc
 50
270.000000000006
 51
0.0
  0
LINE
  5
12E
330
A
100
AcDbEntity
  8
0
  6
Continuous
 62
     7
100
AcDbLine
 10
374.3292747320397
 20
-870.9655516470903
 30
0.0
 11
374.3292747320397
 21
-866.9655516470903
 31
0.0
  0
LINE
  5
12F
330
A
100
AcDbEntity
  8
0
  6
Continuous
 62
     7
100
AcDbLine
 10
360.7723483938523
 20
-868.2155516470903
 30
0.0
 11
-123.1856760200016
 21
-868.2155516470901
 31
0.0
  0
LINE
  5
130
330
A
100
AcDbEntity
  8
0
  6
Continuous
 62
     7
100
AcDbLine
 10
-123.1785455738425
 20
-869.7155516470902
 30
0.0
 11
360.7723483938523
 21
-869.7155516470903
 31
0.0
  0
LINE
  5
131
330
A
100
AcDbEntity
  8
0
  6
Continuous
 62
     7
100
AcDbLine
 10
328.0280789151074
 20
-883.9655516470902
 30
0.0
 11
328.0280789151074
 21
-888.9655516470902
 31
0.0
  0
LINE
  5
132
330
A
100
AcDbEntity
  8
0
  6
Continuous
 62
     7
100
AcDbLine
 10
372.0280789151075
 20
-888.9655516470902
 30
0.0
 11
372.0280789151075
 21
-883.9655516470902
 31
0.0
  0
LINE
  5
133
330
A
100
AcDbEntity
  8
0
  6
Continuous
 62
     7
100
AcDbLine
 10
-151.9719210848926
 20
-883.9655516470902
 30
0.0
 11
-151.9719210848926
 21
-888.9655516470902
 31
0.0
  0
LINE
  5
134
330
A
100
AcDbEntity
  8
0
  6
Continuous
 62
     7
100
AcDbLine
 10
-107.9719210848926
 20
-888.9655516470902
 30
0.0
 11
-107.9719210848926
 21
-883.9655516470902
 31
0.0
  0
LINE
  5
135
330
A
100
AcDbEntity
  8
0
  6
Continuous
 62
     7
100
AcDbLine
 10
-142.4719210848925
 20
-874.482679112094
 30
0.0
 11
-142.4719210848925
 21
-878.9655516470903
 31
0.0
  0
LINE
  5
136
330
A
100
AcDbEntity
  8
0
  6
Continuous
 62
     7
100
AcDbLine
 10
-142.4719210848925
 20
-858.9655516470902
 30
0.0
 11
-142.4719210848925
 21
-863.4484241820862
 31
0.0
  0
LINE
  5
137
330
A
100
AcDbEntity
  8
0
  6
Continuous
 62
     7
100
AcDbLine
 10
-117.4719210848926
 20
-863.4655516470902
 30
0.0
 11
-117.4719210848926
 21
-858.9655516470902
 31
0.0
  0
LINE
  5
138
330
A
100
AcDbEntity
  8
0
  6
Continuous
 62
     7
100
AcDbLine
 10
-117.4719210848926
 20
-878.9655516470903
 30
0.0
 11
-117.4719210848926
 21
-874.4655516470901
 31
0.0
  0
LINE
  5
139
330
A
100
AcDbEntity
  8
0
  6
Continuous
 62
     7
100
AcDbLine
 10
340.0280789151072
 20
-874.4655516470901
 30
0.0
 11
340.0280789151072
 21
-878.9655516470903
 31
0.0
  0
LINE
  5
13A
330
A
100
AcDbEntity
  8
0
  6
Continuous
 62
     7
100
AcDbLine
 10
340.0280789151072
 20
-858.9655516470902
 30
0.0
 11
340.0280789151072
 21
-863.4655516470902
 31
0.0
  0
LINE
  5
13B
330
A
100
AcDbEntity
  8
0
  6
Continuous
 62
     7
100
AcDbLine
 10
360.0280789151075
 20
-878.9655516470903
 30
0.0
 11
360.0280789151075
 21
-873.4655516470903
 31
0.0
  0
LINE
  5
13C
330
A
100
AcDbEntity
  8
0
  6
Continuous
 62
     7
100
AcDbLine
 10
360.0280789151075
 20
-864.4655516470903
 30
0.0
 11
360.0280789151075
 21
-858.9655516470902
 31
0.0
  0
LINE
  5
13D
330
A
100
AcDbEntity
  8
0
  6
Continuous
 62
     7
100
AcDbLine
 10
305.0280789151074
 20
-861.9655516470903
 30
0.0
 11
-84.97192108489269
 21
-861.9655516470903
 31
0.0
  0
LINE
  5
13E
330
A
100
AcDbEntity
  8
0
  6
Continuous
 62
     7
100
AcDbLine
 10
-84.97192108489269
 20
-875.9655516470902
 30
0.0
 11
305.0280789151074
 21
-875.9655516470902
 31
0.0
  0
LINE
  5
13F
330
A
100
AcDbEntity
  8
0
  6
Continuous
 62
     7
100
AcDbLine
 10
-84.97192108489269
 20
-863.4655516470902
 30
0.0
 11
-117.4719210848926
 21
-863.4655516470902
 31
0.0
  0
LINE
  5
140
330
A
100
AcDbEntity
  8
0
  6
Continuous
 62
     7
100
AcDbLine
 10
-117.4719210848926
 20
-874.4655516470901
 30
0.0
 11
-84.97192108489269
 21
-874.4655516470901
 31
0.0
  0
LINE
  5
141
330
A
100
AcDbEntity
  8
0
  6
Continuous
 62
     7
100
AcDbLine
 10
340.0280789151072
 20
-863.4655516470902
 30
0.0
 11
305.0280789151074
 21
-863.4655516470902
 31
0.0
  0
LINE
  5
142
330
A
100
AcDbEntity
  8
0
  6
Continuous
 62
     7
100
AcDbLine
 10
305.0280789151074
 20
-874.4655516470901
 30
0.0
 11
340.0280789151072
 21
-874.4655516470901
 31
0.0
  0
LINE
  5
143
330
A
100
AcDbEntity
  8
0
  6
Continuous
 62
     7
100
AcDbLine
 10
345.0280789151075
 20
-878.9655516470903
 30
0.0
 11
345.0280789151075
 21
-883.9655516470902
 31
0.0
  0
LINE
  5
144
330
A
100
AcDbEntity
  8
0
  6
Continuous
 62
     7
100
AcDbLine
 10
355.0280789151075
 20
-883.9655516470902
 30
0.0
 11
355.0280789151075
 21
-878.9655516470903
 31
0.0
  0
LINE
  5
145
330
A
100
AcDbEntity
  8
0
  6
Continuous
 62
     7
100
AcDbLine
 10
-134.9719210848925
 20
-878.9655516470903
 30
0.0
 11
-134.9719210848925
 21
-883.9655516470902
 31
0.0
  0
LINE
  5
146
330
A
100
AcDbEntity
  8
0
  6
Continuous
 62
     7
100
AcDbLine
 10
-124.9719210848927
 20
-883.9655516470902
 30
0.0
 11
-124.9719210848927
 21
-878.9655516470903
 31
0.0
  0
LINE
  5
147
330
A
100
AcDbEntity
  8
0
  6
Continuous
 62
     7
100
AcDbLine
 10
360.0280789151075
 20
-874.4655516470901
 30
0.0
 11
382.4544857863003
 21
-874.4655516470899
 31
0.0
  0
LINE
  5
148
330
A
100
AcDbEntity
  8
0
  6
Continuous
 62
     7
100
AcDbLine
 10
382.4544857863003
 20
-863.46555164709
 30
0.0
 11
360.0280789151075
 21
-863.4655516470902
 31
0.0
  0
LINE
  5
149
330
A
100
AcDbEntity
  8
0
  6
Continuous
 62
     7
100
AcDbLine
 10
397.8197064181753
 20
-874.4655516470899
 30
0.0
 11
397.8197064181753
 21
-863.46555164709
 31
0.0
  0
LINE
  5
14A
330
A
100
AcDbEntity
  8
0
  6
Continuous
 62
     7
100
AcDbLine
 10
382.4544857863003
 20
-874.4655516470899
 30
0.0
 11
383.2322681538893
 21
-874.4655516470899
 31
0.0
  0
LINE
  5
14B
330
A
100
AcDbEntity
  8
0
  6
Continuous
 62
     7
100
AcDbLine
 10
383.1491308492219
 20
-863.46555164709
 30
0.0
 11
382.4544857863003
 21
-863.46555164709
 31
0.0
  0
LINE
  5
14C
330
A
100
AcDbEntity
  8
0
  6
Continuous
 62
     7
100
AcDbLine
 10
418.6103483163563
 20
-868.2155516470871
 30
0.0
 11
397.8197064181753
 21
-868.2155516470897
 31
0.0
  0
LINE
  5
14D
330
A
100
AcDbEntity
  8
0
  6
Continuous
 62
     7
100
AcDbLine
 10
397.8197064181753
 20
-869.7155516470898
 30
0.0
 11
418.6103483163566
 21
-869.7155516470871
 31
0.0
  0
ARC
  5
14E
330
A
100
AcDbEntity
  8
0
  6
Continuous
 62
     7
100
AcDbCircle
 10
424.5571336521694
 20
-866.965551647087
 30
0.0
 40
2.499999999999943
100
AcDbArc
 50
0.0
 51
90.0
  0
LINE
  5
14F
330
A
100
AcDbEntity
  8
0
  6
Continuous
 62
     7
100
AcDbLine
 10
427.0571336521693
 20
-870.9655516470871
 30
0.0
 11
427.0571336521693
 21
-866.965551647087
 31
0.0
  0
ARC
  5
150
330
A
100
AcDbEntity
  8
0
  6
Continuous
 62
     7
100
AcDbCircle
 10
424.5571336521694
 20
-870.9655516470871
 30
0.0
 40
2.500000000000113
100
AcDbArc
 50
270.0000000000008
 51
0.0
  0
LINE
  5
151
330
A
100
AcDbEntity
  8
0
  6
Continuous
 62
     7
100
AcDbLine
 10
407.3834179744348
 20
-888.965551647087
 30
0.0
 11
407.3834179744348
 21
-883.965551647087
 31
0.0
  0
LINE
  5
152
330
A
100
AcDbEntity
  8
0
  6
Continuous
 62
     7
100
AcDbLine
 10
370.3834179744348
 20
-858.965551647087
 30
0.0
 11
370.3834179744348
 21
-863.4655516470902
 31
0.0
  0
LINE
  5
153
330
A
100
AcDbEntity
  8
0
  6
Continuous
 62
     7
100
AcDbLine
 10
370.3834179744348
 20
-874.4655516470901
 30
0.0
 11
370.3834179744348
 21
-878.9655516470869
 31
0.0
  0
LINE
  5
154
330
A
100
AcDbEntity
  8
0
  6
Continuous
 62
     7
100
AcDbLine
 10
400.3834179744349
 20
-878.9655516470869
 30
0.0
 11
400.3834179744349
 21
-873.4655516470871
 31
0.0
  0
LINE
  5
155
330
A
100
AcDbEntity
  8
0
  6
Continuous
 62
     7
100
AcDbLine
 10
400.3834179744349
 20
-864.4655516470871
 30
0.0
 11
400.3834179744349
 21
-858.965551647087
 31
0.0
  0
LINE
  5
156
330
A
100
AcDbEntity
  8
0
  6
Continuous
 62
     7
100
AcDbLine
 10
380.3834179744348
 20
-878.9655516470869
 30
0.0
 11
380.3834179744348
 21
-883.965551647087
 31
0.0
  0
LINE
  5
157
330
A
100
AcDbEntity
  8
0
  6
Continuous
 62
     7
100
AcDbLine
 10
390.3834179744348
 20
-883.965551647087
 30
0.0
 11
390.3834179744348
 21
-878.9655516470869
 31
0.0
  0
ARC
  5
158
330
A
100
AcDbEntity
  8
0
  6
Continuous
 62
     7
100
AcDbCircle
 10
-136.1500000000001
 20
-868.9655516470892
 30
0.0
 40
60.0
100
AcDbArc
 50
270.0000000000008
 51
299.045026126216
  0
ARC
  5
159
330
A
100
AcDbEntity
  8
0
  6
Continuous
 62
     7
100
AcDbCircle
 10
-136.1500000000001
 20
-868.9655516470892
 30
0.0
 40
59.99999999999999
100
AcDbArc
 50
300.9549738737858
 51
353.30023482224
  0
ARC
  5
15A
330
A
100
AcDbEntity
  8
0
  6
Continuous
 62
     7
100
AcDbCircle
 10
-136.1500000000001
 20
-868.9655516470892
 30
0.0
 40
59.99999999999996
100
AcDbArc
 50
6.699765177759334
 51
59.04502612621546
  0
ARC
  5
15B
330
A
100
AcDbEntity
  8
0
  6
Continuous
 62
     7
100
AcDbCircle
 10
-136.1500000000001
 20
-868.9655516470892
 30
0.0
 40
59.99999999999995
100
AcDbArc
 50
60.95497387378529
 51
171.3223550521297
  0
ARC
  5
15C
330
A
100
AcDbEntity
  8
0
  6
Continuous
 62
     7
100
AcDbCircle
 10
-136.1500000000001
 20
-868.9655516470892
 30
0.0
 40
60.0
100
AcDbArc
 50
188.6776449478733
 51
270.0000000000008
  0
LINE
  5
15D
330
A
100
AcDbEntity
  8
0
  6
Continuous
 62
     7
100
AcDbLine
 10
-84.52256516986953
 20
-777.5442114568503
 30
0.0
 11
-120.0233799358184
 21
-839.0334263415665
 31
0.0
  0
LINE
  5
15E
330
A
100
AcDbEntity
  8
0
  6
Continuous
 62
     7
100
AcDbLine
 10
-118.2910079263951
 20
-840.0328700036352
 30
0.0
 11
-82.79051436230064
 21
-778.5442114568503
 31
0.0
  0
LINE
  5
15F
330
A
100
AcDbEntity
  8
0
  6
Continuous
 62
     7
100
AcDbLine
 10
-241.1369204678321
 20
-869.9655516470897
 30
0.0
 11
-219.9060301589046
 21
-869.9655516470896
 31
0.0
  0
LINE
  5
160
330
A
100
AcDbEntity
  8
0
  6
Continuous
 62
     7
100
AcDbLine
 10
-219.9155475877762
 20
-867.9655516470896
 30
0.0
 11
-241.1369204678321
 21
-867.9655516470898
 31
0.0
  0
LINE
  5
161
330
A
100
AcDbEntity
  8
0
  6
Continuous
 62
     7
100
AcDbLine
 10
-82.79051436229931
 20
-959.3868918373285
 30
0.0
 11
-118.2913291282491
 21
-897.8976769526124
 31
0.0
  0
LINE
  5
162
330
A
100
AcDbEntity
  8
0
  6
Continuous
 62
     7
100
AcDbLine
 10
-120.0230587339636
 20
-898.8982332905438
 30
0.0
 11
-84.52256516986826
 21
-960.3868918373285
 31
0.0
  0
LINE
  5
163
330
A
100
AcDbEntity
  8
0
  6
Continuous
 62
     7
100
AcDbLine
 10
483.8499999999994
 20
-811.465551647087
 30
0.0
 11
474.8499999999994
 21
-811.465551647087
 31
0.0
  0
LINE
  5
164
330
A
100
AcDbEntity
  8
0
  6
Continuous
 62
     7
100
AcDbLine
 10
474.8500000000001
 20
-926.4655516470869
 30
0.0
 11
483.8500000000002
 21
-926.4655516470869
 31
0.0
  0
ARC
  5
165
330
A
100
AcDbEntity
  8
0
  6
Continuous
 62
     7
100
AcDbCircle
 10
474.8499999999994
 20
-818.4655516470868
 30
0.0
 40
7.0
100
AcDbArc
 50
90.0
 51
180.0000000000004
  0
ARC
  5
166
330
A
100
AcDbEntity
  8
0
  6
Continuous
 62
     7
100
AcDbCircle
 10
474.8500000000001
 20
-919.465551647087
 30
0.0
 40
7.0
100
AcDbArc
 50
180.0000000000004
 51
270.0000000000008
  0
LINE
  5
167
330
A
100
AcDbEntity
  8
0
  6
Continuous
 62
     7
100
AcDbLine
 10
485.8499999999994
 20
-812.9655516470869
 30
0.0
 11
483.8499999999994
 21
-812.9655516470869
 31
0.0
  0
LINE
  5
168
330
A
100
AcDbEntity
  8
0
  6
Continuous
 62
     7
100
AcDbLine
 10
483.8500000000002
 20
-924.965551647087
 30
0.0
 11
485.8500000000002
 21
-924.965551647087
 31
0.0
  0
LWPOLYLINE
  5
169
330
A
100
AcDbEntity
  8
0
  6
Continuous
 62
     7
100
AcDbPolyline
 90
       12
 70
   128
 43
0.0
 10
-140.4749779277825
 20
-863.6482585367948
 10
-140.0480720487156
 20
-863.6599692566992
 10
-138.8921205304343
 20
-864.2852599179015
 10
-137.8998462127012
 20
-865.3648955197148
 10
-137.163582867174
 20
-866.8113365140122
 10
-136.8084057362082
 20
-868.541824036566
 10
-136.7945465827355
 20
-868.9655516470903
 10
-137.0475409491835
 20
-870.7581174242955
 10
-137.7564088043565
 20
-872.3488938547957
 10
-138.7632709873132
 20
-873.5383266283847
 10
-139.8252905992716
 20
-874.1965296260842
 10
-140.4828876010046
 20
-874.3005485102605
  0
LINE
  5
177
330
A
100
AcDbEntity
  8
0
  6
Continuous
 62
     7
100
AcDbLine
 10
371.8292747320397
 20
-873.4655516470903
 30
0.0
 11
366.1911190073245
 21
-873.4655516470903
 31
0.0
  0
LINE
  5
178
330
A
100
AcDbEntity
  8
0
  6
Continuous
 62
     7
100
AcDbLine
 10
371.8292747320398
 20
-864.4655516470903
 30
0.0
 11
366.1911190073245
 21
-864.4655516470903
 31
0.0
  0
LINE
  5
179
330
A
100
AcDbEntity
  8
0
  6
Continuous
 62
     7
100
AcDbLine
 10
350.4716652766758
 20
-873.4655516470903
 30
0.0
 11
366.1911190073245
 21
-873.4655516470903
 31
0.0
  0
LWPOLYLINE
  5
17A
330
A
100
AcDbEntity
  8
0
  6
Continuous
 62
     7
100
AcDbPolyline
 90
        6
 70
   128
 43
0.0
 10
350.4716652766758
 20
-873.4655516470903
 10
349.5465467889357
 20
-873.3097604785704
 10
348.7223449830036
 20
-872.8714300134678
 10
348.0664631385328
 20
-872.1584017055773
 10
347.7722196603754
 20
-871.4538254295804
 10
347.7162008488531
 20
-870.9655516470903
  0
LINE
  5
182
330
A
100
AcDbEntity
  8
0
  6
Continuous
 62
     7
100
AcDbLine
 10
347.7162008488531
 20
-870.9655516470903
 30
0.0
 11
347.7162008488531
 21
-869.7155516470903
 31
0.0
  0
LINE
  5
183
330
A
100
AcDbEntity
  8
0
  6
Continuous
 62
     7
100
AcDbLine
 10
347.7162008488531
 20
-868.2155516470903
 30
0.0
 11
347.7162008488531
 21
-866.9655516470902
 31
0.0
  0
LWPOLYLINE
  5
184
330
A
100
AcDbEntity
  8
0
  6
Continuous
 62
     7
100
AcDbPolyline
 90
       10
 70
   128
 43
0.0
 10
361.0534660091581
 20
-868.9655516470903
 10
361.0491952009137
 20
-868.8353155138402
 10
361.0365125425281
 20
-868.7090365395961
 10
361.0158033901584
 20
-868.5905516470903
 10
360.9876969809201
 20
-868.4834609398254
 10
360.9530473138355
 20
-868.391018314751
 10
360.9129072015051
 20
-868.3160325942521
 10
360.8684962809305
 20
-868.2607821815009
 10
360.8211639554602
 20
-868.2269458323311
 10
360.7723483938522
 20
-868.2155516470903
  0
LWPOLYLINE
  5
190
330
A
100
AcDbEntity
  8
0
  6
Continuous
 62
     7
100
AcDbPolyline
 90
       10
 70
   128
 43
0.0
 10
360.7723483938523
 20
-869.7155516470903
 10
360.8211639554602
 20
-869.7041574618495
 10
360.8684962809305
 20
-869.6703211126799
 10
360.9129072015051
 20
-869.6150706999288
 10
360.9530473138355
 20
-869.5400849794296
 10
360.9876969809201
 20
-869.4476423543552
 10
361.0158033901584
 20
-869.3405516470903
 10
361.0365125425281
 20
-869.2220667545846
 10
361.0491952009137
 20
-869.0957877803406
 10
361.0534660091581
 20
-868.9655516470903
  0
LWPOLYLINE
  5
19C
330
A
100
AcDbEntity
  8
0
  6
Continuous
 62
     7
100
AcDbPolyline
 90
        6
 70
   128
 43
0.0
 10
347.7162008488531
 20
-866.9655516470902
 10
347.8463371094783
 20
-866.2255680376336
 10
348.2055436609841
 20
-865.5719491029312
 10
348.7867226425563
 20
-865.0121827839932
 10
349.616012268142
 20
-864.5985367103691
 10
350.4716652766759
 20
-864.4655516470903
  0
LINE
  5
1A4
330
A
100
AcDbEntity
  8
0
  6
Continuous
 62
     7
100
AcDbLine
 10
366.1911190073245
 20
-864.4655516470903
 30
0.0
 11
350.4716652766758
 21
-864.4655516470903
 31
0.0
  0
LINE
  5
1A5
330
A
100
AcDbEntity
  8
0
  6
Continuous
 62
     7
100
AcDbLine
 10
366.7537500380225
 20
-864.4655516470903
 30
0.0
 11
365.9933944781591
 21
-864.4655516470903
 31
0.0
  0
LINE
  5
1A6
330
A
100
AcDbEntity
  8
0
  6
Continuous
 62
     7
100
AcDbLine
 10
366.7537500380225
 20
-873.4655516470903
 30
0.0
 11
365.9933944781591
 21
-873.4655516470903
 31
0.0
  0
LWPOLYLINE
  5
1A7
330
A
100
AcDbEntity
  8
0
  6
Continuous
 62
     7
100
AcDbPolyline
 90
        6
 70
   128
 43
0.0
 10
-124.3420211072108
 20
-868.9655516470903
 10
-124.3202202104696
 20
-869.1023035387081
 10
-124.244268943181
 20
-869.2518452535255
 10
-124.0670676979331
 20
-869.4317827827914
 10
-123.6865452601272
 20
-869.6299619138306
 10
-123.1783415136042
 20
-869.7017768020891
  0
LWPOLYLINE
  5
1AF
330
A
100
AcDbEntity
  8
0
  6
Continuous
 62
     7
100
AcDbPolyline
 90
        7
 70
   128
 43
0.0
 10
-123.185839355193
 20
-868.2319237173016
 10
-123.2989368852672
 20
-868.2204432673211
 10
-123.8238446872761
 20
-868.3555698559247
 10
-124.0758836472344
 20
-868.5061371601669
 10
-124.2490511903708
 20
-868.6861428919959
 10
-124.3178818384915
 20
-868.821701522385
 10
-124.3420211072108
 20
-868.9655516470903
  0
LINE
  5
1B8
330
A
100
AcDbEntity
  8
0
  6
Continuous
 62
     7
100
AcDbLine
 10
368.5165396355728
 20
-864.4655516470903
 30
0.0
 11
366.7537500380225
 21
-864.4655516470903
 31
0.0
  0
LINE
  5
1B9
330
A
100
AcDbEntity
  8
0
  6
Continuous
 62
     7
100
AcDbLine
 10
368.5165396355728
 20
-873.4655516470903
 30
0.0
 11
366.7537500380225
 21
-873.4655516470903
 31
0.0
  0
LINE
  5
1BA
330
A
100
AcDbEntity
  8
0
  6
Continuous
 62
     7
100
AcDbLine
 10
372.0280789151075
 20
-883.9655516470902
 30
0.0
 11
328.0280789151074
 21
-883.9655516470902
 31
0.0
  0
LINE
  5
1BB
330
A
100
AcDbEntity
  8
0
  6
Continuous
 62
     7
100
AcDbLine
 10
328.0280789151074
 20
-888.9655516470902
 30
0.0
 11
372.0280789151075
 21
-888.9655516470902
 31
0.0
  0
LINE
  5
1BC
330
A
100
AcDbEntity
  8
0
  6
Continuous
 62
     7
100
AcDbLine
 10
-151.9719210848926
 20
-888.9655516470902
 30
0.0
 11
-107.9719210848926
 21
-888.9655516470902
 31
0.0
  0
LINE
  5
1BD
330
A
100
AcDbEntity
  8
0
  6
Continuous
 62
     7
100
AcDbLine
 10
-107.9719210848926
 20
-883.9655516470902
 30
0.0
 11
-151.9719210848926
 21
-883.9655516470902
 31
0.0
  0
LINE
  5
1BE
330
A
100
AcDbEntity
  8
0
  6
Continuous
 62
     7
100
AcDbLine
 10
-117.4719210848926
 20
-858.9655516470902
 30
0.0
 11
-142.4719210848925
 21
-858.9655516470902
 31
0.0
  0
LWPOLYLINE
  5
1BF
330
A
100
AcDbEntity
  8
0
  6
Continuous
 62
     7
100
AcDbPolyline
 90
        6
 70
   128
 43
0.0
 10
-117.4719210848926
 20
-874.4655516470901
 10
-117.5918581619745
 20
-874.1872331746646
 10
-117.9039248186279
 20
-873.3968645318434
 10
-118.3136866829552
 20
-872.1142703341941
 10
-118.6578593053633
 20
-870.3825886794241
 10
-118.6876191354551
 20
-869.7155516470902
  0
LWPOLYLINE
  5
1C7
330
A
100
AcDbEntity
  8
0
  6
Continuous
 62
     7
100
AcDbPolyline
 90
        6
 70
   128
 43
0.0
 10
-118.7027729228182
 20
-868.2155516470901
 10
-118.5635293729503
 20
-866.9280528242399
 10
-118.2180286878922
 20
-865.4792948464134
 10
-117.8059383384988
 20
-864.2739489160872
 10
-117.5196863312844
 20
-863.5749904185198
 10
-117.4719210848926
 20
-863.4655516470902
  0
LINE
  5
1CF
330
A
100
AcDbEntity
  8
0
  6
Continuous
 62
     7
100
AcDbLine
 10
-142.4719210848925
 20
-878.9655516470903
 30
0.0
 11
-117.4719210848926
 21
-878.9655516470903
 31
0.0
  0
LWPOLYLINE
  5
1D0
330
A
100
AcDbEntity
  8
0
  6
Continuous
 62
     7
100
AcDbPolyline
 90
        6
 70
   128
 43
0.0
 10
340.0280789151072
 20
-863.4655516470902
 10
340.1702521067416
 20
-863.7284962355316
 10
340.5427987350512
 20
-864.4688261613435
 10
341.0564409093644
 20
-865.6883137085067
 10
341.5355246761902
 20
-867.424942189457
 10
341.5932669892665
 20
-868.2155516470903
  0
LWPOLYLINE
  5
1D8
330
A
100
AcDbEntity
  8
0
  6
Continuous
 62
     7
100
AcDbPolyline
 90
        6
 70
   128
 43
0.0
 10
341.6144441135553
 20
-869.7155516470903
 10
341.4736744893551
 20
-870.8169929989376
 10
341.0701926443536
 20
-872.2049538202938
 10
340.5405517896033
 20
-873.4670148488916
 10
340.1243883778295
 20
-874.2884349125928
 10
340.0280789151072
 20
-874.4655516470901
  0
LINE
  5
1E0
330
A
100
AcDbEntity
  8
0
  6
Continuous
 62
     7
100
AcDbLine
 10
340.0280789151072
 20
-878.9655516470903
 30
0.0
 11
360.0280789151075
 21
-878.9655516470903
 31
0.0
  0
LINE
  5
1E1
330
A
100
AcDbEntity
  8
0
  6
Continuous
 62
     7
100
AcDbLine
 10
360.0280789151075
 20
-858.9655516470902
 30
0.0
 11
340.0280789151072
 21
-858.9655516470902
 31
0.0
  0
LINE
  5
1E2
330
A
100
AcDbEntity
  8
0
  6
Continuous
 62
     7
100
AcDbLine
 10
-84.97192108489269
 20
-861.9655516470903
 30
0.0
 11
-84.97192108489269
 21
-868.2155516470901
 31
0.0
  0
LINE
  5
1E3
330
A
100
AcDbEntity
  8
0
  6
Continuous
 62
     7
100
AcDbLine
 10
-84.97192108489269
 20
-869.7155516470902
 30
0.0
 11
-84.97192108489269
 21
-875.9655516470902
 31
0.0
  0
LINE
  5
1E4
330
A
100
AcDbEntity
  8
0
  6
Continuous
 62
     7
100
AcDbLine
 10
305.0280789151074
 20
-875.9655516470902
 30
0.0
 11
305.0280789151074
 21
-869.7155516470903
 31
0.0
  0
LINE
  5
1E5
330
A
100
AcDbEntity
  8
0
  6
Continuous
 62
     7
100
AcDbLine
 10
305.0280789151074
 20
-868.2155516470903
 30
0.0
 11
305.0280789151074
 21
-861.9655516470903
 31
0.0
  0
LWPOLYLINE
  5
1E6
330
A
100
AcDbEntity
  8
0
  6
Continuous
 62
     7
100
AcDbPolyline
 90
       13
 70
   128
 43
0.0
 10
383.1402267293768
 20
-874.4655516470899
 10
383.2154468971572
 20
-874.461635537134
 10
383.8728302927557
 20
-874.2130011848638
 10
384.7252335146762
 20
-873.5306699886773
 10
385.5607035192576
 20
-872.4865207110218
 10
386.2774520305615
 20
-871.0186878634663
 10
386.6213007581626
 20
-869.2171588084802
 10
386.427697506594
 20
-867.4108831296711
 10
385.7710667526264
 20
-865.7920765422359
 10
384.8035860819696
 20
-864.4808566498964
 10
383.8616805578155
 20
-863.7115521631185
 10
383.2155983061623
 20
-863.4694829911131
 10
383.1402267293768
 20
-863.46555164709
  0
LINE
  5
1F5
330
A
100
AcDbEntity
  8
0
  6
Continuous
 62
     7
100
AcDbLine
 10
397.8197064181753
 20
-863.46555164709
 30
0.0
 11
383.1402267293768
 21
-863.46555164709
 31
0.0
  0
LINE
  5
1F6
330
A
100
AcDbEntity
  8
0
  6
Continuous
 62
     7
100
AcDbLine
 10
397.8197064181753
 20
-874.4655516470899
 30
0.0
 11
383.1402267293768
 21
-874.4655516470899
 31
0.0
  0
LWPOLYLINE
  5
1F7
330
A
100
AcDbEntity
  8
0
  6
Continuous
 62
     7
100
AcDbPolyline
 90
       12
 70
   128
 43
0.0
 10
418.6881473683211
 20
-869.7112789170358
 10
418.7000457758363
 20
-869.7098669628669
 10
418.9407050741933
 20
-869.6347827504862
 10
419.1293188280983
 20
-869.49545467145
 10
419.2748600669335
 20
-869.2849277189766
 10
419.3401042792558
 20
-869.0540323891362
 10
419.3318443082132
 20
-868.8233206860083
 10
419.2572182500634
 20
-868.6106194693417
 10
419.1278153787065
 20
-868.4341213809263
 10
418.9581554933359
 20
-868.305633540236
 10
418.7589014227506
 20
-868.2312340459809
 10
418.6881473683211
 20
-868.2198243771384
  0
ARC
  5
205
330
A
100
AcDbEntity
  8
0
  6
Continuous
 62
     7
100
AcDbCircle
 10
385.3834179744351
 20
-868.9655516470899
 30
0.0
 40
7.000000000000011
100
AcDbArc
 50
51.78678929826169
 51
105.8266201318716
  0
ARC
  5
206
330
A
100
AcDbEntity
  8
0
  6
Continuous
 62
     7
100
AcDbCircle
 10
385.3834179744351
 20
-868.9655516470899
 30
0.0
 40
7.000000000000011
100
AcDbArc
 50
254.1733798681293
 51
308.2132107017392
  0
LINE
  5
207
330
A
100
AcDbEntity
  8
0
  6
Continuous
 62
     7
100
AcDbLine
 10
379.1189275889088
 20
-863.46555164709
 30
0.0
 11
383.4743270653443
 21
-862.2309119461984
 31
0.0
  0
LINE
  5
208
330
A
100
AcDbEntity
  8
0
  6
Continuous
 62
     7
100
AcDbLine
 10
383.4743270653443
 20
-875.7001913479816
 30
0.0
 11
379.1189275889091
 21
-874.4655516470899
 31
0.0
  0
ARC
  5
209
330
A
100
AcDbEntity
  8
0
  6
Continuous
 62
     7
100
AcDbCircle
 10
-136.4719210848928
 20
-868.9655516470899
 30
0.0
 40
14.99999999999992
100
AcDbArc
 50
90.0
 51
156.2839606673695
  0
ARC
  5
20A
330
A
100
AcDbEntity
  8
0
  6
Continuous
 62
     7
100
AcDbCircle
 10
-136.4719210848928
 20
-868.9655516470899
 30
0.0
 40
14.9999999999999
100
AcDbArc
 50
203.7160393326342
 51
275.7391704772687
  0
ARC
  5
20B
330
A
100
AcDbEntity
  8
0
  6
Continuous
 62
     7
100
AcDbCircle
 10
-136.4719210848928
 20
-868.9655516470899
 30
0.0
 40
14.99999999999988
100
AcDbArc
 50
41.8103148957791
 51
90.0
  0
ARC
  5
20C
330
A
100
AcDbEntity
  8
0
  6
Continuous
 62
     7
100
AcDbCircle
 10
-136.4719210848928
 20
-868.9655516470899
 30
0.0
 40
22.49999999999932
100
AcDbArc
 50
90.0
 51
163.0678625776755
  0
ARC
  5
20D
330
A
100
AcDbEntity
  8
0
  6
Continuous
 62
     7
100
AcDbCircle
 10
-136.4719210848928
 20
-868.9655516470899
 30
0.0
 40
22.49999999999932
100
AcDbArc
 50
196.9321374223273
 51
226.4577809718438
  0
ARC
  5
20E
330
A
100
AcDbEntity
  8
0
  6
Continuous
 62
     7
100
AcDbCircle
 10
-136.4719210848928
 20
-868.9655516470899
 30
0.0
 40
22.49999999999932
100
AcDbArc
 50
242.7339555492714
 51
297.2660444507302
  0
ARC
  5
20F
330
A
100
AcDbEntity
  8
0
  6
Continuous
 62
     7
100
AcDbCircle
 10
-136.4719210848928
 20
-868.9655516470899
 30
0.0
 40
22.49999999999932
100
AcDbArc
 50
318.1896851042207
 51
345.8509954910647
  0
ARC
  5
210
330
A
100
AcDbEntity
  8
0
  6
Continuous
 62
     7
100
AcDbCircle
 10
-136.4719210848928
 20
-868.9655516470899
 30
0.0
 40
22.49999999999933
100
AcDbArc
 50
14.14900450893445
 51
90.0
  0
LINE
  5
211
330
A
100
AcDbEntity
  8
0
  6
Continuous
 62
     7
100
AcDbLine
 10
420.4559143212875
 20
-873.4655516470871
 30
0.0
 11
416.5668270247615
 21
-873.4655516470871
 31
0.0
  0
LINE
  5
212
330
A
100
AcDbEntity
  8
0
  6
Continuous
 62
     7
100
AcDbLine
 10
416.5668270247615
 20
-873.4655516470871
 30
0.0
 11
397.8197064181753
 21
-873.4655516470871
 31
0.0
  0
LINE
  5
213
330
A
100
AcDbEntity
  8
0
  6
Continuous
 62
     7
100
AcDbLine
 10
397.8197064181753
 20
-864.4655516470871
 30
0.0
 11
416.5668270247615
 21
-864.4655516470871
 31
0.0
  0
LINE
  5
214
330
A
100
AcDbEntity
  8
0
  6
Continuous
 62
     7
100
AcDbLine
 10
416.5668270247615
 20
-864.4655516470871
 30
0.0
 11
420.4559143212876
 21
-864.4655516470871
 31
0.0
  0
LINE
  5
215
330
A
100
AcDbEntity
  8
0
  6
Continuous
 62
     7
100
AcDbLine
 10
420.4559143212876
 20
-864.4655516470871
 30
0.0
 11
424.5571336521694
 21
-864.4655516470871
 31
0.0
  0
LINE
  5
216
330
A
100
AcDbEntity
  8
0
  6
Continuous
 62
     7
100
AcDbLine
 10
424.5571336521694
 20
-873.4655516470871
 30
0.0
 11
420.4559143212875
 21
-873.4655516470871
 31
0.0
  0
LINE
  5
217
330
A
100
AcDbEntity
  8
0
  6
Continuous
 62
     7
100
AcDbLine
 10
415.6295687245585
 20
-864.4655516470871
 30
0.0
 11
416.5668270247615
 21
-864.4655516470871
 31
0.0
  0
LINE
  5
218
330
A
100
AcDbEntity
  8
0
  6
Continuous
 62
     7
100
AcDbLine
 10
415.6295687245585
 20
-873.4655516470871
 30
0.0
 11
416.5668270247615
 21
-873.4655516470871
 31
0.0
  0
LINE
  5
219
330
A
100
AcDbEntity
  8
0
  6
Continuous
 62
     7
100
AcDbLine
 10
407.3834179744348
 20
-883.965551647087
 30
0.0
 11
372.0280789151075
 21
-883.965551647087
 31
0.0
  0
LINE
  5
21A
330
A
100
AcDbEntity
  8
0
  6
Continuous
 62
     7
100
AcDbLine
 10
407.3834179744348
 20
-888.965551647087
 30
0.0
 11
372.0280789151075
 21
-888.965551647087
 31
0.0
  0
LINE
  5
21B
330
A
100
AcDbEntity
  8
0
  6
Continuous
 62
     7
100
AcDbLine
 10
400.3834179744349
 20
-858.965551647087
 30
0.0
 11
370.3834179744348
 21
-858.965551647087
 31
0.0
  0
LINE
  5
21C
330
A
100
AcDbEntity
  8
0
  6
Continuous
 62
     7
100
AcDbLine
 10
400.3834179744349
 20
-878.9655516470869
 30
0.0
 11
370.3834179744348
 21
-878.9655516470869
 31
0.0
  0
ARC
  5
21D
330
A
100
AcDbEntity
  8
0
  6
Continuous
 62
     7
100
AcDbCircle
 10
-136.1500000000001
 20
-868.9655516470898
 30
0.0
 40
105.9628171377382
100
AcDbArc
 50
270.0000000000008
 51
356.212230321613
  0
ARC
  5
21E
330
A
100
AcDbEntity
  8
0
  6
Continuous
 62
     7
100
AcDbCircle
 10
-136.1500000000001
 20
-868.9655516470898
 30
0.0
 40
105.9628171377382
100
AcDbArc
 50
3.787769678387288
 51
270.0000000000008
  0
ARC
  5
21F
330
A
100
AcDbEntity
  8
0
  6
Continuous
 62
     7
100
AcDbCircle
 10
-136.1500000000001
 20
-868.9655516470891
 30
0.0
 40
160.0000000000001
100
AcDbArc
 50
270.0000000000008
 51
357.4925092964122
  0
ARC
  5
220
330
A
100
AcDbEntity
  8
0
  6
Continuous
 62
     7
100
AcDbCircle
 10
-136.1500000000001
 20
-868.9655516470891
 30
0.0
 40
160.0000000000001
100
AcDbArc
 50
2.507490703588226
 51
270.0000000000008
  0
ARC
  5
221
330
A
100
AcDbEntity
  8
0
  6
Continuous
 62
     7
100
AcDbCircle
 10
-136.1500000000001
 20
-868.9655516470898
 30
0.0
 40
104.9916828578285
100
AcDbArc
 50
270.0000000000008
 51
356.1771430087725
  0
ARC
  5
222
330
A
100
AcDbEntity
  8
0
  6
Continuous
 62
     7
100
AcDbCircle
 10
-136.1500000000001
 20
-868.9655516470898
 30
0.0
 40
104.9916828578285
100
AcDbArc
 50
3.822856991227829
 51
270.0000000000008
  0
LWPOLYLINE
  5
223
330
A
100
AcDbEntity
  8
0
  6
Continuous
 62
     7
100
AcDbPolyline
 90
        5
 70
   128
 43
0.0
 10
-84.12896740875266
 20
-777.7676040963124
 10
-83.98452589724318
 20
-777.883152695754
 10
-83.67895501401621
 20
-778.0830358051318
 10
-83.35306572189429
 20
-778.2477263979741
 10
-83.18077694365303
 20
-778.315042116581
  0
LWPOLYLINE
  5
22A
330
A
100
AcDbEntity
  8
0
  6
Continuous
 62
     7
100
AcDbPolyline
 90
        5
 70
   128
 43
0.0
 10
-241.1402556475253
 20
-868.4181136271972
 10
-241.1124083808647
 20
-868.6009779448696
 10
-241.0920899719696
 20
-868.9655516470898
 10
-241.1124083808647
 20
-869.33012534931
 10
-241.1402556475253
 20
-869.5129896669824
  0
LWPOLYLINE
  5
231
330
A
100
AcDbEntity
  8
0
  6
Continuous
 62
     7
100
AcDbPolyline
 90
        5
 70
   128
 43
0.0
 10
-83.18077694362516
 20
-959.6160611775884
 10
-83.35306572189308
 20
-959.6833768962046
 10
-83.67895501401525
 20
-959.848067489047
 10
-83.98452589724239
 20
-960.047950598425
 10
-84.12896740877293
 20
-960.1634991978849
  0
ARC
  5
238
330
A
100
AcDbEntity
  8
0
  6
Continuous
 62
     7
100
AcDbCircle
 10
-136.1500000000001
 20
-868.9655516470896
 30
0.0
 40
34.0
100
AcDbArc
 50
270.0000000000008
 51
323.9681209275302
  0
ARC
  5
239
330
A
100
AcDbEntity
  8
0
  6
Continuous
 62
     7
100
AcDbCircle
 10
-136.1500000000001
 20
-868.9655516470896
 30
0.0
 40
33.99999999999998
100
AcDbArc
 50
325.9722894041082
 51
350.6906590783627
  0
ARC
  5
23A
330
A
100
AcDbEntity
  8
0
  6
Continuous
 62
     7
100
AcDbCircle
 10
-136.1500000000001
 20
-868.9655516470896
 30
0.0
 40
34.00000000000001
100
AcDbArc
 50
9.309340921636627
 51
167.5833520799125
  0
ARC
  5
23B
330
A
100
AcDbEntity
  8
0
  6
Continuous
 62
     7
100
AcDbCircle
 10
-136.1500000000001
 20
-868.9655516470896
 30
0.0
 40
34.0
100
AcDbArc
 50
192.4166479200909
 51
270.0000000000008
  0
LINE
  5
23C
330
A
100
AcDbEntity
  8
0
  6
Continuous
 62
     7
100
AcDbLine
 10
483.8499999999994
 20
-811.465551647087
 30
0.0
 11
483.8500000000002
 21
-926.4655516470869
 31
0.0
  0
LINE
  5
23D
330
A
100
AcDbEntity
  8
0
  6
Continuous
 62
     7
100
AcDbLine
 10
467.8499999999994
 20
-818.465551647087
 30
0.0
 11
467.8500000000002
 21
-919.4655516194403
 31
0.0
  0
LINE
  5
23E
330
A
100
AcDbEntity
  8
0
  6
Continuous
 62
     7
100
AcDbLine
 10
485.8499999999994
 20
-812.9655516470869
 30
0.0
 11
485.8500000000002
 21
-924.965551647087
 31
0.0
  0
ARC
  5
23F
330
A
100
AcDbEntity
  8
0
  6
Continuous
 62
     7
100
AcDbCircle
 10
465.3499999999996
 20
-858.965551647087
 30
0.0
 40
2.500000000000056
100
AcDbArc
 50
270.0000000000008
 51
0.0
  0
ARC
  5
240
330
A
100
AcDbEntity
  8
0
  6
Continuous
 62
     7
100
AcDbCircle
 10
465.3499999999999
 20
-878.9655516470871
 30
0.0
 40
2.5
100
AcDbArc
 50
0.0
 51
90.00000000000261
  0
LINE
  5
241
330
A
100
AcDbEntity
  8
0
  6
Continuous
 62
     7
100
AcDbLine
 10
451.8631762109597
 20
-861.4655516470872
 30
0.0
 11
465.3499999999996
 21
-861.465551647087
 31
0.0
  0
LINE
  5
242
330
A
100
AcDbEntity
  8
0
  6
Continuous
 62
     7
100
AcDbLine
 10
451.8631762109598
 20
-876.4655516470872
 30
0.0
 11
450.8957948944477
 21
-876.4655516470872
 31
0.0
  0
LINE
  5
243
330
A
100
AcDbEntity
  8
0
  6
Continuous
 62
     7
100
AcDbLine
 10
450.8957948944476
 20
-861.4655516470872
 30
0.0
 11
451.8631762109597
 21
-861.4655516470872
 31
0.0
  0
LINE
  5
244
330
A
100
AcDbEntity
  8
0
  6
Continuous
 62
     7
100
AcDbLine
 10
465.3499999999998
 20
-876.465551647087
 30
0.0
 11
451.8631762109598
 21
-876.4655516470872
 31
0.0
  0
LINE
  5
245
330
A
100
AcDbEntity
  8
0
  6
Continuous
 62
     7
100
AcDbLine
 10
450.8957948944477
 20
-876.4655516470872
 30
0.0
 11
400.3834179744349
 21
-876.4655516470876
 31
0.0
  0
LINE
  5
246
330
A
100
AcDbEntity
  8
0
  6
Continuous
 62
     7
100
AcDbLine
 10
400.3834179744349
 20
-861.4655516470875
 30
0.0
 11
450.8957948944476
 21
-861.4655516470872
 31
0.0
  0
ARC
  5
247
330
A
100
AcDbEntity
  8
0
  6
Continuous
 62
     7
100
AcDbCircle
 10
379.8499999999998
 20
-868.9655516470876
 30
0.0
 40
11.00000000000006
100
AcDbArc
 50
90.0000000000006
 51
114.6199773286478
  0
ARC
  5
248
330
A
100
AcDbEntity
  8
0
  6
Continuous
 62
     7
100
AcDbCircle
 10
379.8499999999998
 20
-868.9655516470876
 30
0.0
 40
10.99999999999994
100
AcDbArc
 50
245.3800226713345
 51
272.779508133856
  0
ARC
  5
249
330
A
100
AcDbEntity
  8
0
  6
Continuous
 62
     7
100
AcDbCircle
 10
379.8499999999998
 20
-868.9655516470876
 30
0.0
 40
11.00000000000006
100
AcDbArc
 50
65.38002267135218
 51
90.0000000000006
  0
LWPOLYLINE
  5
24A
330
A
100
AcDbEntity
  8
0
  6
PHANTOM
 62
     7
100
AcDbPolyline
 90
       18
 70
   128
 43
0.0
 10
-209.322792607612
 20
-858.9883878485927
 10
-208.607960134605
 20
-859.0738448508297
 10
-207.0595087570997
 20
-859.5217564074271
 10
-205.6101321884924
 20
-860.3109913295543
 10
-204.3122146742865
 20
-861.4130246107945
 10
-203.2126663351363
 20
-862.7880258970437
 10
-202.3512277128643
 20
-864.3862990592857
 10
-201.7590334437354
 20
-866.1500783411774
 10
-201.4574869715835
 20
-868.0156161639889
 10
-201.4574869715835
 20
-869.9154871301926
 10
-201.7590334437355
 20
-871.7810249530039
 10
-202.3512277128643
 20
-873.5448042348956
 10
-203.2126663351364
 20
-875.1430773971376
 10
-204.3122146742866
 20
-876.5180786833868
 10
-205.6101321884925
 20
-877.6201119646268
 10
-207.0595087570997
 20
-878.409346886754
 10
-208.6079601346051
 20
-878.8572584433515
 10
-209.3222633297644
 20
-878.9426793790651
  0
LWPOLYLINE
  5
25E
330
A
100
AcDbEntity
  8
0
  6
PHANTOM
 62
     7
100
AcDbPolyline
 90
        9
 70
   128
 43
0.0
 10
363.8418874553597
 20
-866.9655516470905
 10
363.8870272808986
 20
-866.4778258420501
 10
364.0207120593345
 20
-866.0088430661776
 10
364.2378043596035
 20
-865.5766260645414
 10
364.5299614463529
 20
-865.1977846941241
 10
364.8859558865825
 20
-864.8868776163341
 10
365.2921070135982
 20
-864.6558528158122
 10
365.7328066673613
 20
-864.5135884460824
 10
366.1911190073245
 20
-864.4655516470903
  0
LWPOLYLINE
  5
269
330
A
100
AcDbEntity
  8
0
  6
PHANTOM
 62
     7
100
AcDbPolyline
 90
        9
 70
   128
 43
0.0
 10
366.1911190073245
 20
-864.4655516470903
 10
366.357931057068
 20
-864.5135884460822
 10
366.5183326132892
 20
-864.6558528158122
 10
366.6661595341366
 20
-864.886877616334
 10
366.7957309139445
 20
-865.1977846941241
 10
366.9020673972512
 20
-865.5766260645412
 10
366.9810825326374
 20
-866.0088430661776
 10
367.0297398127626
 20
-866.4778258420501
 10
367.0461693656386
 20
-866.9655516470905
  0
LINE
  5
274
330
A
100
AcDbEntity
  8
0
  6
PHANTOM
 62
     7
100
AcDbLine
 10
363.8418874553597
 20
-866.9655516470905
 30
0.0
 11
367.0461693656386
 21
-866.9655516470905
 31
0.0
  0
LINE
  5
275
330
A
100
AcDbEntity
  8
0
  6
PHANTOM
 62
     7
100
AcDbLine
 10
367.0461693656386
 20
-870.9655516470904
 30
0.0
 11
367.0461693656386
 21
-866.9655516470905
 31
0.0
  0
LINE
  5
276
330
A
100
AcDbEntity
  8
0
  6
PHANTOM
 62
     7
100
AcDbLine
 10
363.8418874553597
 20
-870.9655516470904
 30
0.0
 11
367.0461693656386
 21
-870.9655516470904
 31
0.0
  0
LINE
  5
277
330
A
100
AcDbEntity
  8
0
  6
PHANTOM
 62
     7
100
AcDbLine
 10
363.8418874553597
 20
-866.9655516470905
 30
0.0
 11
363.8418874553597
 21
-870.9655516470904
 31
0.0
  0
LWPOLYLINE
  5
278
330
A
100
AcDbEntity
  8
0
  6
PHANTOM
 62
     7
100
AcDbPolyline
 90
        9
 70
   128
 43
0.0
 10
366.1911190073245
 20
-873.4655516470903
 10
366.357931057068
 20
-873.4175148480984
 10
366.5183326132892
 20
-873.2752504783686
 10
366.6661595341366
 20
-873.0442256778468
 10
366.7957309139445
 20
-872.7333186000567
 10
366.9020673972512
 20
-872.3544772296394
 10
366.9810825326374
 20
-871.922260228003
 10
367.0297398127626
 20
-871.4532774521307
 10
367.0461693656386
 20
-870.9655516470904
  0
LWPOLYLINE
  5
283
330
A
100
AcDbEntity
  8
0
  6
PHANTOM
 62
     7
100
AcDbPolyline
 90
        9
 70
   128
 43
0.0
 10
366.1911190073245
 20
-873.4655516470903
 10
365.7328066673613
 20
-873.4175148480984
 10
365.2921070135982
 20
-873.2752504783686
 10
364.8859558865825
 20
-873.0442256778468
 10
364.5299614463529
 20
-872.7333186000567
 10
364.2378043596035
 20
-872.3544772296394
 10
364.0207120593345
 20
-871.922260228003
 10
363.8870272808986
 20
-871.4532774521307
 10
363.8418874553597
 20
-870.9655516470904
  0
LINE
  5
28E
330
A
100
AcDbEntity
  8
0
  6
PHANTOM
 62
     7
100
AcDbLine
 10
372.684325090354
 20
-870.9655516470904
 30
0.0
 11
367.0461693656386
 21
-870.9655516470904
 31
0.0
  0
LWPOLYLINE
  5
28F
330
A
100
AcDbEntity
  8
0
  6
PHANTOM
 62
     7
100
AcDbPolyline
 90
        9
 70
   128
 43
0.0
 10
371.8292747320397
 20
-873.4655516470903
 10
371.9960867817833
 20
-873.4175148480984
 10
372.1564883380044
 20
-873.2752504783686
 10
372.3043152588519
 20
-873.0442256778468
 10
372.4338866386597
 20
-872.7333186000567
 10
372.5402231219665
 20
-872.3544772296394
 10
372.6192382573527
 20
-871.922260228003
 10
372.6678955374778
 20
-871.4532774521307
 10
372.684325090354
 20
-870.9655516470904
  0
LINE
  5
29A
330
A
100
AcDbEntity
  8
0
  6
PHANTOM
 62
     7
100
AcDbLine
 10
367.0461693656386
 20
-866.9655516470905
 30
0.0
 11
372.684325090354
 21
-866.9655516470905
 31
0.0
  0
LWPOLYLINE
  5
29B
330
A
100
AcDbEntity
  8
0
  6
PHANTOM
 62
     7
100
AcDbPolyline
 90
        9
 70
   128
 43
0.0
 10
372.684325090354
 20
-866.9655516470905
 10
372.6678955374779
 20
-866.4778258420501
 10
372.6192382573528
 20
-866.0088430661776
 10
372.5402231219665
 20
-865.5766260645412
 10
372.4338866386598
 20
-865.1977846941241
 10
372.304315258852
 20
-864.886877616334
 10
372.1564883380046
 20
-864.6558528158122
 10
371.9960867817834
 20
-864.5135884460822
 10
371.8292747320398
 20
-864.4655516470903
  0
LINE
  5
2A6
330
A
100
AcDbEntity
  8
0
  6
PHANTOM
 62
     7
100
AcDbLine
 10
372.684325090354
 20
-866.9655516470905
 30
0.0
 11
372.684325090354
 21
-870.9655516470904
 31
0.0
  0
LINE
  5
2A7
330
A
100
AcDbEntity
  8
0
  6
PHANTOM
 62
     7
100
AcDbLine
 10
363.8418874553597
 20
-870.9655516470904
 30
0.0
 11
347.7162008488531
 21
-870.9655516470903
 31
0.0
  0
LINE
  5
2A8
330
A
100
AcDbEntity
  8
0
  6
PHANTOM
 62
     7
100
AcDbLine
 10
347.7162008488531
 20
-866.9655516470902
 30
0.0
 11
363.8418874553597
 21
-866.9655516470905
 31
0.0
  0
LINE
  5
2A9
330
A
100
AcDbEntity
  8
0
  6
PHANTOM
 62
     7
100
AcDbLine
 10
372.684325090354
 20
-866.9655516470905
 30
0.0
 11
374.3292747320397
 21
-866.9655516470903
 31
0.0
  0
LINE
  5
2AA
330
A
100
AcDbEntity
  8
0
  6
PHANTOM
 62
     7
100
AcDbLine
 10
374.3292747320397
 20
-870.9655516470903
 30
0.0
 11
372.684325090354
 21
-870.9655516470904
 31
0.0
  0
LWPOLYLINE
  5
2AB
330
A
100
AcDbEntity
  8
0
  6
PHANTOM
 62
     7
100
AcDbPolyline
 90
        7
 70
   128
 43
0.0
 10
386.3435730828263
 20
-868.9655516470901
 10
386.2110556467076
 20
-870.3890563951539
 10
385.8225341826271
 20
-871.7155516470901
 10
385.2044857863003
 20
-872.8546389436161
 10
384.3990294345632
 20
-873.7286913679044
 10
383.4610556467075
 20
-874.27814369168
 10
382.4544857863003
 20
-874.4655516470901
  0
LWPOLYLINE
  5
2B4
330
A
100
AcDbEntity
  8
0
  6
PHANTOM
 62
     7
100
AcDbPolyline
 90
        7
 70
   128
 43
0.0
 10
382.4544857863004
 20
-863.46555164709
 10
383.4610556467075
 20
-863.6529596025003
 10
384.3990294345634
 20
-864.2024119262757
 10
385.2044857863003
 20
-865.076464350564
 10
385.8225341826273
 20
-866.2155516470901
 10
386.2110556467076
 20
-867.5420468990262
 10
386.3435730828263
 20
-868.9655516470901
  0
LWPOLYLINE
  5
2BD
330
A
100
AcDbEntity
  8
0
  6
PHANTOM
 62
     7
100
AcDbPolyline
 90
        3
 70
   128
 43
0.0
 10
-136.4719210848928
 20
-858.2471885028084
 10
-138.4222671594879
 20
-858.4261276266797
 10
-140.2983768155154
 20
-858.9655516470902
  0
LWPOLYLINE
  5
2C2
330
A
100
AcDbEntity
  8
0
  6
PHANTOM
 62
     7
100
AcDbPolyline
 90
        4
 70
   128
 43
0.0
 10
-142.4719210848925
 20
-860.103837341283
 10
-144.0509483474341
 20
-861.3865243845486
 10
-145.4431429242672
 20
-863.1003587942153
 10
-145.5181742472431
 20
-863.2451894294998
  0
LWPOLYLINE
  5
2C8
330
A
100
AcDbEntity
  8
0
  6
PHANTOM
 62
     7
100
AcDbPolyline
 90
        4
 70
   128
 43
0.0
 10
-145.5181742472426
 20
-874.6859138646804
 10
-145.4431429242672
 20
-874.8307444999644
 10
-144.0509483474341
 20
-876.5445789096313
 10
-142.4719210848925
 20
-877.8272659528967
  0
LWPOLYLINE
  5
2CE
330
A
100
AcDbEntity
  8
0
  6
PHANTOM
 62
     7
100
AcDbPolyline
 90
        3
 70
   128
 43
0.0
 10
-140.298376815513
 20
-878.9655516470903
 10
-138.4222671594879
 20
-879.5049756675
 10
-136.4719210848928
 20
-879.6839147913711
  0
LINE
  5
2D3
330
A
100
AcDbEntity
  8
0
  6
PHANTOM
 62
     7
100
AcDbLine
 10
-136.4719210848928
 20
-879.6839147913711
 30
0.0
 11
-134.9719210848925
 21
-879.5462937356504
 31
0.0
  0
LWPOLYLINE
  5
2D4
330
A
100
AcDbEntity
  8
0
  6
PHANTOM
 62
     7
100
AcDbPolyline
 90
        3
 70
   128
 43
0.0
 10
-132.6454653542701
 20
-858.9655516470902
 10
-134.5215750102972
 20
-858.4261276266797
 10
-136.4719210848928
 20
-858.2471885028084
  0
ARC
  5
2D9
330
A
100
AcDbEntity
  8
0
  6
PHANTOM
 62
     7
100
AcDbCircle
 10
-136.4719210848928
 20
-868.9655516470899
 30
0.0
 40
9.549678817091734
100
AcDbArc
 50
216.1352676033022
 51
231.0756767176997
  0
ARC
  5
2DA
330
A
100
AcDbEntity
  8
0
  6
PHANTOM
 62
     7
100
AcDbCircle
 10
-136.4719210848928
 20
-868.9655516470899
 30
0.0
 40
9.549678817091658
100
AcDbArc
 50
128.9243232823014
 51
143.8647323967038
  0
ARC
  5
2DB
330
A
100
AcDbEntity
  8
0
  6
PHANTOM
 62
     7
100
AcDbCircle
 10
-136.4719210848928
 20
-868.9655516470899
 30
0.0
 40
9.243442456779513
100
AcDbArc
 50
217.3442806367203
 51
229.5255558372333
  0
ARC
  5
2DC
330
A
100
AcDbEntity
  8
0
  6
PHANTOM
 62
     7
100
AcDbCircle
 10
-136.4719210848928
 20
-868.9655516470899
 30
0.0
 40
9.24344245677962
100
AcDbArc
 50
130.4744441627669
 51
142.6557193632855
  0
LWPOLYLINE
  5
2DD
330
A
100
AcDbEntity
  8
0
  6
PHANTOM
 62
     7
100
AcDbPolyline
 90
        9
 70
   128
 43
0.0
 10
422.223681274254
 20
-870.9655516470872
 10
422.1897141279403
 20
-871.4532774521273
 10
422.0891180273831
 20
-871.9222602279998
 10
421.9257588243118
 20
-872.3544772296362
 10
421.7059143212877
 20
-872.7333186000533
 10
421.4380330192716
 20
-873.0442256778434
 10
421.1324094464704
 20
-873.2752504783652
 10
420.8007885453914
 20
-873.4175148480952
 10
420.4559143212875
 20
-873.4655516470871
  0
LWPOLYLINE
  5
2E8
330
A
100
AcDbEntity
  8
0
  6
PHANTOM
 62
     7
100
AcDbPolyline
 90
        9
 70
   128
 43
0.0
 10
418.6881473683211
 20
-870.9655516470872
 10
418.7221145146349
 20
-871.4532774521273
 10
418.8227106151921
 20
-871.9222602279998
 10
418.9860698182634
 20
-872.3544772296362
 10
419.2059143212875
 20
-872.7333186000533
 10
419.4737956233037
 20
-873.0442256778434
 10
419.7794191961048
 20
-873.2752504783652
 10
420.1110400971839
 20
-873.4175148480952
 10
420.4559143212875
 20
-873.4655516470871
  0
LINE
  5
2F3
330
A
100
AcDbEntity
  8
0
  6
PHANTOM
 62
     7
100
AcDbLine
 10
418.6881473683211
 20
-870.9655516470872
 30
0.0
 11
422.223681274254
 21
-870.9655516470872
 31
0.0
  0
LWPOLYLINE
  5
2F4
330
A
100
AcDbEntity
  8
0
  6
PHANTOM
 62
     7
100
AcDbPolyline
 90
        9
 70
   128
 43
0.0
 10
418.6881473683211
 20
-866.9655516470871
 10
418.7221145146349
 20
-866.4778258420469
 10
418.822710615192
 20
-866.0088430661744
 10
418.9860698182633
 20
-865.576626064538
 10
419.2059143212875
 20
-865.1977846941207
 10
419.4737956233037
 20
-864.8868776163308
 10
419.7794191961049
 20
-864.6558528158088
 10
420.111040097184
 20
-864.513588446079
 10
420.4559143212876
 20
-864.4655516470871
  0
LWPOLYLINE
  5
2FF
330
A
100
AcDbEntity
  8
0
  6
PHANTOM
 62
     7
100
AcDbPolyline
 90
        9
 70
   128
 43
0.0
 10
422.223681274254
 20
-866.9655516470871
 10
422.1897141279403
 20
-866.4778258420469
 10
422.0891180273831
 20
-866.0088430661744
 10
421.9257588243118
 20
-865.5766260645382
 10
421.7059143212877
 20
-865.1977846941209
 10
421.4380330192716
 20
-864.8868776163308
 10
421.1324094464704
 20
-864.655852815809
 10
420.8007885453914
 20
-864.5135884460792
 10
420.4559143212876
 20
-864.4655516470871
  0
LINE
  5
30A
330
A
100
AcDbEntity
  8
0
  6
PHANTOM
 62
     7
100
AcDbLine
 10
422.223681274254
 20
-866.9655516470871
 30
0.0
 11
418.6881473683211
 21
-866.9655516470871
 31
0.0
  0
LINE
  5
30B
330
A
100
AcDbEntity
  8
0
  6
PHANTOM
 62
     7
100
AcDbLine
 10
418.6881473683211
 20
-868.2198243771384
 30
0.0
 11
418.6881473683211
 21
-866.9655516470871
 31
0.0
  0
LINE
  5
30C
330
A
100
AcDbEntity
  8
0
  6
PHANTOM
 62
     7
100
AcDbLine
 10
422.223681274254
 20
-870.9655516470872
 30
0.0
 11
422.223681274254
 21
-866.9655516470871
 31
0.0
  0
LINE
  5
30D
330
A
100
AcDbEntity
  8
0
  6
PHANTOM
 62
     7
100
AcDbLine
 10
418.6881473683211
 20
-870.9655516470872
 30
0.0
 11
418.6881473683211
 21
-869.7112789170358
 31
0.0
  0
LINE
  5
30E
330
A
100
AcDbEntity
  8
0
  6
PHANTOM
 62
     7
100
AcDbLine
 10
397.8197064181753
 20
-870.9655516470871
 30
0.0
 11
418.6881473683211
 21
-870.9655516470872
 31
0.0
  0
LINE
  5
30F
330
A
100
AcDbEntity
  8
0
  6
PHANTOM
 62
     7
100
AcDbLine
 10
418.6881473683211
 20
-866.9655516470871
 30
0.0
 11
397.8197064181753
 21
-866.965551647087
 31
0.0
  0
LWPOLYLINE
  5
310
330
A
100
AcDbEntity
  8
0
  6
PHANTOM
 62
     7
100
AcDbPolyline
 90
        9
 70
   128
 43
0.0
 10
426.3249006051357
 20
-866.965551647087
 10
426.290933458822
 20
-866.4778258420469
 10
426.1903373582648
 20
-866.0088430661744
 10
426.0269781551937
 20
-865.5766260645382
 10
425.8071336521694
 20
-865.1977846941207
 10
425.5392523501533
 20
-864.8868776163308
 10
425.2336287773522
 20
-864.655852815809
 10
424.9020078762731
 20
-864.5135884460792
 10
424.5571336521694
 20
-864.4655516470871
  0
LINE
  5
31B
330
A
100
AcDbEntity
  8
0
  6
PHANTOM
 62
     7
100
AcDbLine
 10
426.3249006051357
 20
-866.965551647087
 30
0.0
 11
422.223681274254
 21
-866.9655516470871
 31
0.0
  0
LINE
  5
31C
330
A
100
AcDbEntity
  8
0
  6
PHANTOM
 62
     7
100
AcDbLine
 10
422.223681274254
 20
-870.9655516470872
 30
0.0
 11
426.3249006051357
 21
-870.9655516470871
 31
0.0
  0
LWPOLYLINE
  5
31D
330
A
100
AcDbEntity
  8
0
  6
PHANTOM
 62
     7
100
AcDbPolyline
 90
        9
 70
   128
 43
0.0
 10
426.3249006051357
 20
-870.9655516470871
 10
426.290933458822
 20
-871.4532774521273
 10
426.1903373582648
 20
-871.9222602279998
 10
426.0269781551937
 20
-872.3544772296362
 10
425.8071336521694
 20
-872.7333186000533
 10
425.5392523501533
 20
-873.0442256778434
 10
425.2336287773522
 20
-873.2752504783652
 10
424.9020078762731
 20
-873.4175148480952
 10
424.5571336521694
 20
-873.4655516470871
  0
LINE
  5
328
330
A
100
AcDbEntity
  8
0
  6
PHANTOM
 62
     7
100
AcDbLine
 10
426.3249006051357
 20
-870.9655516470871
 30
0.0
 11
426.3249006051357
 21
-866.965551647087
 31
0.0
  0
LINE
  5
329
330
A
100
AcDbEntity
  8
0
  6
PHANTOM
 62
     7
100
AcDbLine
 10
427.0571336521693
 20
-866.965551647087
 30
0.0
 11
426.3249006051357
 21
-866.965551647087
 31
0.0
  0
LINE
  5
32A
330
A
100
AcDbEntity
  8
0
  6
PHANTOM
 62
     7
100
AcDbLine
 10
426.3249006051357
 20
-870.9655516470871
 30
0.0
 11
427.0571336521693
 21
-870.9655516470871
 31
0.0
  0
LINE
  5
32B
330
A
100
AcDbEntity
  8
0
  6
PHANTOM
 62
     7
100
AcDbLine
 10
474.8499999999994
 20
-811.465551647087
 30
0.0
 11
474.8500000000001
 21
-926.465551647087
 31
0.0
  0
LINE
  5
32C
330
A
100
AcDbEntity
  8
0
  6
PHANTOM
 62
     7
100
AcDbLine
 10
465.3499999999998
 20
-868.9655516470871
 30
0.0
 11
467.8499999999997
 21
-868.9655516470871
 31
0.0
  0
LINE
  5
32D
330
A
100
AcDbEntity
  8
0
  6
PHANTOM
 62
     7
100
AcDbLine
 10
465.3499999999998
 20
-868.9655516470871
 30
0.0
 11
465.3499999999996
 21
-861.465551647087
 31
0.0
  0
LINE
  5
32E
330
A
100
AcDbEntity
  8
0
  6
PHANTOM
 62
     7
100
AcDbLine
 10
465.3499999999998
 20
-876.465551647087
 30
0.0
 11
465.3499999999998
 21
-868.9655516470871
 31
0.0
  0
LINE
  5
32F
330
A
100
AcDbEntity
  8
0
  6
PHANTOM
 62
     7
100
AcDbLine
 10
451.8631762109598
 20
-868.9655516470871
 30
0.0
 11
451.8631762109597
 21
-861.4655516470872
 31
0.0
  0
LINE
  5
330
330
A
100
AcDbEntity
  8
0
  6
PHANTOM
 62
     7
100
AcDbLine
 10
465.3499999999998
 20
-868.9655516470871
 30
0.0
 11
451.8631762109598
 21
-868.9655516470871
 31
0.0
  0
LWPOLYLINE
  5
331
330
A
100
AcDbEntity
  8
0
  6
PHANTOM
 62
     7
100
AcDbPolyline
 90
        9
 70
   128
 43
0.0
 10
450.8957948944477
 20
-876.4655516470872
 10
450.3296146967955
 20
-876.3214412501113
 10
449.7851924866216
 20
-875.8946481409218
 10
449.2834501041475
 20
-875.2015737393563
 10
448.8436692277511
 20
-874.2688525059863
 10
448.4827503898807
 20
-873.1323283947343
 10
448.2145634990697
 20
-871.8356773898253
 10
448.0494148271313
 20
-870.4287290622081
 10
447.9936509449115
 20
-868.9655516470871
  0
LINE
  5
33C
330
A
100
AcDbEntity
  8
0
  6
PHANTOM
 62
     7
100
AcDbLine
 10
451.8631762109598
 20
-868.9655516470871
 30
0.0
 11
447.9936509449115
 21
-868.9655516470871
 31
0.0
  0
LINE
  5
33D
330
A
100
AcDbEntity
  8
0
  6
PHANTOM
 62
     7
100
AcDbLine
 10
451.8631762109598
 20
-876.4655516470872
 30
0.0
 11
451.8631762109598
 21
-868.9655516470871
 31
0.0
  0
LWPOLYLINE
  5
33E
330
A
100
AcDbEntity
  8
0
  6
PHANTOM
 62
     7
100
AcDbPolyline
 90
        9
 70
   128
 43
0.0
 10
447.9936509449115
 20
-868.9655516470871
 10
448.0494148271311
 20
-867.5023742319663
 10
448.2145634990697
 20
-866.095425904349
 10
448.4827503898806
 20
-864.7987748994403
 10
448.843669227751
 20
-863.6622507881881
 10
449.2834501041474
 20
-862.7295295548181
 10
449.7851924866215
 20
-862.0364551532524
 10
450.3296146967953
 20
-861.6096620440629
 10
450.8957948944476
 20
-861.4655516470872
  0
LINE
  5
349
330
A
100
AcDbEntity
  8
0
  6
PHANTOM
 62
     7
100
AcDbLine
 10
447.9936509449115
 20
-868.9655516470871
 30
0.0
 11
427.0571336521693
 21
-868.9655516470873
 31
0.0
  0
LWPOLYLINE
  5
34A
330
A
100
AcDbEntity
  8
0
  6
Continuous
 62
     7
100
AcDbPolyline
 90
       12
 70
   128
 43
0.0
 10
1008.878580793419
 20
725.3077294296787
 10
1007.078466225871
 20
725.1443745662941
 10
1006.349678017081
 20
724.9826790805979
 10
1005.167285072695
 20
724.5935403298278
 10
1003.984242430179
 20
724.0281337773057
 10
1002.795194206639
 20
723.2445050744717
 10
1001.672511527891
 20
722.2411676633689
 10
1000.674320317815
 20
721.0252559970353
 10
999.8550272018995
 20
719.6176575707223
 10
999.2621297236315
 20
718.0506965863115
 10
998.9347365172694
 20
716.3660115336904
 10
998.9075353170944
 20
714.8717133907324
  0
LWPOLYLINE
  5
358
330
A
100
AcDbEntity
  8
0
  6
Continuous
 62
     7
100
AcDbPolyline
 90
       12
 70
   128
 43
0.0
 10
1018.833712310232
 20
714.8695119791386
 10
1018.854352995935
 20
716.0034082086458
 10
1018.569722331857
 20
717.7738550716484
 10
1017.954685444726
 20
719.5058628671157
 10
1017.126310882731
 20
720.9623689737933
 10
1016.072321004458
 20
722.2539587504026
 10
1014.833646530479
 20
723.3412337750627
 10
1013.47596118993
 20
724.1882752175107
 10
1012.160115721795
 20
724.7539735782198
 10
1011.195255197294
 20
725.0356798667663
 10
1010.10401598706
 20
725.2323608377556
 10
1008.878580793419
 20
725.3077294296787
  0
LINE
  5
366
330
A
100
AcDbEntity
  8
0
  6
Continuous
 62
     7
100
AcDbLine
 10
998.8851303353253
 20
714.9401154703946
 30
0.0
 11
1003.495206533862
 21
608.3990680290582
 31
0.0
  0
LINE
  5
367
330
A
100
AcDbEntity
  8
0
  6
Continuous
 62
     7
100
AcDbLine
 10
1014.263114977453
 20
608.4258744338574
 30
0.0
 11
1018.872031251514
 21
714.9401154703946
 31
0.0
  0
LINE
  5
368
330
A
100
AcDbEntity
  8
0
  6
Continuous
 62
     7
100
AcDbLine
 10
1033.94206999797
 20
469.1745247480664
 30
0.0
 11
1031.378580793419
 21
511.0872027570464
 31
0.0
  0
LINE
  5
369
330
A
100
AcDbEntity
  8
0
  6
Continuous
 62
     7
100
AcDbLine
 10
986.3785807934203
 20
511.0872027570464
 30
0.0
 11
983.8150915888686
 21
469.1745247480664
 31
0.0
  0
LINE
  5
36A
330
A
100
AcDbEntity
  8
0
  6
Continuous
 62
     7
100
AcDbLine
 10
1031.378580793419
 20
511.0872027570464
 30
0.0
 11
1023.87858079342
 21
518.5872027570463
 31
0.0
  0
LINE
  5
36B
330
A
100
AcDbEntity
  8
0
  6
Continuous
 62
     7
100
AcDbLine
 10
993.8785807934195
 20
518.5872027570463
 30
0.0
 11
986.3785807934203
 21
511.0872027570464
 31
0.0
  0
LINE
  5
36C
330
A
100
AcDbEntity
  8
0
  6
Continuous
 62
     7
100
AcDbLine
 10
1023.87858079342
 20
580.0872027570464
 30
0.0
 11
1028.878580793419
 21
580.0872027570464
 31
0.0
  0
LINE
  5
36D
330
A
100
AcDbEntity
  8
0
  6
Continuous
 62
     7
100
AcDbLine
 10
1028.878580793419
 20
624.0872027570463
 30
0.0
 11
1023.87858079342
 21
624.0872027570463
 31
0.0
  0
LINE
  5
36E
330
A
100
AcDbEntity
  8
0
  6
Continuous
 62
     7
100
AcDbLine
 10
998.8785807934194
 20
589.5872027570464
 30
0.0
 11
1003.370706777674
 21
589.5872027570464
 31
0.0
  0
LINE
  5
36F
330
A
100
AcDbEntity
  8
0
  6
Continuous
 62
     7
100
AcDbLine
 10
1014.386454809165
 20
589.5872027570464
 30
0.0
 11
1018.878580793419
 21
589.5872027570464
 31
0.0
  0
LINE
  5
370
330
A
100
AcDbEntity
  8
0
  6
Continuous
 62
     7
100
AcDbLine
 10
1018.878580793419
 20
614.5872027570463
 30
0.0
 11
1014.529718260753
 21
614.5872027570463
 31
0.0
  0
LINE
  5
371
330
A
100
AcDbEntity
  8
0
  6
Continuous
 62
     7
100
AcDbLine
 10
1003.227443326085
 20
614.5872027570463
 30
0.0
 11
998.8785807934194
 21
614.5872027570463
 31
0.0
  0
LINE
  5
372
330
A
100
AcDbEntity
  8
0
  6
Continuous
 62
     7
100
AcDbLine
 10
1003.298938204919
 20
591.4101245050152
 30
0.0
 11
1005.37858079342
 21
538.5872027570543
 31
0.0
  0
LINE
  5
373
330
A
100
AcDbEntity
  8
0
  6
Continuous
 62
     7
100
AcDbLine
 10
1012.378580793418
 20
538.5872027570543
 30
0.0
 11
1014.45822338192
 21
591.4101245050156
 31
0.0
  0
ARC
  5
374
330
A
100
AcDbEntity
  8
0
  6
Continuous
 62
     7
100
AcDbCircle
 10
1003.878580793419
 20
520.0872027570463
 30
0.0
 40
1.500000000000113
100
AcDbArc
 50
270.0000000000008
 51
0.0
  0
ARC
  5
375
330
A
100
AcDbEntity
  8
0
  6
Continuous
 62
     7
100
AcDbCircle
 10
1013.878580793419
 20
520.0872027570463
 30
0.0
 40
1.500000000000113
100
AcDbArc
 50
180.0000000000004
 51
270.0000000000008
  0
LINE
  5
376
330
A
100
AcDbEntity
  8
0
  6
Continuous
 62
     7
100
AcDbLine
 10
1005.37858079342
 20
538.5872027570543
 30
0.0
 11
1005.378580793419
 21
520.0872027570463
 31
0.0
  0
LINE
  5
377
330
A
100
AcDbEntity
  8
0
  6
Continuous
 62
     7
100
AcDbLine
 10
1012.378580793419
 20
520.0872027570463
 30
0.0
 11
1012.378580793418
 21
538.5872027570543
 31
0.0
  0
LINE
  5
378
330
A
100
AcDbEntity
  8
0
  6
Continuous
 62
     7
100
AcDbLine
 10
1018.878580793419
 20
597.0872027570464
 30
0.0
 11
1023.87858079342
 21
597.0872027570464
 31
0.0
  0
LINE
  5
379
330
A
100
AcDbEntity
  8
0
  6
Continuous
 62
     7
100
AcDbLine
 10
1023.87858079342
 20
607.0872027570462
 30
0.0
 11
1018.878580793419
 21
607.0872027570462
 31
0.0
  0
LINE
  5
37A
330
A
100
AcDbEntity
  8
0
  6
Continuous
 62
     7
100
AcDbLine
 10
1003.378580793418
 20
589.3872027571575
 30
0.0
 11
1003.378580793417
 21
569.6607958858534
 31
0.0
  0
LINE
  5
37B
330
A
100
AcDbEntity
  8
0
  6
Continuous
 62
     7
100
AcDbLine
 10
1014.378580793418
 20
569.6607958858534
 30
0.0
 11
1014.378580793418
 21
589.3872027570689
 31
0.0
  0
LINE
  5
37C
330
A
100
AcDbEntity
  8
0
  6
Continuous
 62
     7
100
AcDbLine
 10
1023.878580793417
 20
-329.2681363022812
 30
0.0
 11
1028.878580793417
 21
-329.2681363022812
 31
0.0
  0
LINE
  5
37D
330
A
100
AcDbEntity
  8
0
  6
Continuous
 62
     7
100
AcDbLine
 10
1028.878580793417
 20
-285.2681363022812
 30
0.0
 11
1023.878580793417
 21
-285.2681363022812
 31
0.0
  0
LINE
  5
37E
330
A
100
AcDbEntity
  8
0
  6
Continuous
 62
     7
100
AcDbLine
 10
1014.378580793418
 20
-322.2681363022813
 30
0.0
 11
1018.878580793417
 21
-322.2681363022813
 31
0.0
  0
LINE
  5
37F
330
A
100
AcDbEntity
  8
0
  6
Continuous
 62
     7
100
AcDbLine
 10
998.8785807934178
 20
-322.2681363022813
 30
0.0
 11
1003.378580793418
 21
-322.2681363022813
 31
0.0
  0
LINE
  5
380
330
A
100
AcDbEntity
  8
0
  6
Continuous
 62
     7
100
AcDbLine
 10
1003.436568156329
 20
-292.2681363022811
 30
0.0
 11
998.8785807934178
 21
-292.2681363022811
 31
0.0
  0
LINE
  5
381
330
A
100
AcDbEntity
  8
0
  6
Continuous
 62
     7
100
AcDbLine
 10
1018.878580793417
 20
-292.2681363022811
 30
0.0
 11
1014.319379895134
 21
-292.2681363022811
 31
0.0
  0
LINE
  5
382
330
A
100
AcDbEntity
  8
0
  6
Continuous
 62
     7
100
AcDbLine
 10
1003.378580793418
 20
-321.1764185164085
 30
0.0
 11
1003.378580793418
 21
-346.8254752519337
 31
0.0
  0
LINE
  5
383
330
A
100
AcDbEntity
  8
0
  6
Continuous
 62
     7
100
AcDbLine
 10
1014.378580793418
 20
-346.8254752519337
 30
0.0
 11
1014.378580793418
 21
-321.2234220392342
 31
0.0
  0
LINE
  5
384
330
A
100
AcDbEntity
  8
0
  6
Continuous
 62
     7
100
AcDbLine
 10
1014.378580793418
 20
568.8957368070396
 30
0.0
 11
1014.378580793418
 21
569.6607958858534
 31
0.0
  0
LINE
  5
385
330
A
100
AcDbEntity
  8
0
  6
Continuous
 62
     7
100
AcDbLine
 10
1003.378580793417
 20
569.6607958858534
 30
0.0
 11
1003.378580793417
 21
568.7821078905649
 31
0.0
  0
LINE
  5
386
330
A
100
AcDbEntity
  8
0
  6
Continuous
 62
     7
100
AcDbLine
 10
1014.378580793418
 20
557.7318636977184
 30
0.0
 11
1014.378580793418
 21
561.0853553606848
 31
0.0
  0
LINE
  5
387
330
A
100
AcDbEntity
  8
0
  6
Continuous
 62
     7
100
AcDbLine
 10
1003.378580793417
 20
561.0853553606848
 30
0.0
 11
1003.378580793417
 21
557.7318636977184
 31
0.0
  0
LINE
  5
388
330
A
100
AcDbEntity
  8
0
  6
Continuous
 62
     7
100
AcDbLine
 10
1003.378580793417
 20
-262.2681363022813
 30
0.0
 11
1003.378580793417
 21
-292.2890531751655
 31
0.0
  0
LINE
  5
389
330
A
100
AcDbEntity
  8
0
  6
Continuous
 62
     7
100
AcDbLine
 10
1014.378580793418
 20
-292.2895614263433
 30
0.0
 11
1014.378580793418
 21
-262.2681363022813
 31
0.0
  0
LINE
  5
38A
330
A
100
AcDbEntity
  8
0
  6
Continuous
 62
     7
100
AcDbLine
 10
1018.878580793417
 20
-312.2681363022814
 30
0.0
 11
1023.878580793417
 21
-312.2681363022814
 31
0.0
  0
LINE
  5
38B
330
A
100
AcDbEntity
  8
0
  6
Continuous
 62
     7
100
AcDbLine
 10
1023.878580793417
 20
-302.2681363022811
 30
0.0
 11
1018.878580793417
 21
-302.2681363022811
 31
0.0
  0
LINE
  5
38C
330
A
100
AcDbEntity
  8
0
  6
Continuous
 62
     7
100
AcDbLine
 10
1001.878580793418
 20
557.7318636977184
 30
0.0
 11
1001.878580793418
 21
518.5872027570463
 31
0.0
  0
LINE
  5
38D
330
A
100
AcDbEntity
  8
0
  6
Continuous
 62
     7
100
AcDbLine
 10
1001.878580793418
 20
248.9359912904877
 30
0.0
 11
1001.878580793418
 21
-262.2681363022813
 31
0.0
  0
LINE
  5
38E
330
A
100
AcDbEntity
  8
0
  6
Continuous
 62
     7
100
AcDbLine
 10
1015.878580793417
 20
-262.2681363022813
 30
0.0
 11
1015.878580793417
 21
248.9359912904877
 31
0.0
  0
LINE
  5
38F
330
A
100
AcDbEntity
  8
0
  6
Continuous
 62
     7
100
AcDbLine
 10
1015.878580793417
 20
518.5872027570463
 30
0.0
 11
1015.878580793417
 21
557.7318636977184
 31
0.0
  0
LINE
  5
390
330
A
100
AcDbEntity
  8
0
  6
Continuous
 62
     7
100
AcDbLine
 10
1168.878580793419
 20
249.1745247480662
 30
0.0
 11
1114.841397931158
 21
469.1745247480664
 31
0.0
  0
LINE
  5
391
330
A
100
AcDbEntity
  8
0
  6
Continuous
 62
     7
100
AcDbLine
 10
902.9157636556814
 20
469.1745247480664
 30
0.0
 11
848.8785807934203
 21
249.1745247480662
 31
0.0
  0
LINE
  5
392
330
A
100
AcDbEntity
  8
0
  6
Continuous
 62
     7
100
AcDbLine
 10
848.8785807934203
 20
249.1745247480662
 30
0.0
 11
849.8497150733291
 21
248.9359912904877
 31
0.0
  0
LINE
  5
393
330
A
100
AcDbEntity
  8
0
  6
Continuous
 62
     7
100
AcDbLine
 10
1167.90744651351
 20
248.9359912904877
 30
0.0
 11
1168.878580793419
 21
249.1745247480662
 31
0.0
  0
ARC
  5
394
330
A
100
AcDbEntity
  8
0
  6
Continuous
 62
     7
100
AcDbCircle
 10
1008.878580793418
 20
-390.8254752519336
 30
0.0
 40
11.00000000000011
100
AcDbArc
 50
180.0000000000004
 51
0.0
  0
LINE
  5
395
330
A
100
AcDbEntity
  8
0
  6
Continuous
 62
     7
100
AcDbLine
 10
997.8785807934185
 20
-346.8254752519337
 30
0.0
 11
997.8785807934185
 21
-390.8254752519336
 31
0.0
  0
LINE
  5
396
330
A
100
AcDbEntity
  8
0
  6
Continuous
 62
     7
100
AcDbLine
 10
1019.878580793418
 20
-390.8254752519336
 30
0.0
 11
1019.878580793418
 21
-346.8254752519337
 31
0.0
  0
LWPOLYLINE
  5
397
330
A
100
AcDbEntity
  8
0
  6
Continuous
 62
     7
100
AcDbPolyline
 90
        5
 70
   128
 43
0.0
 10
1007.462815610075
 20
602.0872027570459
 10
1005.881174949172
 20
603.2936690683831
 10
1004.350526474116
 20
605.4743956798359
 10
1003.545651666817
 20
607.8869801613045
 10
1003.55442989362
 20
608.3998051170464
  0
LWPOLYLINE
  5
39E
330
A
100
AcDbEntity
  8
0
  6
Continuous
 62
     7
100
AcDbPolyline
 90
       10
 70
   128
 43
0.0
 10
1014.254343003427
 20
608.4256077495028
 10
1014.260317306051
 20
608.3697691319271
 10
1013.937006521212
 20
606.7387580465269
 10
1013.058650571425
 20
604.8512318151878
 10
1011.416425965438
 20
602.8516244684764
 10
1010.294345976764
 20
602.0872027570459
 10
1009.255853150723
 20
601.765313478484
 10
1008.878580793419
 20
601.7406227927088
 10
1007.810577519588
 20
601.9381127710056
 10
1007.462815610075
 20
602.0872027570459
  0
LINE
  5
3AA
330
A
100
AcDbEntity
  8
0
  6
Continuous
 62
     7
100
AcDbLine
 10
986.3785807934203
 20
511.0872027570464
 30
0.0
 11
1031.378580793419
 21
511.0872027570464
 31
0.0
  0
LINE
  5
3AB
330
A
100
AcDbEntity
  8
0
  6
Continuous
 62
     7
100
AcDbLine
 10
993.8785807934195
 20
518.5872027570463
 30
0.0
 11
1023.87858079342
 21
518.5872027570463
 31
0.0
  0
LINE
  5
3AC
330
A
100
AcDbEntity
  8
0
  6
Continuous
 62
     7
100
AcDbLine
 10
1023.87858079342
 20
602.0872027570463
 30
0.0
 11
1023.87858079342
 21
580.0872027570464
 31
0.0
  0
LINE
  5
3AD
330
A
100
AcDbEntity
  8
0
  6
Continuous
 62
     7
100
AcDbLine
 10
1023.87858079342
 20
624.0872027570463
 30
0.0
 11
1023.87858079342
 21
602.0872027570463
 31
0.0
  0
LINE
  5
3AE
330
A
100
AcDbEntity
  8
0
  6
Continuous
 62
     7
100
AcDbLine
 10
1028.878580793419
 20
602.0872027570463
 30
0.0
 11
1028.878580793419
 21
624.0872027570463
 31
0.0
  0
LINE
  5
3AF
330
A
100
AcDbEntity
  8
0
  6
Continuous
 62
     7
100
AcDbLine
 10
1028.878580793419
 20
580.0872027570464
 30
0.0
 11
1028.878580793419
 21
602.0872027570463
 31
0.0
  0
LWPOLYLINE
  5
3B0
330
A
100
AcDbEntity
  8
0
  6
Continuous
 62
     7
100
AcDbPolyline
 90
       19
 70
   128
 43
0.0
 10
1003.298938204919
 20
591.410124505013
 10
1003.658220267658
 20
593.0606062187305
 10
1004.964564803812
 20
595.6363067451592
 10
1006.202266135459
 20
597.6203861091814
 10
1007.588442942054
 20
599.6579979310946
 10
1008.116572538403
 20
600.3879513929199
 10
1008.605404221395
 20
600.9655136100239
 10
1008.70824945247
 20
601.0462831722521
 10
1008.829425334542
 20
601.0993687315115
 10
1008.912449971542
 20
601.102043732732
 10
1008.991669521981
 20
601.0780208035594
 10
1009.127456160648
 20
600.9869086631422
 10
1009.612184023964
 20
600.4255471464689
 10
1011.270946758709
 20
598.0451776134694
 10
1012.536101214207
 20
596.066976918996
 10
1013.590949190205
 20
594.1872867764289
 10
1014.355744400978
 20
592.2625757615231
 10
1014.458223381919
 20
591.4101245050128
 10
1014.45822338192
 20
591.4101245050148
  0
LINE
  5
3C5
330
A
100
AcDbEntity
  8
0
  6
Continuous
 62
     7
100
AcDbLine
 10
1018.878580793419
 20
602.0872027570463
 30
0.0
 11
1018.878580793419
 21
614.5872027570463
 31
0.0
  0
LINE
  5
3C6
330
A
100
AcDbEntity
  8
0
  6
Continuous
 62
     7
100
AcDbLine
 10
1018.878580793419
 20
589.5872027570464
 30
0.0
 11
1018.878580793419
 21
602.0872027570463
 31
0.0
  0
LINE
  5
3C7
330
A
100
AcDbEntity
  8
0
  6
Continuous
 62
     7
100
AcDbLine
 10
998.8785807934196
 20
602.0872027570463
 30
0.0
 11
998.8785807934194
 21
589.5872027570464
 31
0.0
  0
LINE
  5
3C8
330
A
100
AcDbEntity
  8
0
  6
Continuous
 62
     7
100
AcDbLine
 10
998.8785807934194
 20
614.5872027570463
 30
0.0
 11
998.8785807934196
 21
602.0872027570463
 31
0.0
  0
LINE
  5
3C9
330
A
100
AcDbEntity
  8
0
  6
Continuous
 62
     7
100
AcDbLine
 10
1005.37858079342
 20
538.5872027570543
 30
0.0
 11
1012.378580793418
 21
538.5872027570543
 31
0.0
  0
LINE
  5
3CA
330
A
100
AcDbEntity
  8
0
  6
Continuous
 62
     7
100
AcDbLine
 10
1023.878580793417
 20
-285.2681363022812
 30
0.0
 11
1023.878580793417
 21
-329.2681363022812
 31
0.0
  0
LINE
  5
3CB
330
A
100
AcDbEntity
  8
0
  6
Continuous
 62
     7
100
AcDbLine
 10
1028.878580793417
 20
-285.2681363022812
 30
0.0
 11
1028.878580793417
 21
-329.2681363022812
 31
0.0
  0
LWPOLYLINE
  5
3CC
330
A
100
AcDbEntity
  8
0
  6
Continuous
 62
     7
100
AcDbPolyline
 90
       11
 70
   128
 43
0.0
 10
1014.378580793418
 20
-321.2234220392342
 10
1014.027973307596
 20
-320.2973733808764
 10
1013.076705637859
 20
-319.2279962973267
 10
1011.408132539331
 20
-318.0929681013335
 10
1010.060621518987
 20
-317.6030750232865
 10
1008.543575769768
 20
-317.4771794022934
 10
1007.290289023723
 20
-317.7132428059425
 10
1005.829888468093
 20
-318.3784765001622
 10
1004.372839063065
 20
-319.5199404575529
 10
1003.525439353162
 20
-320.6572644263542
 10
1003.484561723371
 20
-321.1764185164085
  0
LINE
  5
3D9
330
A
100
AcDbEntity
  8
0
  6
Continuous
 62
     7
100
AcDbLine
 10
998.8785807934178
 20
-292.2681363022811
 30
0.0
 11
998.8785807934178
 21
-322.2681363022813
 31
0.0
  0
LINE
  5
3DA
330
A
100
AcDbEntity
  8
0
  6
Continuous
 62
     7
100
AcDbLine
 10
1018.878580793417
 20
-292.2681363022811
 30
0.0
 11
1018.878580793417
 21
-322.2681363022813
 31
0.0
  0
LWPOLYLINE
  5
3DB
330
A
100
AcDbEntity
  8
0
  6
Continuous
 62
     7
100
AcDbPolyline
 90
        6
 70
   128
 43
0.0
 10
1008.878580793417
 20
-293.3128505653283
 10
1007.128768584938
 20
-293.2035764881616
 10
1005.577963091312
 20
-292.927840725988
 10
1004.323602484298
 20
-292.5882920457316
 10
1003.54871341397
 20
-292.3296796791054
 10
1003.436568156329
 20
-292.2891764393741
  0
LWPOLYLINE
  5
3E3
330
A
100
AcDbEntity
  8
0
  6
Continuous
 62
     7
100
AcDbPolyline
 90
        6
 70
   128
 43
0.0
 10
1014.319379895134
 20
-292.2896512625706
 10
1014.231246461222
 20
-292.3215303413517
 10
1013.575741532448
 20
-292.5435541687099
 10
1012.414046649471
 20
-292.8719729654986
 10
1010.791552349789
 20
-293.1823470032932
 10
1008.878580793417
 20
-293.3128505653283
  0
LINE
  5
3EB
330
A
100
AcDbEntity
  8
0
  6
Continuous
 62
     7
100
AcDbLine
 10
1012.726946336784
 20
-262.2681363022813
 30
0.0
 11
1005.030215250051
 21
-262.2681363022813
 31
0.0
  0
LINE
  5
3EC
330
A
100
AcDbEntity
  8
0
  6
Continuous
 62
     7
100
AcDbLine
 10
1005.030215250051
 20
-262.2681363022813
 30
0.0
 11
1002.143941092526
 21
-262.2681363022813
 31
0.0
  0
LINE
  5
3ED
330
A
100
AcDbEntity
  8
0
  6
Continuous
 62
     7
100
AcDbLine
 10
1004.624853984734
 20
557.7318636977184
 30
0.0
 11
1002.143941092526
 21
557.7318636977184
 31
0.0
  0
LINE
  5
3EE
330
A
100
AcDbEntity
  8
0
  6
Continuous
 62
     7
100
AcDbLine
 10
1015.613220494309
 20
-262.2681363022813
 30
0.0
 11
1012.726946336784
 21
-262.2681363022813
 31
0.0
  0
LINE
  5
3EF
330
A
100
AcDbEntity
  8
0
  6
Continuous
 62
     7
100
AcDbLine
 10
1015.613220494309
 20
557.7318636977184
 30
0.0
 11
1013.132307602106
 21
557.7318636977184
 31
0.0
  0
LWPOLYLINE
  5
3F0
330
A
100
AcDbEntity
  8
0
  6
Continuous
 62
     7
100
AcDbPolyline
 90
        4
 70
   128
 43
0.0
 10
1003.378580793417
 20
568.9009813520028
 10
1003.530133862945
 20
567.1228645755339
 10
1003.751041867031
 20
565.0030595982421
 10
1003.538374162729
 20
562.5897280739876
  0
LWPOLYLINE
  5
3F6
330
A
100
AcDbEntity
  8
0
  6
Continuous
 62
     7
100
AcDbPolyline
 90
        4
 70
   128
 43
0.0
 10
1014.218787424106
 20
562.5897280739876
 10
1014.00294876516
 20
564.5996617302111
 10
1014.198186119831
 20
566.9117594554119
 10
1014.378580793418
 20
568.9009813520028
  0
LWPOLYLINE
  5
3FC
330
A
100
AcDbEntity
  8
0
  6
Continuous
 62
     7
100
AcDbPolyline
 90
        3
 70
   128
 43
0.0
 10
1014.378580793418
 20
561.0853553606848
 10
1014.26113213758
 20
562.3223871407962
 10
1014.218787424106
 20
562.5897280739876
  0
LINE
  5
401
330
A
100
AcDbEntity
  8
0
  6
Continuous
 62
     7
100
AcDbLine
 10
1003.538374162729
 20
562.5897280739876
 30
0.0
 11
1003.378580793417
 21
561.0853553606848
 31
0.0
  0
LINE
  5
402
330
A
100
AcDbEntity
  8
0
  6
Continuous
 62
     7
100
AcDbLine
 10
1003.378580793417
 20
568.9009813520028
 30
0.0
 11
1003.378580793417
 21
561.0853553606848
 31
0.0
  0
LINE
  5
403
330
A
100
AcDbEntity
  8
0
  6
Continuous
 62
     7
100
AcDbLine
 10
1014.378580793418
 20
568.9009813520028
 30
0.0
 11
1014.378580793418
 21
561.0853553606848
 31
0.0
  0
LINE
  5
404
330
A
100
AcDbEntity
  8
0
  6
Continuous
 62
     7
100
AcDbLine
 10
1002.143941092526
 20
-262.2681363022813
 30
0.0
 11
1001.878580793418
 21
-262.2681363022813
 31
0.0
  0
LINE
  5
405
330
A
100
AcDbEntity
  8
0
  6
Continuous
 62
     7
100
AcDbLine
 10
1015.878580793417
 20
-262.2681363022813
 30
0.0
 11
1015.613220494309
 21
-262.2681363022813
 31
0.0
  0
LINE
  5
406
330
A
100
AcDbEntity
  8
0
  6
Continuous
 62
     7
100
AcDbLine
 10
1002.143941092526
 20
557.7318636977184
 30
0.0
 11
1001.878580793418
 21
557.7318636977184
 31
0.0
  0
LINE
  5
407
330
A
100
AcDbEntity
  8
0
  6
Continuous
 62
     7
100
AcDbLine
 10
1015.878580793417
 20
557.7318636977184
 30
0.0
 11
1015.613220494309
 21
557.7318636977184
 31
0.0
  0
LINE
  5
408
330
A
100
AcDbEntity
  8
0
  6
Continuous
 62
     7
100
AcDbLine
 10
902.9157636556814
 20
469.1745247480664
 30
0.0
 11
1114.841397931158
 21
469.1745247480664
 31
0.0
  0
LINE
  5
409
330
A
100
AcDbEntity
  8
0
  6
Continuous
 62
     7
100
AcDbLine
 10
848.8785807934203
 20
249.1745247480662
 30
0.0
 11
1168.878580793419
 21
249.1745247480662
 31
0.0
  0
LINE
  5
40A
330
A
100
AcDbEntity
  8
0
  6
Continuous
 62
     7
100
AcDbLine
 10
849.8497150733291
 20
248.9359912904877
 30
0.0
 11
1167.90744651351
 21
248.9359912904877
 31
0.0
  0
LINE
  5
40B
330
A
100
AcDbEntity
  8
0
  6
Continuous
 62
     7
100
AcDbLine
 10
997.8785807934185
 20
-346.8254752519337
 30
0.0
 11
1019.878580793418
 21
-346.8254752519337
 31
0.0
  0
LINE
  5
40C
330
A
100
AcDbEntity
  8
0
  6
Continuous
 62
     7
100
AcDbLine
 10
1001.378580793418
 20
-346.8254752519337
 30
0.0
 11
1001.378580793417
 21
-334.0202261572666
 31
0.0
  0
LINE
  5
40D
330
A
100
AcDbEntity
  8
0
  6
Continuous
 62
     7
100
AcDbLine
 10
1016.378580793418
 20
-334.0202261572666
 30
0.0
 11
1016.378580793418
 21
-346.8254752519337
 31
0.0
  0
ARC
  5
40E
330
A
100
AcDbEntity
  8
0
  6
Continuous
 62
     7
100
AcDbCircle
 10
1008.878580793417
 20
-333.8254752519336
 30
0.0
 40
7.500000000000113
100
AcDbArc
 50
137.1665719339305
 51
180.0000000000004
  0
LINE
  5
40F
330
A
100
AcDbEntity
  8
0
  6
Continuous
 62
     7
100
AcDbLine
 10
1001.378580793417
 20
-334.0202261572666
 30
0.0
 11
1001.378580793417
 21
-333.8254752519336
 31
0.0
  0
ARC
  5
410
330
A
100
AcDbEntity
  8
0
  6
Continuous
 62
     7
100
AcDbCircle
 10
1008.878580793417
 20
-333.8254752519336
 30
0.0
 40
7.500000000000005
100
AcDbArc
 50
0.0
 51
42.8334280660673
  0
LINE
  5
411
330
A
100
AcDbEntity
  8
0
  6
Continuous
 62
     7
100
AcDbLine
 10
1016.378580793418
 20
-333.8254752519336
 30
0.0
 11
1016.378580793418
 21
-334.0202261572666
 31
0.0
  0
ARC
  5
412
330
A
100
AcDbEntity
  8
0
  6
Continuous
 62
     7
100
AcDbCircle
 10
1008.878580793417
 20
-326.3254752519336
 30
0.0
 40
57.5
100
AcDbArc
 50
95.48885756903635
 51
180.0000000000004
  0
ARC
  5
413
330
A
100
AcDbEntity
  8
0
  6
Continuous
 62
     7
100
AcDbCircle
 10
1008.878580793417
 20
-326.3254752519336
 30
0.0
 40
57.50000000000001
100
AcDbArc
 50
281.0289142339501
 51
84.51114243096332
  0
ARC
  5
414
330
A
100
AcDbEntity
  8
0
  6
Continuous
 62
     7
100
AcDbCircle
 10
1008.878580793417
 20
-326.3254752519336
 30
0.0
 40
57.50000000000007
100
AcDbArc
 50
180.0000000000004
 51
258.9710857660535
  0
LWPOLYLINE
  5
415
330
A
100
AcDbEntity
  8
0
  6
PHANTOM
 62
     7
100
AcDbPolyline
 90
       10
 70
   128
 43
0.0
 10
1008.87858079342
 20
709.5608539058088
 10
1006.987312590052
 20
709.6592125657955
 10
1005.164399747206
 20
709.9507336075129
 10
1003.475727084574
 20
710.4248807009625
 10
1001.982327631977
 20
711.0645169348088
 10
1000.738176736648
 20
711.8465241890048
 10
999.7882412535465
 20
712.7426386838837
 10
999.1668543260644
 20
713.7204725067972
 10
998.896474496769
 20
714.7446841956638
 10
998.8880097654581
 20
714.8735837681743
  0
LWPOLYLINE
  5
421
330
A
100
AcDbEntity
  8
0
  6
PHANTOM
 62
     7
100
AcDbPolyline
 90
       10
 70
   128
 43
0.0
 10
1018.869112516754
 20
714.8726913798658
 10
1018.860687090071
 20
714.7446841956638
 10
1018.590307260775
 20
713.720472506797
 10
1017.968920333293
 20
712.7426386838837
 10
1017.018984850191
 20
711.8465241890048
 10
1015.774833954862
 20
711.0645169348088
 10
1014.281434502265
 20
710.4248807009625
 10
1012.592761839633
 20
709.9507336075129
 10
1010.769848996787
 20
709.6592125657955
 10
1008.87858079342
 20
709.5608539058088
  0
LINE
  5
42D
330
A
100
AcDbEntity
  8
0
  6
PHANTOM
 62
     7
100
AcDbLine
 10
1005.378580793419
 20
520.0872027570463
 30
0.0
 11
1012.378580793419
 21
520.0872027570463
 31
0.0
  0
LWPOLYLINE
  5
42E
330
A
100
AcDbEntity
  8
0
  6
PHANTOM
 62
     7
100
AcDbPolyline
 90
        4
 70
   128
 43
0.0
 10
1014.378580793418
 20
569.6607958858534
 10
1014.191172838008
 20
568.6542260254462
 10
1013.641720514232
 20
567.7162522375904
 10
1013.519794701482
 20
567.5740360219036
  0
LWPOLYLINE
  5
434
330
A
100
AcDbEntity
  8
0
  6
PHANTOM
 62
     7
100
AcDbPolyline
 90
        4
 70
   128
 43
0.0
 10
1004.237366885356
 20
567.5740360218993
 10
1004.115441072603
 20
567.7162522375904
 10
1003.565988748827
 20
568.6542260254462
 10
1003.378580793417
 20
569.6607958858534
  0
LINE
  5
43A
330
A
100
AcDbEntity
  8
0
  6
PHANTOM
 62
     7
100
AcDbLine
 10
1012.726946336784
 20
-262.2681363022813
 30
0.0
 11
1012.726946336784
 21
248.9359912904877
 31
0.0
  0
LINE
  5
43B
330
A
100
AcDbEntity
  8
0
  6
PHANTOM
 62
     7
100
AcDbLine
 10
1012.726946336784
 20
519.1260898197229
 30
0.0
 11
1012.726946336784
 21
547.4356875585547
 31
0.0
  0
LINE
  5
43C
330
A
100
AcDbEntity
  8
0
  6
PHANTOM
 62
     7
100
AcDbLine
 10
1005.030215250051
 20
-262.2681363022813
 30
0.0
 11
1005.030215250051
 21
248.9359912904877
 31
0.0
  0
LINE
  5
43D
330
A
100
AcDbEntity
  8
0
  6
PHANTOM
 62
     7
100
AcDbLine
 10
1005.030215250051
 20
519.1260898197186
 30
0.0
 11
1005.030215250051
 21
547.4356875586448
 31
0.0
  0
LINE
  5
43E
330
A
100
AcDbEntity
  8
0
  6
PHANTOM
 62
     7
100
AcDbLine
 10
1002.143941092526
 20
-262.2681363022813
 30
0.0
 11
1002.143941092526
 21
248.9359912904877
 31
0.0
  0
LINE
  5
43F
330
A
100
AcDbEntity
  8
0
  6
PHANTOM
 62
     7
100
AcDbLine
 10
1002.143941092526
 20
518.5872027570463
 30
0.0
 11
1002.143941092526
 21
557.7318636977184
 31
0.0
  0
LINE
  5
440
330
A
100
AcDbEntity
  8
0
  6
PHANTOM
 62
     7
100
AcDbLine
 10
1015.613220494309
 20
-262.2681363022813
 30
0.0
 11
1015.613220494309
 21
248.9359912904877
 31
0.0
  0
LINE
  5
441
330
A
100
AcDbEntity
  8
0
  6
PHANTOM
 62
     7
100
AcDbLine
 10
1015.613220494309
 20
518.5872027570463
 30
0.0
 11
1015.613220494309
 21
557.7318636977184
 31
0.0
  0
LINE
  5
442
330
A
100
AcDbEntity
  8
0
  6
PHANTOM
 62
     7
100
AcDbLine
 10
1014.218787424106
 20
562.5897280739876
 30
0.0
 11
1013.323562105108
 21
562.5897280739876
 31
0.0
  0
LINE
  5
443
330
A
100
AcDbEntity
  8
0
  6
PHANTOM
 62
     7
100
AcDbLine
 10
1004.433599481731
 20
562.5897280739876
 30
0.0
 11
1003.538374162729
 21
562.5897280739876
 31
0.0
  0
LINE
  5
444
330
A
100
AcDbEntity
  8
0
  6
PHANTOM
 62
     7
100
AcDbLine
 10
997.8785807934185
 20
-390.8254752519336
 30
0.0
 11
1019.878580793418
 21
-390.8254752519336
 31
0.0
  0
LWPOLYLINE
  5
445
330
A
100
AcDbEntity
  8
0
  6
PHANTOM
 62
     7
100
AcDbPolyline
 90
        5
 70
   128
 43
0.0
 10
1003.378580793418
 20
-329.3184221103067
 10
1002.642558701148
 20
-330.1780428271893
 10
1001.949484299583
 20
-331.3736842492554
 10
1001.522691190393
 20
-332.6710307926486
 10
1001.378580793417
 20
-334.0202261572666
  0
LWPOLYLINE
  5
44C
330
A
100
AcDbEntity
  8
0
  6
PHANTOM
 62
     7
100
AcDbPolyline
 90
        5
 70
   128
 43
0.0
 10
1016.378580793418
 20
-334.0202261572666
 10
1016.234470396442
 20
-332.6710307926486
 10
1015.807677287252
 20
-331.3736842492554
 10
1015.114602885687
 20
-330.1780428271893
 10
1014.378580793418
 20
-329.3184221103067
  0
ARC
  5
453
330
A
100
AcDbEntity
  8
0
  6
PHANTOM
 62
     7
100
AcDbCircle
 10
1008.878580793417
 20
-333.8254752519336
 30
0.0
 40
10.0
100
AcDbArc
 50
123.3670129692294
 51
180.0000000000004
  0
LINE
  5
454
330
A
100
AcDbEntity
  8
0
  6
PHANTOM
 62
     7
100
AcDbLine
 10
998.8785807934176
 20
-333.8254752519336
 30
0.0
 11
1001.378580793417
 21
-333.8254752519336
 31
0.0
  0
LINE
  5
455
330
A
100
AcDbEntity
  8
0
  6
PHANTOM
 62
     7
100
AcDbLine
 10
998.8785807934176
 20
-346.8254752519337
 30
0.0
 11
998.8785807934176
 21
-333.8254752519336
 31
0.0
  0
ARC
  5
456
330
A
100
AcDbEntity
  8
0
  6
PHANTOM
 62
     7
100
AcDbCircle
 10
1008.878580793417
 20
-333.8254752519336
 30
0.0
 40
10.0
100
AcDbArc
 50
0.0
 51
56.63298703076669
  0
LINE
  5
457
330
A
100
AcDbEntity
  8
0
  6
PHANTOM
 62
     7
100
AcDbLine
 10
1016.378580793417
 20
-333.8254752519336
 30
0.0
 11
1018.878580793417
 21
-333.8254752519336
 31
0.0
  0
LINE
  5
458
330
A
100
AcDbEntity
  8
0
  6
PHANTOM
 62
     7
100
AcDbLine
 10
1018.878580793417
 20
-333.8254752519336
 30
0.0
 11
1018.878580793417
 21
-346.8254752519337
 31
0.0
  0
ARC
  5
459
330
A
100
AcDbEntity
  8
0
  6
PHANTOM
 62
     7
100
AcDbCircle
 10
1008.878580793417
 20
-326.3254752519336
 30
0.0
 40
50.49999999999993
100
AcDbArc
 50
96.25253702998223
 51
180.0000000000004
  0
ARC
  5
45A
330
A
100
AcDbEntity
  8
0
  6
PHANTOM
 62
     7
100
AcDbCircle
 10
1008.878580793417
 20
-326.3254752519336
 30
0.0
 40
50.49999999999999
100
AcDbArc
 50
282.5811279203857
 51
83.7474629700174
  0
ARC
  5
45B
330
A
100
AcDbEntity
  8
0
  6
PHANTOM
 62
     7
100
AcDbCircle
 10
1008.878580793417
 20
-326.3254752519336
 30
0.0
 40
50.49999999999999
100
AcDbArc
 50
180.0000000000004
 51
257.4188720796183
  0
ENDSEC
  0
SECTION
  2
OBJECTS
  0
DICTIONARY
  5
19
330
0
100
AcDbDictionary
281
     1
  3
ACAD_COLOR
350
460
  3
ACAD_GROUP
350
1A
  3
ACAD_LAYOUT
350
461
  3
ACAD_MATERIAL
350
45F
  3
ACAD_MLINESTYLE
350
1B
  3
ACAD_PLOTSETTINGS
350
462
  3
ACAD_PLOTSTYLENAME
350
45D
  3
AcDbVariableDictionary
350
473
  3
ASE_INDEX_DICTIONARY
350
468
  0
DICTIONARY
  5
460
102
{ACAD_REACTORS
330
19
102
}
330
19
100
AcDbDictionary
281
     1
  0
DICTIONARY
  5
1A
102
{ACAD_REACTORS
330
19
102
}
330
19
100
AcDbDictionary
281
     1
  0
DICTIONARY
  5
461
102
{ACAD_REACTORS
330
19
102
}
330
19
100
AcDbDictionary
281
     1
  3
Layout1
350
464
  3
Model
350
463
  0
DICTIONARY
  5
45F
102
{ACAD_REACTORS
330
19
102
}
330
19
100
AcDbDictionary
281
     1
  0
DICTIONARY
  5
1B
102
{ACAD_REACTORS
330
19
102
}
330
19
100
AcDbDictionary
281
     1
  3
STANDARD
350
1C
  0
DICTIONARY
  5
462
102
{ACAD_REACTORS
330
19
102
}
330
19
100
AcDbDictionary
281
     1
  0
ACDBDICTIONARYWDFLT
  5
45D
102
{ACAD_REACTORS
330
19
102
}
330
19
100
AcDbDictionary
281
     1
  3
Normal
350
45E
100
AcDbDictionaryWithDefault
340
45E
  0
DICTIONARY
  5
473
102
{ACAD_REACTORS
330
19
102
}
330
19
100
AcDbDictionary
281
     1
  3
DIMASSOC
350
474
  3
PROJECTNAME
350
475
  0
DICTIONARY
  5
468
102
{ACAD_REACTORS
330
19
102
}
330
19
100
AcDbDictionary
281
     1
  3
ASEBlockHierarchyIndexRecord
350
46A
1001
DCO15
1040
1552229394.171
  0
LAYOUT
  5
464
102
{ACAD_REACTORS
330
461
102
}
330
461
100
AcDbPlotSettings
  1

  2
ProgeSOFT PDF Wizard
  4

  6

 40
0.0
 41
0.0
 42
0.0
 43
0.0
 44
0.0
 45
0.0
 46
0.0
 47
0.0
 48
0.0
 49
0.0
140
0.0
141
0.0
142
1.0
143
1.0
 70
   688
 72
     0
 73
     0
 74
     5
  7

 75
    16
147
1.0
 76
     0
 77
     2
 78
   300
148
0.0
149
0.0
100
AcDbLayout
  1
Layout1
 70
     1
 71
     1
 10
0.0
 20
0.0
 11
12.0
 21
9.0
 12
0.0
 22
0.0
 32
0.0
 14
1.000000000000000E+20
 24
1.000000000000000E+20
 34
1.000000000000000E+20
 15
-1.000000000000000E+20
 25
-1.000000000000000E+20
 35
-1.000000000000000E+20
146
0.0
 13
0.0
 23
0.0
 33
0.0
 16
1.0
 26
0.0
 36
0.0
 17
0.0
 27
1.0
 37
0.0
 76
     0
330
B
  0
LAYOUT
  5
463
102
{ACAD_REACTORS
330
461
102
}
330
461
100
AcDbPlotSettings
  1

  2
ProgeSOFT PDF Wizard
  4

  6

 40
0.0
 41
0.0
 42
0.0
 43
0.0
 44
0.0
 45
0.0
 46
0.0
 47
0.0
 48
0.0
 49
0.0
140
0.0
141
0.0
142
1.0
143
1.0
 70
  1712
 72
     0
 73
     0
 74
     0
  7

 75
     0
147
1.0
 76
     0
 77
     2
 78
   300
148
0.0
149
0.0
100
AcDbLayout
  1
Model
 70
     1
 71
     0
 10
0.0
 20
0.0
 11
12.0
 21
9.0
 12
0.0
 22
0.0
 32
0.0
 14
0.0
 24
0.0
 34
0.0
 15
0.0
 25
0.0
 35
0.0
146
0.0
 13
0.0
 23
0.0
 33
0.0
 16
1.0
 26
0.0
 36
0.0
 17
0.0
 27
1.0
 37
0.0
 76
     0
330
A
  0
MLINESTYLE
  5
1C
102
{ACAD_REACTORS
330
1B
102
}
330
1B
100
AcDbMlineStyle
  2
STANDARD
 70
     0
  3

 62
     0
 51
90.0
 52
90.0
 71
     2
 49
0.5
 62
   256
  6
BYLAYER
 49
-0.5
 62
   256
  6
BYLAYER
  0
ACDBPLACEHOLDER
  5
45E
102
{ACAD_REACTORS
330
45D
102
}
330
45D
  0
DICTIONARYVAR
  5
474
102
{ACAD_REACTORS
330
473
102
}
330
473
100
DictionaryVariables
280
     0
  1
1
  0
DICTIONARYVAR
  5
475
102
{ACAD_REACTORS
330
473
102
}
330
473
100
DictionaryVariables
280
     0
  1

  0
XRECORD
  5
46A
102
{ACAD_REACTORS
330
468
102
}
330
468
100
AcDbXrecord
280
     1
  0
ENDSEC
  0
EOF
