  0
SECTION
  2
HEADER
  9
$ACADVER
  1
AC1015
  9
$ACADMAINTVER
 70
    20
  9
$DWGCODEPAGE
  3
ANSI_1252
  9
$INSBASE
 10
0.0
 20
0.0
 30
0.0
  9
$EXTMIN
 10
-30.87732494738995
 20
-956.8684688578926
 30
0.0
  9
$EXTMAX
 10
1028.591048706574
 20
432.5283505279307
 30
0.0
  9
$LIMMIN
 10
0.0
 20
0.0
  9
$LIMMAX
 10
0.0
 20
0.0
  9
$ORTHOMODE
 70
     0
  9
$REGENMODE
 70
     1
  9
$FILLMODE
 70
     1
  9
$QTEXTMODE
 70
     0
  9
$MIRRTEXT
 70
     1
  9
$LTSCALE
 40
1.0
  9
$ATTMODE
 70
     1
  9
$TEXTSIZE
 40
0.0
  9
$TRACEWID
 40
0.05
  9
$TEXTSTYLE
  7
STANDARD
  9
$CLAYER
  8
0
  9
$CELTYPE
  6
CONTINUOUS
  9
$CECOLOR
 62
   256
  9
$CELTSCALE
 40
1.0
  9
$DISPSILH
 70
     0
  9
$DIMSCALE
 40
1.0
  9
$DIMASZ
 40
6.0
  9
$DIMEXO
 40
1.0
  9
$DIMDLI
 40
0.38
  9
$DIMRND
 40
0.0
  9
$DIMDLE
 40
1.0
  9
$DIMEXE
 40
0.18
  9
$DIMTP
 40
0.0
  9
$DIMTM
 40
0.0
  9
$DIMTXT
 40
3.5
  9
$DIMCEN
 40
0.09
  9
$DIMTSZ
 40
0.0
  9
$DIMTOL
 70
     0
  9
$DIMLIM
 70
     0
  9
$DIMTIH
 70
     1
  9
$DIMTOH
 70
     1
  9
$DIMSE1
 70
     0
  9
$DIMSE2
 70
     0
  9
$DIMTAD
 70
     1
  9
$DIMZIN
 70
     0
  9
$DIMBLK
  1

  9
$DIMASO
 70
     1
  9
$DIMSHO
 70
     1
  9
$DIMPOST
  1

  9
$DIMAPOST
  1

  9
$DIMALT
 70
     0
  9
$DIMALTD
 70
     2
  9
$DIMALTF
 40
0.0394
  9
$DIMLFAC
 40
10.0
  9
$DIMTOFL
 70
     0
  9
$DIMTVP
 40
0.0
  9
$DIMTIX
 70
     0
  9
$DIMSOXD
 70
     0
  9
$DIMSAH
 70
     0
  9
$DIMBLK1
  1

  9
$DIMBLK2
  1

  9
$DIMSTYLE
  2
STANDARD
  9
$DIMCLRD
 70
     0
  9
$DIMCLRE
 70
     0
  9
$DIMCLRT
 70
     0
  9
$DIMTFAC
 40
1.0
  9
$DIMGAP
 40
1.0
  9
$DIMJUST
 70
     0
  9
$DIMSD1
 70
     0
  9
$DIMSD2
 70
     0
  9
$DIMTOLJ
 70
     1
  9
$DIMTZIN
 70
     0
  9
$DIMALTZ
 70
     0
  9
$DIMALTTZ
 70
     0
  9
$DIMUPT
 70
     0
  9
$DIMDEC
 70
     4
  9
$DIMTDEC
 70
     4
  9
$DIMALTU
 70
     2
  9
$DIMALTTD
 70
     2
  9
$DIMTXSTY
  7
STANDARD
  9
$DIMAUNIT
 70
     0
  9
$DIMADEC
 70
     0
  9
$DIMALTRND
 40
0.0
  9
$DIMAZIN
 70
     0
  9
$DIMDSEP
 70
    46
  9
$DIMATFIT
 70
     3
  9
$DIMFRAC
 70
     0
  9
$DIMLDRBLK
  1

  9
$DIMLUNIT
 70
     2
  9
$DIMLWD
 70
    -2
  9
$DIMLWE
 70
    -2
  9
$DIMTMOVE
 70
     0
  9
$LUNITS
 70
     2
  9
$LUPREC
 70
     2
  9
$SKETCHINC
 40
0.1
  9
$FILLETRAD
 40
0.0
  9
$AUNITS
 70
     0
  9
$AUPREC
 70
     2
  9
$MENU
  1
acad
  9
$ELEVATION
 40
0.0
  9
$PELEVATION
 40
0.0
  9
$THICKNESS
 40
0.0
  9
$LIMCHECK
 70
     0
  9
$CHAMFERA
 40
0.0
  9
$CHAMFERB
 40
0.0
  9
$CHAMFERC
 40
0.0
  9
$CHAMFERD
 40
0.0
  9
$SKPOLY
 70
     0
  9
$TDCREATE
 40
2444972.041666667
  9
$TDUCREATE
 40
2444972.000000000
  9
$TDUPDATE
 40
2453768.828530995
  9
$TDUUPDATE
 40
2453768.786864329
  9
$TDINDWG
 40
0.0027237037
  9
$TDUSRTIMER
 40
0.0027237037
  9
$USRTIMER
 70
     1
  9
$ANGBASE
 50
0.0
  9
$ANGDIR
 70
     0
  9
$PDMODE
 70
     0
  9
$PDSIZE
 40
-1.0
  9
$PLINEWID
 40
0.0
  9
$SPLFRAME
 70
     0
  9
$SPLINETYPE
 70
     6
  9
$SPLINESEGS
 70
     8
  9
$HANDSEED
  5
8A7
  9
$SURFTAB1
 70
     6
  9
$SURFTAB2
 70
     6
  9
$SURFTYPE
 70
     6
  9
$SURFU
 70
     6
  9
$SURFV
 70
     6
  9
$UCSBASE
  2

  9
$UCSNAME
  2

  9
$UCSORG
 10
0.0
 20
0.0
 30
0.0
  9
$UCSXDIR
 10
1.0
 20
0.0
 30
0.0
  9
$UCSYDIR
 10
0.0
 20
1.0
 30
0.0
  9
$UCSORTHOREF
  2

  9
$UCSORTHOVIEW
 70
     1
  9
$UCSORGTOP
 10
0.0
 20
0.0
 30
0.0
  9
$UCSORGBOTTOM
 10
0.0
 20
0.0
 30
0.0
  9
$UCSORGLEFT
 10
0.0
 20
0.0
 30
0.0
  9
$UCSORGRIGHT
 10
0.0
 20
0.0
 30
0.0
  9
$UCSORGFRONT
 10
0.0
 20
0.0
 30
0.0
  9
$UCSORGBACK
 10
0.0
 20
0.0
 30
0.0
  9
$PUCSBASE
  2

  9
$PUCSNAME
  2

  9
$PUCSORG
 10
0.0
 20
0.0
 30
0.0
  9
$PUCSXDIR
 10
1.0
 20
0.0
 30
0.0
  9
$PUCSYDIR
 10
0.0
 20
1.0
 30
0.0
  9
$PUCSORTHOREF
  2

  9
$PUCSORTHOVIEW
 70
     0
  9
$PUCSORGTOP
 10
0.0
 20
0.0
 30
0.0
  9
$PUCSORGBOTTOM
 10
0.0
 20
0.0
 30
0.0
  9
$PUCSORGLEFT
 10
0.0
 20
0.0
 30
0.0
  9
$PUCSORGRIGHT
 10
0.0
 20
0.0
 30
0.0
  9
$PUCSORGFRONT
 10
0.0
 20
0.0
 30
0.0
  9
$PUCSORGBACK
 10
0.0
 20
0.0
 30
0.0
  9
$USERI1
 70
     0
  9
$USERI2
 70
     0
  9
$USERI3
 70
     0
  9
$USERI4
 70
     0
  9
$USERI5
 70
     0
  9
$USERR1
 40
0.0
  9
$USERR2
 40
0.0
  9
$USERR3
 40
0.0
  9
$USERR4
 40
0.0
  9
$USERR5
 40
0.0
  9
$WORLDVIEW
 70
     1
  9
$SHADEDGE
 70
     3
  9
$SHADEDIF
 70
    70
  9
$TILEMODE
 70
     1
  9
$MAXACTVP
 70
    16
  9
$PINSBASE
 10
0.0
 20
0.0
 30
0.0
  9
$PLIMCHECK
 70
     0
  9
$PEXTMIN
 10
1.000000000000000E+20
 20
1.000000000000000E+20
 30
1.000000000000000E+20
  9
$PEXTMAX
 10
-1.000000000000000E+20
 20
-1.000000000000000E+20
 30
-1.000000000000000E+20
  9
$PLIMMIN
 10
0.0
 20
0.0
  9
$PLIMMAX
 10
12.0
 20
9.0
  9
$UNITMODE
 70
     0
  9
$VISRETAIN
 70
     0
  9
$PLINEGEN
 70
     1
  9
$PSLTSCALE
 70
     1
  9
$TREEDEPTH
 70
  3020
  9
$CMLSTYLE
  2
STANDARD
  9
$CMLJUST
 70
     0
  9
$CMLSCALE
 40
1.0
  9
$PROXYGRAPHICS
 70
     0
  9
$MEASUREMENT
 70
     0
  9
$CELWEIGHT
370
    -1
  9
$ENDCAPS
280
     0
  9
$JOINSTYLE
280
     0
  9
$LWDISPLAY
290
     0
  9
$INSUNITS
 70
     0
  9
$HYPERLINKBASE
  1

  9
$STYLESHEET
  1

  9
$XEDIT
290
     1
  9
$CEPSNTYPE
380
     0
  9
$PSTYLEMODE
290
     1
  9
$FINGERPRINTGUID
  2
{8F47A263-B1D2-427A-A8C5-DFF64593D6BB}
  9
$VERSIONGUID
  2
{84ACDB19-893D-4CD1-B9C8-4080AB80A9D9}
  9
$EXTNAMES
290
     1
  9
$PSVPSCALE
 40
0.0
  9
$OLESTARTUP
290
     0
  0
ENDSEC
  0
SECTION
  2
CLASSES
  0
CLASS
  1
IMAGE
  2
AcDbRasterImage
  3
ISM
 90
    32895
280
     0
281
     1
  0
CLASS
  1
DICTIONARYVAR
  2
AcDbDictionaryVar
  3
ObjectDBX Classes
 90
        0
280
     0
281
     0
  0
CLASS
  1
RASTERVARIABLES
  2
AcDbRasterVariables
  3
ISM
 90
    32768
280
     0
281
     0
  0
CLASS
  1
IMAGEDEF
  2
AcDbRasterImageDef
  3
ISM
 90
    32768
280
     0
281
     0
  0
CLASS
  1
IMAGEDEF_REACTOR
  2
AcDbRasterImageDefReactor
  3
ISM
 90
    32769
280
     0
281
     0
  0
CLASS
  1
IDBUFFER
  2
AcDbIdBuffer
  3
ObjectDBX Classes
 90
    32768
280
     0
281
     0
  0
CLASS
  1
SPATIAL_FILTER
  2
AcDbSpatialFilter
  3
ObjectDBX Classes
 90
    32768
280
     0
281
     0
  0
CLASS
  1
SORTENTSTABLE
  2
AcDbSortentsTable
  3
ObjectDBX Classes
 90
    32768
280
     0
281
     0
  0
CLASS
  1
LAYER_INDEX
  2
AcDbLayerIndex
  3
ObjectDBX Classes
 90
    32768
280
     0
281
     0
  0
CLASS
  1
SPATIAL_INDEX
  2
AcDbSpatialIndex
  3
ObjectDBX Classes
 90
    32768
280
     0
281
     0
  0
CLASS
  1
OBJECT_PTR
  2
CAseDLPNTableRecord
  3
ASE-LPNTableRecord
 90
    32769
280
     0
281
     0
  0
CLASS
  1
LAYOUT
  2
AcDbLayout
  3
ObjectDBX Classes
 90
        0
280
     0
281
     0
  0
CLASS
  1
PLOTSETTINGS
  2
AcDbPlotSettings
  3
ObjectDBX Classes
 90
    32768
280
     0
281
     0
  0
CLASS
  1
ACDBDICTIONARYWDFLT
  2
AcDbDictionaryWithDefault
  3
ObjectDBX Classes
 90
        0
280
     0
281
     0
  0
CLASS
  1
ACDBPLACEHOLDER
  2
AcDbPlaceHolder
  3
ObjectDBX Classes
 90
        0
280
     0
281
     0
  0
CLASS
  1
VBA_PROJECT
  2
AcDbVbaProject
  3
acad
 90
    32768
280
     0
281
     0
  0
CLASS
  1
WIPEOUT
  2
AcDbWipeout
  3
"WipeOut|Product Desc: Object Enabler for WipeOut entity^I^I^I^I^I^I|Company: Autodesk, Inc.^I^I^I^I^I^I|WEB Address: www.autodesk.com"
 90
    32895
280
     0
281
     1
  0
CLASS
  1
WIPEOUTVARIABLES
  2
AcDbWipeoutVariables
  3
"WipeOut|Product Desc:     WipeOut Dbx Application|Company:          Autodesk, Inc.|WEB Address:      www.autodesk.com"
 90
    32768
280
     0
281
     0
  0
CLASS
  1
RTEXT
  2
RText
  3
RText|AutoCAD Express Tool|expresstools@autodesk.com
 90
    32768
280
     0
281
     1
  0
CLASS
  1
ARCALIGNEDTEXT
  2
AcDbArcAlignedText
  3
ATEXT|AutoCAD Express Tool|expresstools@autodesk.com
 90
    32768
280
     0
281
     1
  0
ENDSEC
  0
SECTION
  2
TABLES
  0
TABLE
  2
VPORT
  5
7
330
0
100
AcDbSymbolTable
 70
     2
  0
VPORT
  5
89F
330
7
100
AcDbSymbolTableRecord
100
AcDbViewportTableRecord
  2
*Active
 70
     0
 10
0.0
 20
0.0
 11
1.0
 21
1.0
 12
573.8866548461214
 22
-262.1957690732803
 13
0.0
 23
0.0
 14
1.0
 24
1.0
 15
0.0
 25
0.0
 16
0.0
 26
0.0
 36
1.0
 17
0.0
 27
0.0
 37
0.0
 40
1400.804641823295
 41
1.569570871261378
 42
50.0
 43
0.0
 44
0.0
 50
0.0
 51
0.0
 71
     0
 72
  2000
 73
     1
 74
     1
 75
     0
 76
     0
 77
     0
 78
     0
281
     0
 65
     1
110
0.0
120
0.0
130
0.0
111
1.0
121
0.0
131
0.0
112
0.0
122
1.0
132
0.0
 79
     1
146
0.0
  0
ENDTAB
  0
TABLE
  2
LTYPE
  5
4
330
0
100
AcDbSymbolTable
 70
     6
  0
LTYPE
  5
11
330
4
100
AcDbSymbolTableRecord
100
AcDbLinetypeTableRecord
  2
BYBLOCK
 70
     0
  3

 72
    65
 73
     0
 40
0.0
  0
LTYPE
  5
12
330
4
100
AcDbSymbolTableRecord
100
AcDbLinetypeTableRecord
  2
BYLAYER
 70
     0
  3

 72
    65
 73
     0
 40
0.0
  0
LTYPE
  5
13
330
4
100
AcDbSymbolTableRecord
100
AcDbLinetypeTableRecord
  2
CONTINUOUS
 70
     0
  3
Solid line
 72
    65
 73
     0
 40
0.0
  0
LTYPE
  5
1E
330
4
100
AcDbSymbolTableRecord
100
AcDbLinetypeTableRecord
  2
HIDDEN
 70
     0
  3
Hidden __ __ __ __ __ __ __ __ __ __ __ __ __ __
 72
    65
 73
     2
 40
1.905
 49
1.27
 74
     0
 49
-0.635
 74
     0
  0
LTYPE
  5
1F
330
4
100
AcDbSymbolTableRecord
100
AcDbLinetypeTableRecord
  2
PHANTOM
 70
     0
  3
Phantom ______  __  __  ______  __  __  ______
 72
    65
 73
     6
 40
12.7
 49
6.349999999999999
 74
     0
 49
-1.27
 74
     0
 49
1.27
 74
     0
 49
-1.27
 74
     0
 49
1.27
 74
     0
 49
-1.27
 74
     0
  0
LTYPE
  5
20
330
4
100
AcDbSymbolTableRecord
100
AcDbLinetypeTableRecord
  2
CENTER
 70
     0
  3
Center ____ _ ____ _ ____ _ ____ _ ____ _ ____
 72
    65
 73
     4
 40
10.16
 49
6.349999999999999
 74
     0
 49
-1.27
 74
     0
 49
1.27
 74
     0
 49
-1.27
 74
     0
  0
LTYPE
  5
21
330
4
100
AcDbSymbolTableRecord
100
AcDbLinetypeTableRecord
  2
CENTERX2
 70
     0
  3
Center (2x) ________  __  ________  __  _____
 72
    65
 73
     4
 40
20.32
 49
12.7
 74
     0
 49
-2.54
 74
     0
 49
2.54
 74
     0
 49
-2.54
 74
     0
  0
LTYPE
  5
22
330
4
100
AcDbSymbolTableRecord
100
AcDbLinetypeTableRecord
  2
DOT2
 70
     0
  3
Dot (.5x) ........................................
 72
    65
 73
     2
 40
0.635
 49
0.0
 74
     0
 49
-0.635
 74
     0
  0
ENDTAB
  0
TABLE
  2
LAYER
  5
2
330
0
100
AcDbSymbolTable
 70
     2
  0
LAYER
  5
14
330
2
100
AcDbSymbolTableRecord
100
AcDbLayerTableRecord
  2
0
 70
     0
 62
     7
  6
CONTINUOUS
370
    -3
390
884
  0
LAYER
  5
26
330
2
100
AcDbSymbolTableRecord
100
AcDbLayerTableRecord
  2
DEFPOINTS
 70
     0
 62
     7
  6
CONTINUOUS
290
     0
370
    -3
390
884
  0
ENDTAB
  0
TABLE
  2
STYLE
  5
3
330
0
100
AcDbSymbolTable
 70
     1
  0
STYLE
  5
17
330
3
100
AcDbSymbolTableRecord
100
AcDbTextStyleTableRecord
  2
STANDARD
 70
     0
 40
0.0
 41
1.0
 50
0.0
 71
     0
 42
0.0
  3
Century Gothic
  4

  0
ENDTAB
  0
TABLE
  2
VIEW
  5
5
330
0
100
AcDbSymbolTable
 70
     0
  0
ENDTAB
  0
TABLE
  2
UCS
  5
6
330
0
100
AcDbSymbolTable
 70
     0
  0
ENDTAB
  0
TABLE
  2
APPID
  5
8
330
0
100
AcDbSymbolTable
 70
     2
  0
APPID
  5
16
330
8
100
AcDbSymbolTableRecord
100
AcDbRegAppTableRecord
  2
ACAD
 70
     0
  0
APPID
  5
88F
330
8
100
AcDbSymbolTableRecord
100
AcDbRegAppTableRecord
  2
DCO15
 70
     0
  0
ENDTAB
  0
TABLE
  2
DIMSTYLE
  5
9
330
0
100
AcDbSymbolTable
 70
     1
100
AcDbDimStyleTable
 71
     0
  0
DIMSTYLE
105
18
330
9
100
AcDbSymbolTableRecord
100
AcDbDimStyleTableRecord
  2
STANDARD
 70
     0
289
     0
340
17
  0
ENDTAB
  0
TABLE
  2
BLOCK_RECORD
  5
1
330
0
100
AcDbSymbolTable
 70
     0
  0
BLOCK_RECORD
  5
A
330
1
100
AcDbSymbolTableRecord
100
AcDbBlockTableRecord
  2
*MODEL_SPACE
340
889
  0
BLOCK_RECORD
  5
B
330
1
100
AcDbSymbolTableRecord
100
AcDbBlockTableRecord
  2
*PAPER_SPACE
340
88A
  0
ENDTAB
  0
ENDSEC
  0
SECTION
  2
BLOCKS
  0
BLOCK
  5
D
330
A
100
AcDbEntity
  8
0
100
AcDbBlockBegin
  2
*MODEL_SPACE
 70
     0
 10
0.0
 20
0.0
 30
0.0
  3
*MODEL_SPACE
  1

  0
ENDBLK
  5
E
330
A
100
AcDbEntity
  8
0
100
AcDbBlockEnd
  0
BLOCK
  5
F
330
B
100
AcDbEntity
 67
     1
  8
0
100
AcDbBlockBegin
  2
*PAPER_SPACE
 70
     0
 10
0.0
 20
0.0
 30
0.0
  3
*PAPER_SPACE
  1

  0
ENDBLK
  5
10
330
B
100
AcDbEntity
 67
     1
  8
0
100
AcDbBlockEnd
  0
ENDSEC
  0
SECTION
  2
ENTITIES
  0
LWPOLYLINE
  5
27
330
A
100
AcDbEntity
  8
0
  6
Continuous
 62
     7
100
AcDbPolyline
 90
       47
 70
   128
 43
0.0
 10
69.85000000000217
 20
373.9771639981821
 10
67.30592271457537
 20
373.9587839574531
 10
62.48566052678427
 20
373.8228098959891
 10
57.69578355917454
 20
373.554873309363
 10
52.95681831816855
 20
373.1559914377105
 10
48.2884180479964
 20
372.6276389377841
 10
43.70989798843387
 20
371.9717377684258
 10
39.24014311124178
 20
371.1906301186111
 10
34.89751957452921
 20
370.28704240822
 10
30.69979219311678
 20
369.2640390573524
 10
26.66405115027683
 20
368.1249645301142
 10
22.80665301379346
 20
366.8733722884862
 10
19.14318404718324
 20
365.5129402074763
 10
15.68845831311293
 20
364.0473747073343
 10
12.45656956403537
 20
362.4803123691806
 10
9.461024036591151
 20
360.8152419080143
 10
6.714987752307555
 20
359.0554973824751
 10
4.231675384634606
 20
357.2044231298097
 10
2.025281700557157
 20
355.2662879411905
 10
0.1116664736029865
 20
353.2480621485023
 10
-1.493617945347566
 20
351.1597249175198
 10
-2.776283172696722
 20
349.0162326269707
 10
-3.7264782077044
 20
346.8372006159946
 10
-4.341664228297223
 20
344.6437902959258
 10
-4.626577423169964
 20
342.4540997006764
 10
-4.589707109200507
 20
340.2800667772482
 10
-4.238798223087606
 20
338.1282983229136
 10
-3.57979529242701
 20
336.0063632193178
 10
-2.61356629900597
 20
333.9139879874884
 10
-1.337597350105343
 20
331.8531786407181
 10
0.2498705152943065
 20
329.8305348256765
 10
2.146010597324554
 20
327.856961841853
 10
4.342082078094028
 20
325.9452669708905
 10
6.824805574672784
 20
324.1074549086091
 10
9.578737486396613
 20
322.3532783699156
 10
12.58698459170792
 20
320.6907182332444
 10
15.83399594574877
 20
319.1253300241273
 10
19.30482283919062
 20
317.6615970790025
 10
22.98438157831051
 20
316.3036113468278
 10
26.85720990457896
 20
315.0552413563762
 10
30.90730910306219
 20
313.9201774954273
 10
35.11806525167918
 20
312.9019148692714
 10
39.47223007746185
 20
312.0037099058429
 10
43.95194304457669
 20
311.2285298543852
 10
48.53878086469102
 20
310.5790043669924
 10
53.21382493177697
 20
310.0573830809955
 10
54.33239522033682
 20
309.9649808914966
  0
LWPOLYLINE
  5
58
330
A
100
AcDbEntity
  8
0
  6
Continuous
 62
     7
100
AcDbPolyline
 90
        8
 70
   128
 43
0.0
 10
56.37766306816235
 20
309.7960266208677
 10
57.95774039585227
 20
309.6655005322085
 10
62.75086276852753
 20
309.4047485653338
 10
67.57328936248128
 20
309.2760559638436
 10
72.40497375220853
 20
309.2798749274207
 10
77.22581668618374
 20
309.4161738722198
 10
82.01559594680759
 20
309.6844243977833
 10
83.32211374309059
 20
309.7944839754736
  0
LWPOLYLINE
  5
62
330
A
100
AcDbEntity
  8
0
  6
Continuous
 62
     7
100
AcDbPolyline
 90
       47
 70
   128
 43
0.0
 10
85.36787030908449
 20
309.9668161888969
 10
86.75441604496802
 20
310.083617229475
 10
91.4226246308514
 20
310.6122766254964
 10
96.00090738285464
 20
311.2684795884384
 10
100.470380464016
 20
312.0498829655907
 10
104.8126790561879
 20
312.9537594709299
 10
109.0100398720186
 20
313.9770439419774
 10
113.0453744160067
 20
315.1163913257868
 10
116.9023279261824
 20
316.3682477574657
 10
120.5653159968955
 20
317.7289351762605
 10
124.0195263726191
 20
319.19474721349
 10
127.2508668998668
 20
320.7620475633352
 10
130.2458325008856
 20
322.427347915237
 10
132.9912575595755
 20
324.1873144786733
 10
135.4739267092283
 20
326.0386024636917
 10
137.6796399332852
 20
327.9769374897563
 10
139.5925378081061
 20
329.9953442537062
 10
141.1970682331007
 20
332.0838330422544
 10
142.4789492578132
 20
334.2274349558223
 10
143.4283445837088
 20
336.406526172278
 10
144.0427343417282
 20
338.5999470923845
 10
144.3268689525328
 20
340.7896118376866
 10
144.2892409210384
 20
342.9635983619826
 10
143.9375923495959
 20
345.1152959362081
 10
143.2778580729087
 20
347.2371604424052
 10
142.3108943757677
 20
349.3294643721155
 10
141.03418383409
 20
351.3901925791911
 10
139.4459745185015
 20
353.4127337361006
 10
137.549106885761
 20
355.3861746131687
 10
135.3523350252944
 20
357.2977069126125
 10
132.8689462872672
 20
359.1353302252319
 10
130.1143869239232
 20
360.8892976957546
 10
127.1055527836332
 20
362.5516320132537
 10
123.8579901002442
 20
364.1167830065271
 10
120.3866475633104
 20
365.5802686158356
 10
116.7066095109218
 20
366.9379975607748
 10
112.8333393274643
 20
368.1861017564312
 10
108.782837128584
 20
369.3208912442507
 10
104.5717183455384
 20
370.3388714307377
 10
100.2172327503939
 20
371.2367865168524
 10
95.73724228811846
 20
372.0116700024698
 10
91.15017151368851
 20
372.6608930937609
 10
86.47494012311952
 20
373.1822071042401
 10
81.73088385757454
 20
373.5737785235646
 10
76.93766788352792
 20
373.8342165895004
 10
72.1151953441997
 20
373.9625936412817
 10
69.85000000000217
 20
373.9771639981821
  0
LINE
  5
93
330
A
100
AcDbEntity
  8
0
  6
Continuous
 62
     7
100
AcDbLine
 10
135.6069117081677
 20
357.0761857065396
 30
0.0
 11
103.3230657193476
 21
421.0149178440333
 31
0.0
  0
LINE
  5
94
330
A
100
AcDbEntity
  8
0
  6
Continuous
 62
     7
100
AcDbLine
 10
36.37693428065593
 20
421.0149178440333
 30
0.0
 11
4.098986188480452
 21
357.0878665959183
 31
0.0
  0
LWPOLYLINE
  5
95
330
A
100
AcDbEntity
  8
0
  6
Continuous
 62
     7
100
AcDbPolyline
 90
       11
 70
   128
 43
0.0
 10
95.21816720125512
 20
427.7404040454018
 10
95.20580871371146
 20
427.7467636694864
 10
92.87072809958258
 20
428.7338593142526
 10
90.32683062857525
 20
429.6180204631689
 10
87.59744774489265
 20
430.3927172214807
 10
84.70729742769185
 20
431.0520767354685
 10
81.6824825819264
 20
431.590956535724
 10
78.55035549850616
 20
432.0050530461209
 10
75.33930457684416
 20
432.2910018345799
 10
72.07849767407537
 20
432.4464560091473
 10
69.85000000000193
 20
432.476930711332
  0
LWPOLYLINE
  5
A2
330
A
100
AcDbEntity
  8
0
  6
Continuous
 62
     7
100
AcDbPolyline
 90
       11
 70
   128
 43
0.0
 10
69.85000000000193
 20
432.476930711332
 10
68.12462638998848
 20
432.4586710132206
 10
64.86013329408496
 20
432.3234731448431
 10
61.64051477659751
 20
432.0575894370912
 10
58.49596165029517
 20
431.663304173065
 10
55.45499420790389
 20
431.1439212706933
 10
52.54510036733832
 20
430.5037095540068
 10
49.79246913115426
 20
429.7477948973582
 10
47.22175401599153
 20
428.8820111684788
 10
44.85589190624296
 20
427.9127025093695
 10
44.1068117847489
 20
427.5394607480714
  0
LWPOLYLINE
  5
AF
330
A
100
AcDbEntity
  8
0
  6
Continuous
 62
     7
100
AcDbPolyline
 90
       12
 70
   128
 43
0.0
 10
73.81752885447757
 20
244.1002943255206
 10
73.72013052545084
 20
243.6551131274342
 10
73.28442102686226
 20
242.7332840949329
 10
72.5728978684498
 20
241.9523901337578
 10
71.64808348638179
 20
241.3809579692958
 10
70.58578802721536
 20
241.0619073286366
 10
69.47027711215348
 20
241.0172443442773
 10
68.3889167780176
 20
241.2470815357336
 10
67.42537377559919
 20
241.7291725332538
 10
66.65074689761517
 20
242.4222829066173
 10
66.11892169550796
 20
243.2731201911082
 10
65.8824711455261
 20
244.1002943255206
  0
LWPOLYLINE
  5
BD
330
A
100
AcDbEntity
  8
0
  6
Continuous
 62
     7
100
AcDbPolyline
 90
       14
 70
   128
 43
0.0
 10
63.9030802407395
 20
243.8139175700946
 10
64.06145548848312
 20
243.0897037376534
 10
64.57038086015407
 20
241.912986563098
 10
65.35367903261217
 20
240.8749477410295
 10
66.37182998720987
 20
240.0278478423787
 10
67.57414875188563
 20
239.4154435887656
 10
68.89944033511172
 20
239.0711732364535
 10
70.2787439707873
 20
239.0153382256238
 10
71.63914917146311
 20
239.253358423801
 10
72.90732848323746
 20
239.7749308055822
 10
74.01390838989129
 20
240.5539463257074
 10
74.89733237362571
 20
241.5488801891121
 10
75.50852380333603
 20
242.7043409471103
 10
75.7969197592642
 20
243.8139175700947
  0
LINE
  5
CD
330
A
100
AcDbEntity
  8
0
  6
Continuous
 62
     7
100
AcDbLine
 10
54.06086928095606
 20
311.841725301232
 30
0.0
 11
63.90306422585144
 21
243.8140285220665
 31
0.0
  0
LINE
  5
CE
330
A
100
AcDbEntity
  8
0
  6
Continuous
 62
     7
100
AcDbLine
 10
65.88247114552608
 20
244.1002943255206
 30
0.0
 11
55.92287348260905
 21
312.9394604093286
 31
0.0
  0
LINE
  5
CF
330
A
100
AcDbEntity
  8
0
  6
Continuous
 62
     7
100
AcDbLine
 10
83.77712651739441
 20
312.939460409329
 30
0.0
 11
73.81752885447757
 21
244.1002943255206
 31
0.0
  0
LINE
  5
D0
330
A
100
AcDbEntity
  8
0
  6
Continuous
 62
     7
100
AcDbLine
 10
75.79693460808195
 20
243.8140204258714
 30
0.0
 11
85.63913071904737
 21
311.8417253012321
 31
0.0
  0
LINE
  5
D1
330
A
100
AcDbEntity
  8
0
  6
Continuous
 62
     7
100
AcDbLine
 10
78.84999999999998
 20
-27.62693071133207
 30
0.0
 11
83.84999999999998
 21
-27.62693071133207
 31
0.0
  0
LINE
  5
D2
330
A
100
AcDbEntity
  8
0
  6
Continuous
 62
     7
100
AcDbLine
 10
83.84999999999998
 20
8.373069288667933
 30
0.0
 11
78.84999999999998
 21
8.373069288667933
 31
0.0
  0
LINE
  5
D3
330
A
100
AcDbEntity
  8
0
  6
Continuous
 62
     7
100
AcDbLine
 10
75.39
 20
-20.70693071133206
 30
0.0
 11
75.84999999999997
 21
-20.70693071133206
 31
0.0
  0
LINE
  5
D4
330
A
100
AcDbEntity
  8
0
  6
Continuous
 62
     7
100
AcDbLine
 10
63.84999999999998
 20
-20.70693071133206
 30
0.0
 11
64.30999999999999
 21
-20.70693071133206
 31
0.0
  0
LINE
  5
D5
330
A
100
AcDbEntity
  8
0
  6
Continuous
 62
     7
100
AcDbLine
 10
64.49534100906237
 20
1.453069288667924
 30
0.0
 11
63.84999999999998
 21
1.453069288667924
 31
0.0
  0
LINE
  5
D6
330
A
100
AcDbEntity
  8
0
  6
Continuous
 62
     7
100
AcDbLine
 10
75.84999999999997
 20
1.453069288667924
 30
0.0
 11
75.17962994965505
 21
1.453069288667924
 31
0.0
  0
LINE
  5
D7
330
A
100
AcDbEntity
  8
0
  6
Continuous
 62
     7
100
AcDbLine
 10
75.39
 20
-54.62693071133206
 30
0.0
 11
75.39
 21
-19.17253696972973
 31
0.0
  0
LINE
  5
D8
330
A
100
AcDbEntity
  8
0
  6
Continuous
 62
     7
100
AcDbLine
 10
64.30999999999999
 20
-19.20906602241054
 30
0.0
 11
64.30999999999999
 21
-54.62693071133206
 31
0.0
  0
LINE
  5
D9
330
A
100
AcDbEntity
  8
0
  6
Continuous
 62
     7
100
AcDbLine
 10
75.84999999999997
 20
-15.62693071133209
 30
0.0
 11
78.84999999999998
 21
-15.62693071133209
 31
0.0
  0
LINE
  5
DA
330
A
100
AcDbEntity
  8
0
  6
Continuous
 62
     7
100
AcDbLine
 10
78.84999999999998
 20
-3.626930711332077
 30
0.0
 11
75.84999999999997
 21
-3.626930711332077
 31
0.0
  0
LINE
  5
DB
330
A
100
AcDbEntity
  8
0
  6
Continuous
 62
     7
100
AcDbLine
 10
64.44999999999997
 20
34.37306928866796
 30
0.0
 11
64.44999999999997
 21
1.431413293243005
 31
0.0
  0
LINE
  5
DC
330
A
100
AcDbEntity
  8
0
  6
Continuous
 62
     7
100
AcDbLine
 10
75.24999999999997
 20
1.41894903927503
 30
0.0
 11
75.24999999999997
 21
34.37306928866796
 31
0.0
  0
LINE
  5
DD
330
A
100
AcDbEntity
  8
0
  6
Continuous
 62
     7
100
AcDbLine
 10
76.84999999999998
 20
34.37306928866796
 30
0.0
 11
76.84999999999998
 21
251.09264187655
 31
0.0
  0
LINE
  5
DE
330
A
100
AcDbEntity
  8
0
  6
Continuous
 62
     7
100
AcDbLine
 10
76.84999999999998
 20
265.0602559521067
 30
0.0
 11
76.84999999999998
 21
309.4055484653218
 31
0.0
  0
LINE
  5
DF
330
A
100
AcDbEntity
  8
0
  6
Continuous
 62
     7
100
AcDbLine
 10
62.84999999999997
 20
309.4021029619277
 30
0.0
 11
62.84999999999997
 21
265.0602559521318
 31
0.0
  0
LINE
  5
E0
330
A
100
AcDbEntity
  8
0
  6
Continuous
 62
     7
100
AcDbLine
 10
62.84999999999997
 20
251.0926418765754
 30
0.0
 11
62.84999999999997
 21
34.37306928866796
 31
0.0
  0
LINE
  5
E1
330
A
100
AcDbEntity
  8
0
  6
Continuous
 62
     7
100
AcDbLine
 10
64.30999999999986
 20
24.6174956445212
 30
0.0
 11
64.30999999999993
 21
1.453069288667924
 31
0.0
  0
LINE
  5
E2
330
A
100
AcDbEntity
  8
0
  6
Continuous
 62
     7
100
AcDbLine
 10
64.30999999999984
 20
33.45633040935311
 30
0.0
 11
64.30999999999984
 21
29.21368972223382
 31
0.0
  0
LINE
  5
E3
330
A
100
AcDbEntity
  8
0
  6
Continuous
 62
     7
100
AcDbLine
 10
75.38999999999984
 20
29.21368972223382
 30
0.0
 11
75.3899999999998
 21
33.4563304093532
 31
0.0
  0
LINE
  5
E4
330
A
100
AcDbEntity
  8
0
  6
Continuous
 62
     7
100
AcDbLine
 10
75.38999999999994
 20
1.453069288667924
 30
0.0
 11
75.38999999999986
 21
24.61749564452123
 31
0.0
  0
LWPOLYLINE
  5
E5
330
A
100
AcDbEntity
  8
0
  6
Continuous
 62
     7
100
AcDbPolyline
 90
        3
 70
   128
 43
0.0
 10
75.35328593470758
 20
33.50398752888422
 10
75.30961287015611
 20
34.23168992773612
 10
75.25888184452799
 20
34.37306928866796
  0
LINE
  5
EA
330
A
100
AcDbEntity
  8
0
  6
Continuous
 62
     7
100
AcDbLine
 10
64.44937588064933
 20
34.37306928866796
 30
0.0
 11
64.3101450019178
 21
33.45049075305933
 31
0.0
  0
ARC
  5
EB
330
A
100
AcDbEntity
  8
0
  6
Continuous
 62
     7
100
AcDbCircle
 10
-28.65000000000001
 20
-96.12693071133206
 30
0.0
 40
1.5
100
AcDbArc
 50
90.0
 51
180.0000000000004
  0
ARC
  5
EC
330
A
100
AcDbEntity
  8
0
  6
Continuous
 62
     7
100
AcDbCircle
 10
168.35
 20
-96.12693071133206
 30
0.0
 40
1.5
100
AcDbArc
 50
0.0
 51
90.0
  0
LINE
  5
ED
330
A
100
AcDbEntity
  8
0
  6
Continuous
 62
     7
100
AcDbLine
 10
169.85
 20
-105.126930711332
 30
0.0
 11
169.85
 21
-96.12693071133206
 31
0.0
  0
LINE
  5
EE
330
A
100
AcDbEntity
  8
0
  6
Continuous
 62
     7
100
AcDbLine
 10
-30.15000000000001
 20
-96.12693071133206
 30
0.0
 11
-30.15000000000001
 21
-105.126930711332
 31
0.0
  0
ARC
  5
EF
330
A
100
AcDbEntity
  8
0
  6
Continuous
 62
     7
100
AcDbCircle
 10
-29.15000000000001
 20
-105.126930711332
 30
0.0
 40
1.0
100
AcDbArc
 50
180.0000000000004
 51
270.0000000000008
  0
ARC
  5
F0
330
A
100
AcDbEntity
  8
0
  6
Continuous
 62
     7
100
AcDbCircle
 10
168.85
 20
-105.126930711332
 30
0.0
 40
1.0
100
AcDbArc
 50
270.0000000000008
 51
0.0
  0
LINE
  5
F1
330
A
100
AcDbEntity
  8
0
  6
Continuous
 62
     7
100
AcDbLine
 10
104.2623425556206
 20
-108.626930711332
 30
0.0
 11
104.2623425556206
 21
-106.126930711332
 31
0.0
  0
LINE
  5
F2
330
A
100
AcDbEntity
  8
0
  6
Continuous
 62
     7
100
AcDbLine
 10
84.26234255562064
 20
-106.126930711332
 30
0.0
 11
84.26234255562064
 21
-108.626930711332
 31
0.0
  0
LINE
  5
F3
330
A
100
AcDbEntity
  8
0
  6
Continuous
 62
     7
100
AcDbLine
 10
15.93765744437886
 20
-108.626930711332
 30
0.0
 11
15.93765744437886
 21
-106.126930711332
 31
0.0
  0
LINE
  5
F4
330
A
100
AcDbEntity
  8
0
  6
Continuous
 62
     7
100
AcDbLine
 10
-4.062342555621115
 20
-106.126930711332
 30
0.0
 11
-4.062342555621115
 21
-108.626930711332
 31
0.0
  0
LINE
  5
F5
330
A
100
AcDbEntity
  8
0
  6
Continuous
 62
     7
100
AcDbLine
 10
158.85
 20
-108.626930711332
 30
0.0
 11
158.85
 21
-106.126930711332
 31
0.0
  0
LINE
  5
F6
330
A
100
AcDbEntity
  8
0
  6
Continuous
 62
     7
100
AcDbLine
 10
138.85
 20
-106.126930711332
 30
0.0
 11
138.85
 21
-108.626930711332
 31
0.0
  0
ARC
  5
F7
330
A
100
AcDbEntity
  8
0
  6
Continuous
 62
     7
100
AcDbCircle
 10
48.13881791054893
 20
-92.62693071133204
 30
0.0
 40
2.000000000000002
100
AcDbArc
 50
270.0000000000008
 51
351.0999999999995
  0
ARC
  5
F8
330
A
100
AcDbEntity
  8
0
  6
Continuous
 62
     7
100
AcDbCircle
 10
91.56118208945107
 20
-92.62693071133204
 30
0.0
 40
2.000000000000009
100
AcDbArc
 50
188.9000000000021
 51
270.0000000000008
  0
LINE
  5
F9
330
A
100
AcDbEntity
  8
0
  6
Continuous
 62
     7
100
AcDbLine
 10
89.5852623579123
 20
-92.93635148393104
 30
0.0
 11
83.71853598087133
 21
-55.4722203250326
 31
0.0
  0
LINE
  5
FA
330
A
100
AcDbEntity
  8
0
  6
Continuous
 62
     7
100
AcDbLine
 10
55.98146401912867
 20
-55.4722203250326
 30
0.0
 11
50.11473764208769
 21
-92.93635148393104
 31
0.0
  0
ARC
  5
FB
330
A
100
AcDbEntity
  8
0
  6
Continuous
 62
     7
100
AcDbCircle
 10
56.96942388489805
 20
-55.62693071133207
 30
0.0
 40
1.0
100
AcDbArc
 50
90.0
 51
171.0999999999978
  0
ARC
  5
FC
330
A
100
AcDbEntity
  8
0
  6
Continuous
 62
     7
100
AcDbCircle
 10
82.73057611510195
 20
-55.62693071133207
 30
0.0
 40
1.0
100
AcDbArc
 50
8.900000000002142
 51
90.0
  0
ARC
  5
FD
330
A
100
AcDbEntity
  8
0
  6
Continuous
 62
     7
100
AcDbCircle
 10
69.84999999999999
 20
367.6135932886703
 30
0.0
 40
27.50000000000003
100
AcDbArc
 50
181.4035491918054
 51
358.5964508081975
  0
LWPOLYLINE
  5
FE
330
A
100
AcDbEntity
  8
0
  6
Continuous
 62
     7
100
AcDbPolyline
 90
       85
 70
   128
 43
0.0
 10
85.40032313071053
 20
310.1911249665616
 10
89.6908518206899
 20
310.6424798399753
 10
94.47064566503371
 20
311.2863612735582
 10
99.13048410041172
 20
312.0669453444445
 10
103.6476637082038
 20
312.9804289321666
 10
108.0001761245923
 20
314.0223614102529
 10
112.166815268549
 20
315.1876663303345
 10
116.1272806609831
 20
316.4706661553494
 10
119.8622763316625
 20
317.8651099213378
 10
123.353604832021
 20
319.3642036930593
 10
126.584255895805
 20
320.9606436650447
 10
129.5384893155945
 20
322.646651746811
 10
132.20191163141
 20
324.4140134588633
 10
134.5615462577675
 20
326.2541179548476
 10
136.6058967075128
 20
328.1579999748613
 10
138.3250026043988
 20
330.1163835255189
 10
139.7104882115047
 20
332.1197270739571
 10
140.7556032390582
 20
334.1582700355868
 10
141.4552557328412
 20
336.2220803290977
 10
141.8060368829399
 20
338.3011027670201
 10
141.8062376319687
 20
340.3852080460782
 10
141.4558570018485
 20
342.4642420986459
 10
140.756602098573
 20
344.5280755648592
 10
139.7118797949365
 20
346.5666531443474
 10
138.3267801317483
 20
348.5700425871371
 10
136.6080515184051
 20
350.5284830850351
 10
134.5640678536469
 20
352.4324328277227
 10
132.2047877266903
 20
354.2726154918596
 10
129.5417058975163
 20
356.0400654366965
 10
126.5877972927076
 20
357.7261713859964
 10
123.3574537896977
 20
359.322718383439
 10
119.866414097425
 20
360.8219278170979
 10
116.1316870750276
 20
362.2164953179817
 10
112.1714688621779
 20
363.4996263479955
 10
108.0050542248126
 20
364.6650693039294
 10
103.6527425481933
 20
365.7071459761904
 10
99.13573893531463
 20
366.6207792138744
 10
94.47605089252103
 20
367.4015176613932
 10
89.69638110569785
 20
368.0455574461332
 10
84.82001682944437
 20
368.5497607114835
 10
79.87071642814234
 20
368.9116709049345
 10
74.87259362170838
 20
369.1295247467633
 10
69.85000000000185
 20
369.2022608209923
 10
64.82740637829532
 20
369.1295247467633
 10
59.82928357186137
 20
368.9116709049345
 10
54.87998317055936
 20
368.5497607114835
 10
50.00361889430588
 20
368.0455574461332
 10
45.22394910748271
 20
367.4015176613931
 10
40.56426106468911
 20
366.6207792138744
 10
36.04725745181038
 20
365.7071459761903
 10
31.69494577519118
 20
364.6650693039293
 10
27.52853113782589
 20
363.4996263479954
 10
23.5683129249762
 20
362.2164953179817
 10
19.8335859025788
 20
360.8219278170978
 10
16.34254621030614
 20
359.322718383439
 10
13.11220270729618
 20
357.7261713859963
 10
10.15829410248758
 20
356.0400654366965
 10
7.49521227331356
 20
354.2726154918595
 10
5.135932146357006
 20
352.4324328277226
 10
3.091948481598827
 20
350.5284830850351
 10
1.373219868255601
 20
348.5700425871371
 10
-0.0118797949325428
 20
346.5666531443474
 10
-1.056602098569045
 20
344.5280755648591
 10
-1.75585700184451
 20
342.4642420986459
 10
-2.106237631964644
 20
340.3852080460782
 10
-2.10603688293591
 20
338.3011027670201
 10
-1.755255732837121
 20
336.2220803290977
 10
-1.055603239054112
 20
334.1582700355868
 10
-0.0104882115006116
 20
332.1197270739571
 10
1.374997395605273
 20
330.1163835255189
 10
3.094103292491365
 20
328.1579999748613
 10
5.138453742236675
 20
326.2541179548476
 10
7.498088368594113
 20
324.4140134588633
 10
10.16151068440957
 20
322.6466517468109
 10
13.11574410419912
 20
320.9606436650447
 10
16.34639516798312
 20
319.3642036930593
 10
19.83772366834161
 20
317.8651099213378
 10
23.57271933902111
 20
316.4706661553494
 10
27.53318473145518
 20
315.1876663303346
 10
31.69982387541188
 20
314.022361410253
 10
36.05233629180032
 20
312.9804289321667
 10
40.56951589959242
 20
312.0669453444445
 10
45.22935433497043
 20
311.2863612735583
 10
50.00914817931423
 20
310.6424798399755
 10
54.2996768692929
 20
310.1911249665617
  0
LWPOLYLINE
  5
155
330
A
100
AcDbEntity
  8
0
  6
Continuous
 62
     7
100
AcDbPolyline
 90
        9
 70
   128
 43
0.0
 10
56.34579279381459
 20
310.0163089237493
 10
58.84908163159805
 20
309.8370076957555
 10
62.50004108158479
 20
309.6424143292137
 10
66.17021151110161
 20
309.5254544887359
 10
69.85000000000081
 20
309.4864338784935
 10
73.52978848889998
 20
309.5254544887359
 10
77.19995891841683
 20
309.6424143292136
 10
80.85091836840359
 20
309.8370076957554
 10
83.35420720618882
 20
310.0163089237493
  0
LINE
  5
160
330
A
100
AcDbEntity
  8
0
  6
Continuous
 62
     7
100
AcDbLine
 10
85.68618839333717
 20
312.8434597111907
 30
0.0
 11
85.61288325766053
 21
311.8437462697289
 31
0.0
  0
LINE
  5
161
330
A
100
AcDbEntity
  8
0
  6
Continuous
 62
     7
100
AcDbLine
 10
54.01381160666628
 20
312.8434597111905
 30
0.0
 11
54.08711674234295
 21
311.8437462697289
 31
0.0
  0
LWPOLYLINE
  5
162
330
A
100
AcDbEntity
  8
0
  6
Continuous
 62
     7
100
AcDbPolyline
 90
        7
 70
   128
 43
0.0
 10
95.42307883726968
 20
427.5246652031714
 10
96.89371412487766
 20
426.7893522429672
 10
98.8727578077742
 20
425.6102260637086
 10
100.5539887214966
 20
424.3541211581029
 10
101.9201551618013
 20
423.0339268622632
 10
102.9572384122922
 20
421.663190156173
 10
103.3230657193476
 20
421.0149178440333
  0
LWPOLYLINE
  5
16B
330
A
100
AcDbEntity
  8
0
  6
Continuous
 62
     7
100
AcDbPolyline
 90
        7
 70
   128
 43
0.0
 10
36.37693428065593
 20
421.0149178440333
 10
36.74276158771159
 20
421.6631901561731
 10
37.77984483820247
 20
423.0339268622633
 10
39.14601127850724
 20
424.354121158103
 10
40.82724219222978
 20
425.6102260637087
 10
42.80628587512636
 20
426.7893522429673
 10
43.87756308051624
 20
427.3347758669796
  0
LWPOLYLINE
  5
174
330
A
100
AcDbEntity
  8
0
  6
Continuous
 62
     7
100
AcDbPolyline
 90
        9
 70
   128
 43
0.0
 10
55.9210019779305
 20
312.9505573322427
 10
55.83951651338438
 20
313.0745319472061
 10
55.65761805016887
 20
313.1678862239566
 10
55.39545328764227
 20
313.2202804349656
 10
55.08205905525112
 20
313.2259115052721
 10
54.7521462530712
 20
313.1841557491205
 10
54.44225534396561
 20
313.09963794811
 10
54.18670920713446
 20
312.9817191199057
 10
54.01381160666628
 20
312.8434597111905
  0
LWPOLYLINE
  5
17F
330
A
100
AcDbEntity
  8
0
  6
Continuous
 62
     7
100
AcDbPolyline
 90
        9
 70
   128
 43
0.0
 10
83.77899802207295
 20
312.9505573322429
 10
83.86048348661908
 20
313.0745319472063
 10
84.04238194983461
 20
313.1678862239567
 10
84.30454671236118
 20
313.2202804349657
 10
84.61794094475232
 20
313.2259115052723
 10
84.9478537469322
 20
313.1841557491206
 10
85.25774465603777
 20
313.0996379481101
 10
85.51329079286892
 20
312.9817191199058
 10
85.68618839333717
 20
312.8434597111907
  0
LINE
  5
18A
330
A
100
AcDbEntity
  8
0
  6
Continuous
 62
     7
100
AcDbLine
 10
78.84999999999998
 20
8.373069288667933
 30
0.0
 11
78.84999999999998
 21
-27.62693071133207
 31
0.0
  0
LINE
  5
18B
330
A
100
AcDbEntity
  8
0
  6
Continuous
 62
     7
100
AcDbLine
 10
83.84999999999998
 20
8.373069288667933
 30
0.0
 11
83.84999999999998
 21
-27.62693071133207
 31
0.0
  0
LINE
  5
18C
330
A
100
AcDbEntity
  8
0
  6
Continuous
 62
     7
100
AcDbLine
 10
64.95102051443367
 20
34.37306928866796
 30
0.0
 11
74.74897948556637
 21
34.37306928866796
 31
0.0
  0
LINE
  5
18D
330
A
100
AcDbEntity
  8
0
  6
Continuous
 62
     7
100
AcDbLine
 10
63.84999999999998
 20
1.453069288667924
 30
0.0
 11
63.84999999999998
 21
-20.70693071133206
 31
0.0
  0
LINE
  5
18E
330
A
100
AcDbEntity
  8
0
  6
Continuous
 62
     7
100
AcDbLine
 10
75.84999999999997
 20
1.453069288667924
 30
0.0
 11
75.84999999999997
 21
-20.70693071133206
 31
0.0
  0
LINE
  5
18F
330
A
100
AcDbEntity
  8
0
  6
Continuous
 62
     7
100
AcDbLine
 10
75.34301210904144
 20
-18.76906633506306
 30
0.0
 11
75.32519663429032
 21
-19.17253696972976
 31
0.0
  0
LINE
  5
190
330
A
100
AcDbEntity
  8
0
  6
Continuous
 62
     7
100
AcDbLine
 10
64.32750760607977
 20
-19.20906602241057
 30
0.0
 11
64.35698789095856
 21
-18.76906633506306
 31
0.0
  0
LWPOLYLINE
  5
191
330
A
100
AcDbEntity
  8
0
  6
Continuous
 62
     7
100
AcDbPolyline
 90
       11
 70
   128
 43
0.0
 10
75.34301210904144
 20
-18.76906633506306
 10
74.61329124161444
 20
-17.02358707919082
 10
73.34582386505657
 20
-15.42577469907766
 10
71.93982104372077
 20
-14.36532187432587
 10
70.65732810234566
 20
-13.88353798939229
 10
69.26280382806705
 20
-13.8441469330478
 10
68.09405584969768
 20
-14.19770911515761
 10
66.68029041970164
 20
-15.12494212901299
 10
65.30844973383771
 20
-16.67922372903288
 10
64.49995627938318
 20
-18.24312430585306
 10
64.35698789095856
 20
-18.76906633506306
  0
LWPOLYLINE
  5
19E
330
A
100
AcDbEntity
  8
0
  6
Continuous
 62
     7
100
AcDbPolyline
 90
       12
 70
   128
 43
0.0
 10
75.17962994965505
 20
1.41894669362963
 10
75.18741390832956
 20
1.422702188851987
 10
74.70364557478617
 20
1.197314082908379
 10
73.75244465093905
 20
0.8054934678145553
 10
72.29381859316998
 20
0.3519795155575989
 10
70.48266318904669
 20
0.0687726004847122
 10
69.84999999999999
 20
0.0481093402646127
 10
68.18725661692965
 20
0.1899484036384513
 10
66.71630873064585
 20
0.5429474084698849
 10
65.46918500140842
 20
0.9937067484386275
 10
64.64842368661877
 20
1.357731147092533
 10
64.49534100906237
 20
1.431229199616468
  0
LINE
  5
1AC
330
A
100
AcDbEntity
  8
0
  6
Continuous
 62
     7
100
AcDbLine
 10
62.99142872020707
 20
34.37306928866796
 30
0.0
 11
64.95102051443367
 21
34.37306928866796
 31
0.0
  0
LINE
  5
1AD
330
A
100
AcDbEntity
  8
0
  6
Continuous
 62
     7
100
AcDbLine
 10
74.74897948556637
 20
34.37306928866796
 30
0.0
 11
76.70857127979288
 21
34.37306928866796
 31
0.0
  0
LINE
  5
1AE
330
A
100
AcDbEntity
  8
0
  6
Continuous
 62
     7
100
AcDbLine
 10
76.70857127979288
 20
34.37306928866796
 30
0.0
 11
76.84999999999998
 21
34.37306928866796
 31
0.0
  0
LINE
  5
1AF
330
A
100
AcDbEntity
  8
0
  6
Continuous
 62
     7
100
AcDbLine
 10
62.84999999999997
 20
34.37306928866796
 30
0.0
 11
62.99142872020707
 21
34.37306928866796
 31
0.0
  0
LINE
  5
1B0
330
A
100
AcDbEntity
  8
0
  6
Continuous
 62
     7
100
AcDbLine
 10
64.30999999999984
 20
29.21368972223382
 30
0.0
 11
64.44999999999997
 21
28.33858972794698
 31
0.0
  0
LINE
  5
1B1
330
A
100
AcDbEntity
  8
0
  6
Continuous
 62
     7
100
AcDbLine
 10
75.24999999999997
 20
28.33858972794781
 30
0.0
 11
75.38999999999984
 21
29.21368972223382
 31
0.0
  0
LWPOLYLINE
  5
1B2
330
A
100
AcDbEntity
  8
0
  6
Continuous
 62
     7
100
AcDbPolyline
 90
        3
 70
   128
 43
0.0
 10
75.38999999999984
 20
29.21368972223382
 10
75.35469653796653
 20
29.61241409360111
 10
75.24999999999997
 20
29.85743701612831
  0
LWPOLYLINE
  5
1B7
330
A
100
AcDbEntity
  8
0
  6
Continuous
 62
     7
100
AcDbPolyline
 90
        3
 70
   128
 43
0.0
 10
75.24999999999997
 20
25.57630746466497
 10
75.3671906415352
 20
25.00020880563905
 10
75.38999999999986
 20
24.61749564452126
  0
LWPOLYLINE
  5
1BC
330
A
100
AcDbEntity
  8
0
  6
Continuous
 62
     7
100
AcDbPolyline
 90
        3
 70
   128
 43
0.0
 10
64.30999999999986
 20
24.61749564452126
 10
64.35299456915178
 20
25.15681025699093
 10
64.44999999999997
 20
25.60963295154139
  0
LWPOLYLINE
  5
1C1
330
A
100
AcDbEntity
  8
0
  6
Continuous
 62
     7
100
AcDbPolyline
 90
        3
 70
   128
 43
0.0
 10
64.44999999999997
 20
29.82524602181391
 10
64.32708071827083
 20
29.50041864250103
 10
64.30999999999984
 20
29.21368972223382
  0
LINE
  5
1C6
330
A
100
AcDbEntity
  8
0
  6
Continuous
 62
     7
100
AcDbLine
 10
69.84999999999999
 20
-94.62693071133205
 30
0.0
 11
168.35
 21
-94.62693071133205
 31
0.0
  0
LINE
  5
1C7
330
A
100
AcDbEntity
  8
0
  6
Continuous
 62
     7
100
AcDbLine
 10
-28.65000000000001
 20
-94.62693071133205
 30
0.0
 11
69.84999999999999
 21
-94.62693071133205
 31
0.0
  0
LINE
  5
1C8
330
A
100
AcDbEntity
  8
0
  6
Continuous
 62
     7
100
AcDbLine
 10
69.84999999999999
 20
-106.126930711332
 30
0.0
 11
-29.15000000000001
 21
-106.126930711332
 31
0.0
  0
LINE
  5
1C9
330
A
100
AcDbEntity
  8
0
  6
Continuous
 62
     7
100
AcDbLine
 10
168.85
 20
-106.126930711332
 30
0.0
 11
69.84999999999999
 21
-106.126930711332
 31
0.0
  0
LINE
  5
1CA
330
A
100
AcDbEntity
  8
0
  6
Continuous
 62
     7
100
AcDbLine
 10
94.26234255562063
 20
-108.626930711332
 30
0.0
 11
104.2623425556206
 21
-108.626930711332
 31
0.0
  0
LINE
  5
1CB
330
A
100
AcDbEntity
  8
0
  6
Continuous
 62
     7
100
AcDbLine
 10
84.26234255562064
 20
-108.626930711332
 30
0.0
 11
94.26234255562063
 21
-108.626930711332
 31
0.0
  0
LINE
  5
1CC
330
A
100
AcDbEntity
  8
0
  6
Continuous
 62
     7
100
AcDbLine
 10
5.93765744437888
 20
-108.626930711332
 30
0.0
 11
15.93765744437886
 21
-108.626930711332
 31
0.0
  0
LINE
  5
1CD
330
A
100
AcDbEntity
  8
0
  6
Continuous
 62
     7
100
AcDbLine
 10
-4.062342555621115
 20
-108.626930711332
 30
0.0
 11
5.93765744437888
 21
-108.626930711332
 31
0.0
  0
LINE
  5
1CE
330
A
100
AcDbEntity
  8
0
  6
Continuous
 62
     7
100
AcDbLine
 10
148.85
 20
-108.626930711332
 30
0.0
 11
158.85
 21
-108.626930711332
 31
0.0
  0
LINE
  5
1CF
330
A
100
AcDbEntity
  8
0
  6
Continuous
 62
     7
100
AcDbLine
 10
138.85
 20
-108.626930711332
 30
0.0
 11
148.85
 21
-108.626930711332
 31
0.0
  0
LINE
  5
1D0
330
A
100
AcDbEntity
  8
0
  6
Continuous
 62
     7
100
AcDbLine
 10
69.84999999999999
 20
-54.62693071133206
 30
0.0
 11
82.73057611510195
 21
-54.62693071133206
 31
0.0
  0
LINE
  5
1D1
330
A
100
AcDbEntity
  8
0
  6
Continuous
 62
     7
100
AcDbLine
 10
56.96942388489805
 20
-54.62693071133206
 30
0.0
 11
69.84999999999999
 21
-54.62693071133206
 31
0.0
  0
LWPOLYLINE
  5
1D2
330
A
100
AcDbEntity
  8
0
  6
PHANTOM
 62
     7
100
AcDbPolyline
 90
       10
 70
   128
 43
0.0
 10
69.85000000000193
 20
432.290496593281
 10
73.30985220654105
 20
432.2177329223656
 10
76.73420164751298
 20
432.0001885633479
 10
80.08790986376821
 20
431.6400958157361
 10
83.3365632707156
 20
431.1411497184037
 10
86.44682628826943
 20
430.5084701334918
 10
89.3867834090113
 20
429.7485492096933
 10
92.1262666944847
 20
428.8691847640241
 10
94.63716533906755
 20
427.8794002656669
 10
95.42307883726968
 20
427.5246652031714
  0
LWPOLYLINE
  5
1DE
330
A
100
AcDbEntity
  8
0
  6
PHANTOM
 62
     7
100
AcDbPolyline
 90
       10
 70
   128
 43
0.0
 10
43.87756308051624
 20
427.3347758669796
 10
45.06283466093653
 20
427.8794002656671
 10
47.57373330551942
 20
428.8691847640243
 10
50.31321659099287
 20
429.7485492096934
 10
53.25317371173476
 20
430.5084701334918
 10
56.36343672928863
 20
431.1411497184038
 10
59.61209013623606
 20
431.6400958157361
 10
62.9657983524913
 20
432.000188563348
 10
66.39014779346327
 20
432.2177329223657
 10
69.85000000000193
 20
432.290496593281
  0
LWPOLYLINE
  5
1EA
330
A
100
AcDbEntity
  8
0
  6
PHANTOM
 62
     7
100
AcDbPolyline
 90
        6
 70
   128
 43
0.0
 10
64.8927756931328
 20
244.3717991904638
 10
64.5133661705815
 20
244.2947797892567
 10
64.19171830848276
 20
244.1663526067099
 10
63.97680007809597
 20
244.006069517171
 10
63.90133083175892
 20
243.8383321680523
 10
63.90306422585144
 20
243.8140285220665
  0
LWPOLYLINE
  5
1F2
330
A
100
AcDbEntity
  8
0
  6
PHANTOM
 62
     7
100
AcDbPolyline
 90
        5
 70
   128
 43
0.0
 10
65.88169396640549
 20
244.1051638481338
 10
65.8087513081696
 20
244.2255348454008
 10
65.59383307778282
 20
244.3343240968942
 10
65.27218521568406
 20
244.3856853046801
 10
64.8927756931328
 20
244.3717991904638
  0
LWPOLYLINE
  5
1F9
330
A
100
AcDbEntity
  8
0
  6
PHANTOM
 62
     7
100
AcDbPolyline
 90
        6
 70
   128
 43
0.0
 10
74.80722430687087
 20
244.3717991904639
 10
75.18663382942218
 20
244.2947797892568
 10
75.5082816915209
 20
244.16635260671
 10
75.7231999219077
 20
244.0060695171712
 10
75.79866916824477
 20
243.8383321680525
 10
75.79693460808195
 20
243.8140204258714
  0
LWPOLYLINE
  5
201
330
A
100
AcDbEntity
  8
0
  6
PHANTOM
 62
     7
100
AcDbPolyline
 90
        5
 70
   128
 43
0.0
 10
73.81828406788646
 20
244.1050377509906
 10
73.89124869183406
 20
244.2255348454008
 10
74.10616692222086
 20
244.3343240968943
 10
74.42781478431962
 20
244.3856853046802
 10
74.80722430687087
 20
244.3717991904639
  0
LINE
  5
208
330
A
100
AcDbEntity
  8
0
  6
PHANTOM
 62
     7
100
AcDbLine
 10
64.95102051443367
 20
309.3460345510315
 30
0.0
 11
64.95102051443367
 21
250.5383339796104
 31
0.0
  0
LINE
  5
209
330
A
100
AcDbEntity
  8
0
  6
PHANTOM
 62
     7
100
AcDbLine
 10
64.95102051443367
 20
241.4085570211255
 30
0.0
 11
64.95102051443367
 21
34.37306928866796
 31
0.0
  0
LINE
  5
20A
330
A
100
AcDbEntity
  8
0
  6
PHANTOM
 62
     7
100
AcDbLine
 10
74.74897948556637
 20
309.346146638081
 30
0.0
 11
74.74897948556637
 21
250.5383339795854
 31
0.0
  0
LINE
  5
20B
330
A
100
AcDbEntity
  8
0
  6
PHANTOM
 62
     7
100
AcDbLine
 10
74.74897948556637
 20
241.3818015102651
 30
0.0
 11
74.74897948556637
 21
34.37306928866796
 31
0.0
  0
LINE
  5
20C
330
A
100
AcDbEntity
  8
0
  6
PHANTOM
 62
     7
100
AcDbLine
 10
64.35698789095856
 20
-18.76906633506306
 30
0.0
 11
75.34301210904144
 21
-18.76906633506306
 31
0.0
  0
LINE
  5
20D
330
A
100
AcDbEntity
  8
0
  6
PHANTOM
 62
     7
100
AcDbLine
 10
62.99142872020707
 20
309.3983287562298
 30
0.0
 11
62.99142872020707
 21
264.0827229745089
 31
0.0
  0
LINE
  5
20E
330
A
100
AcDbEntity
  8
0
  6
PHANTOM
 62
     7
100
AcDbLine
 10
62.99142872020707
 20
250.1151088989525
 30
0.0
 11
62.99142872020707
 21
34.37306928866796
 31
0.0
  0
LINE
  5
20F
330
A
100
AcDbEntity
  8
0
  6
PHANTOM
 62
     7
100
AcDbLine
 10
76.70857127979288
 20
309.401549873044
 30
0.0
 11
76.70857127979288
 21
264.0827229744837
 31
0.0
  0
LINE
  5
210
330
A
100
AcDbEntity
  8
0
  6
PHANTOM
 62
     7
100
AcDbLine
 10
76.70857127979288
 20
250.115108898927
 30
0.0
 11
76.70857127979288
 21
34.37306928866796
 31
0.0
  0
LINE
  5
211
330
A
100
AcDbEntity
  8
0
  6
PHANTOM
 62
     7
100
AcDbLine
 10
64.44999999999997
 20
34.33143040363998
 30
0.0
 11
64.30999999999984
 21
33.45633040935311
 31
0.0
  0
LINE
  5
212
330
A
100
AcDbEntity
  8
0
  6
PHANTOM
 62
     7
100
AcDbLine
 10
75.3899999999998
 20
33.4563304093532
 30
0.0
 11
75.24999999999997
 21
34.33143040363906
 31
0.0
  0
LINE
  5
213
330
A
100
AcDbEntity
  8
0
  6
PHANTOM
 62
     7
100
AcDbLine
 10
64.30999999999984
 20
29.21368972223382
 30
0.0
 11
64.44999999999997
 21
29.21368972223382
 31
0.0
  0
LINE
  5
214
330
A
100
AcDbEntity
  8
0
  6
PHANTOM
 62
     7
100
AcDbLine
 10
75.24999999999997
 20
29.21368972223382
 30
0.0
 11
75.38999999999984
 21
29.21368972223382
 31
0.0
  0
LINE
  5
215
330
A
100
AcDbEntity
  8
0
  6
PHANTOM
 62
     7
100
AcDbLine
 10
69.84999999999999
 20
-96.12693071133206
 30
0.0
 11
-30.15000000000001
 21
-96.12693071133206
 31
0.0
  0
LINE
  5
216
330
A
100
AcDbEntity
  8
0
  6
PHANTOM
 62
     7
100
AcDbLine
 10
169.85
 20
-96.12693071133206
 30
0.0
 11
69.84999999999999
 21
-96.12693071133206
 31
0.0
  0
LINE
  5
217
330
A
100
AcDbEntity
  8
0
  6
PHANTOM
 62
     7
100
AcDbLine
 10
69.84999999999999
 20
-105.126930711332
 30
0.0
 11
169.85
 21
-105.126930711332
 31
0.0
  0
LINE
  5
218
330
A
100
AcDbEntity
  8
0
  6
PHANTOM
 62
     7
100
AcDbLine
 10
-30.15000000000001
 20
-105.126930711332
 30
0.0
 11
69.84999999999999
 21
-105.126930711332
 31
0.0
  0
LINE
  5
219
330
A
100
AcDbEntity
  8
0
  6
PHANTOM
 62
     7
100
AcDbLine
 10
69.84999999999999
 20
-92.93635148393104
 30
0.0
 11
89.5852623579123
 21
-92.93635148393104
 31
0.0
  0
LINE
  5
21A
330
A
100
AcDbEntity
  8
0
  6
PHANTOM
 62
     7
100
AcDbLine
 10
50.11473764208769
 20
-92.93635148393104
 30
0.0
 11
69.84999999999999
 21
-92.93635148393104
 31
0.0
  0
LINE
  5
21B
330
A
100
AcDbEntity
  8
0
  6
PHANTOM
 62
     7
100
AcDbLine
 10
83.71853598087133
 20
-55.4722203250326
 30
0.0
 11
55.98146401912867
 21
-55.4722203250326
 31
0.0
  0
LINE
  5
21C
330
A
100
AcDbEntity
  8
0
  6
Continuous
 62
     7
100
AcDbLine
 10
64.84999999999998
 20
-326.7671917768546
 30
0.0
 11
65.35805423998974
 21
-326.7671917768546
 31
0.0
  0
LINE
  5
21D
330
A
100
AcDbEntity
  8
0
  6
Continuous
 62
     7
100
AcDbLine
 10
74.34268278409648
 20
-326.7671917768546
 30
0.0
 11
74.84999999999998
 21
-326.7671917768546
 31
0.0
  0
LINE
  5
21E
330
A
100
AcDbEntity
  8
0
  6
Continuous
 62
     7
100
AcDbLine
 10
74.84999999999995
 20
-320.7671917768546
 30
0.0
 11
74.34999999999994
 21
-320.7671917768546
 31
0.0
  0
LINE
  5
21F
330
A
100
AcDbEntity
  8
0
  6
Continuous
 62
     7
100
AcDbLine
 10
65.34999999999993
 20
-320.7671917768546
 30
0.0
 11
64.84999999999996
 21
-320.7671917768546
 31
0.0
  0
LINE
  5
220
330
A
100
AcDbEntity
  8
0
  6
Continuous
 62
     7
100
AcDbLine
 10
76.00894503889944
 20
-823.376915938816
 30
0.0
 11
75.39140605128314
 21
-823.2846435701102
 31
0.0
  0
LINE
  5
221
330
A
100
AcDbEntity
  8
0
  6
Continuous
 62
     7
100
AcDbLine
 10
64.3085939487203
 20
-823.2846435701102
 30
0.0
 11
63.69290168913178
 21
-823.3766400016316
 31
0.0
  0
LWPOLYLINE
  5
222
330
A
100
AcDbEntity
  8
0
  6
Continuous
 62
     7
100
AcDbPolyline
 90
        9
 70
   128
 43
0.0
 10
74.18147596714732
 20
-314.5718129510071
 10
73.61511456318311
 20
-314.0473027366708
 10
72.60783392604942
 20
-313.4260246513177
 10
71.43263159360533
 20
-313.0106681540914
 10
70.14483490282692
 20
-312.8286800293104
 10
68.82551620599284
 20
-312.9001287989987
 10
67.54677361246817
 20
-313.232841680926
 10
66.38179645882117
 20
-313.8307996442077
 10
65.51852403285249
 20
-314.5718129510072
  0
LINE
  5
22D
330
A
100
AcDbEntity
  8
0
  6
Continuous
 62
     7
100
AcDbLine
 10
68.35000000000002
 20
-336.9746556917878
 30
0.0
 11
69.24999999999998
 21
-336.9746556917878
 31
0.0
  0
LINE
  5
22E
330
A
100
AcDbEntity
  8
0
  6
Continuous
 62
     7
100
AcDbLine
 10
70.45000000000003
 20
-336.9746556917878
 30
0.0
 11
71.35000000000001
 21
-336.9746556917878
 31
0.0
  0
LINE
  5
22F
330
A
100
AcDbEntity
  8
0
  6
Continuous
 62
     7
100
AcDbLine
 10
70.45000000000129
 20
-694.9040601622446
 30
0.0
 11
70.45000000000003
 21
-334.9207731935262
 31
0.0
  0
LINE
  5
230
330
A
100
AcDbEntity
  8
0
  6
Continuous
 62
     7
100
AcDbLine
 10
69.24999999999998
 20
-334.9207821112841
 30
0.0
 11
69.25000000000124
 21
-694.9103768598392
 31
0.0
  0
ARC
  5
231
330
A
100
AcDbEntity
  8
0
  6
Continuous
 62
     7
100
AcDbCircle
 10
96.10000000000166
 20
-822.2031134537658
 30
0.0
 40
0.8000000000000682
100
AcDbArc
 50
269.9999999999998
 51
90.00000000000103
  0
ARC
  5
232
330
A
100
AcDbEntity
  8
0
  6
Continuous
 62
     7
100
AcDbCircle
 10
43.60000000000177
 20
-822.2031134537662
 30
0.0
 40
0.8000000000000682
100
AcDbArc
 50
90.00000000000051
 51
270.0000000000023
  0
LINE
  5
233
330
A
100
AcDbEntity
  8
0
  6
Continuous
 62
     7
100
AcDbLine
 10
96.10000000000164
 20
-821.4031134537659
 30
0.0
 11
43.60000000000176
 21
-821.4031134537661
 31
0.0
  0
LINE
  5
234
330
A
100
AcDbEntity
  8
0
  6
Continuous
 62
     7
100
AcDbLine
 10
96.10000000000162
 20
-829.8877387476583
 30
0.0
 11
96.10000000000162
 21
-823.0031134537659
 31
0.0
  0
LINE
  5
235
330
A
100
AcDbEntity
  8
0
  6
Continuous
 62
     7
100
AcDbLine
 10
43.6000000000018
 20
-823.0031134537663
 30
0.0
 11
43.60000000000185
 21
-829.8617379335196
 31
0.0
  0
LINE
  5
236
330
A
100
AcDbEntity
  8
0
  6
Continuous
 62
     7
100
AcDbLine
 10
93.80000000000151
 20
-784.8048065882029
 30
0.0
 11
93.80000000000151
 21
-782.2031134537659
 31
0.0
  0
LINE
  5
237
330
A
100
AcDbEntity
  8
0
  6
Continuous
 62
     7
100
AcDbLine
 10
93.80000000000157
 20
-802.2031134537659
 30
0.0
 11
93.80000000000157
 21
-799.7031134537658
 31
0.0
  0
LINE
  5
238
330
A
100
AcDbEntity
  8
0
  6
Continuous
 62
     7
100
AcDbLine
 10
45.90000000000169
 20
-799.703113453766
 30
0.0
 11
45.90000000000169
 21
-802.2031134537661
 31
0.0
  0
LINE
  5
239
330
A
100
AcDbEntity
  8
0
  6
Continuous
 62
     7
100
AcDbLine
 10
45.90000000000162
 20
-782.2031134537661
 30
0.0
 11
45.90000000000163
 21
-784.8048065882031
 31
0.0
  0
ARC
  5
23A
330
A
100
AcDbEntity
  8
0
  6
Continuous
 62
     7
100
AcDbCircle
 10
81.10000000000143
 20
-750.2031134537659
 30
0.0
 40
10.0
100
AcDbArc
 50
0.0
 51
90.00000000000017
  0
ARC
  5
23B
330
A
100
AcDbEntity
  8
0
  6
Continuous
 62
     7
100
AcDbCircle
 10
58.60000000000148
 20
-750.203113453766
 30
0.0
 40
9.999999999999992
100
AcDbArc
 50
90.00000000000019
 51
180.0000000000004
  0
LINE
  5
23C
330
A
100
AcDbEntity
  8
0
  6
Continuous
 62
     7
100
AcDbLine
 10
91.10000000000153
 20
-782.2031134537659
 30
0.0
 11
91.10000000000143
 21
-750.2031134537659
 31
0.0
  0
LINE
  5
23D
330
A
100
AcDbEntity
  8
0
  6
Continuous
 62
     7
100
AcDbLine
 10
48.60000000000148
 20
-750.203113453766
 30
0.0
 11
48.60000000000161
 21
-782.203113453766
 31
0.0
  0
LINE
  5
23E
330
A
100
AcDbEntity
  8
0
  6
Continuous
 62
     7
100
AcDbLine
 10
91.10000000000164
 20
-821.4031134537661
 30
0.0
 11
91.10000000000157
 21
-802.2031134537661
 31
0.0
  0
LINE
  5
23F
330
A
100
AcDbEntity
  8
0
  6
Continuous
 62
     7
100
AcDbLine
 10
48.6000000000017
 20
-802.2031134537661
 30
0.0
 11
48.60000000000177
 21
-821.4031134537661
 31
0.0
  0
LINE
  5
240
330
A
100
AcDbEntity
  8
0
  6
Continuous
 62
     7
100
AcDbLine
 10
74.85000000000013
 20
-372.7031134537659
 30
0.0
 11
79.85000000000013
 21
-372.7031134537659
 31
0.0
  0
LINE
  5
241
330
A
100
AcDbEntity
  8
0
  6
Continuous
 62
     7
100
AcDbLine
 10
79.85000000000002
 20
-336.7031134537659
 30
0.0
 11
74.85000000000001
 21
-336.7031134537659
 31
0.0
  0
LINE
  5
242
330
A
100
AcDbEntity
  8
0
  6
Continuous
 62
     7
100
AcDbLine
 10
70.00745366246083
 20
-705.7031134537659
 30
0.0
 11
74.8500000000013
 21
-705.7031134537659
 31
0.0
  0
LINE
  5
243
330
A
100
AcDbEntity
  8
0
  6
Continuous
 62
     7
100
AcDbLine
 10
64.8500000000013
 20
-705.7031134537659
 30
0.0
 11
70.00745366246083
 21
-705.7031134537659
 31
0.0
  0
LINE
  5
244
330
A
100
AcDbEntity
  8
0
  6
Continuous
 62
     7
100
AcDbLine
 10
69.25000000000122
 20
-690.703113453766
 30
0.0
 11
64.85000000000126
 21
-690.703113453766
 31
0.0
  0
LINE
  5
245
330
A
100
AcDbEntity
  8
0
  6
Continuous
 62
     7
100
AcDbLine
 10
74.85000000000124
 20
-690.703113453766
 30
0.0
 11
70.45000000000126
 21
-690.703113453766
 31
0.0
  0
LINE
  5
246
330
A
100
AcDbEntity
  8
0
  6
Continuous
 62
     7
100
AcDbLine
 10
34.85000000000163
 20
-799.703113453766
 30
0.0
 11
45.90000000000169
 21
-799.703113453766
 31
0.0
  0
LINE
  5
247
330
A
100
AcDbEntity
  8
0
  6
Continuous
 62
     7
100
AcDbLine
 10
36.85000000000158
 20
-784.703113453766
 30
0.0
 11
34.85000000000157
 21
-784.703113453766
 31
0.0
  0
LINE
  5
248
330
A
100
AcDbEntity
  8
0
  6
Continuous
 62
     7
100
AcDbLine
 10
45.93164177100664
 20
-784.703113453766
 30
0.0
 11
40.8500000000016
 21
-784.703113453766
 31
0.0
  0
LINE
  5
249
330
A
100
AcDbEntity
  8
0
  6
Continuous
 62
     7
100
AcDbLine
 10
93.80000000000157
 20
-799.7031134537658
 30
0.0
 11
104.8500000000016
 21
-799.7031134537658
 31
0.0
  0
LINE
  5
24A
330
A
100
AcDbEntity
  8
0
  6
Continuous
 62
     7
100
AcDbLine
 10
98.85000000000161
 20
-784.7031134537658
 30
0.0
 11
93.76835822899652
 21
-784.7031134537658
 31
0.0
  0
LINE
  5
24B
330
A
100
AcDbEntity
  8
0
  6
Continuous
 62
     7
100
AcDbLine
 10
104.8500000000016
 20
-784.7031134537658
 30
0.0
 11
102.8500000000016
 21
-784.7031134537658
 31
0.0
  0
LINE
  5
24C
330
A
100
AcDbEntity
  8
0
  6
Continuous
 62
     7
100
AcDbLine
 10
62.85000000000021
 20
-399.703113453766
 30
0.0
 11
62.85000000000122
 21
-689.7031134537659
 31
0.0
  0
LINE
  5
24D
330
A
100
AcDbEntity
  8
0
  6
Continuous
 62
     7
100
AcDbLine
 10
76.85000000000126
 20
-689.7031134537659
 30
0.0
 11
76.85000000000025
 21
-399.703113453766
 31
0.0
  0
LINE
  5
24E
330
A
100
AcDbEntity
  8
0
  6
Continuous
 62
     7
100
AcDbLine
 10
76.1000000000014
 20
-740.2031134537659
 30
0.0
 11
76.10000000000137
 21
-731.203113453766
 31
0.0
  0
LINE
  5
24F
330
A
100
AcDbEntity
  8
0
  6
Continuous
 62
     7
100
AcDbLine
 10
63.60000000000142
 20
-731.203113453766
 30
0.0
 11
63.60000000000145
 21
-740.2031134537659
 31
0.0
  0
LINE
  5
250
330
A
100
AcDbEntity
  8
0
  6
Continuous
 62
     7
100
AcDbLine
 10
74.35000000000006
 20
-359.703113453766
 30
0.0
 11
74.85000000000008
 21
-359.703113453766
 31
0.0
  0
LINE
  5
251
330
A
100
AcDbEntity
  8
0
  6
Continuous
 62
     7
100
AcDbLine
 10
74.85000000000005
 20
-349.703113453766
 30
0.0
 11
74.35000000000004
 21
-349.703113453766
 31
0.0
  0
LINE
  5
252
330
A
100
AcDbEntity
  8
0
  6
Continuous
 62
     7
100
AcDbLine
 10
64.8500000000001
 20
-359.703113453766
 30
0.0
 11
65.35000000000007
 21
-359.703113453766
 31
0.0
  0
LINE
  5
253
330
A
100
AcDbEntity
  8
0
  6
Continuous
 62
     7
100
AcDbLine
 10
65.35000000000003
 20
-349.703113453766
 30
0.0
 11
64.85000000000005
 21
-349.703113453766
 31
0.0
  0
LWPOLYLINE
  5
254
330
A
100
AcDbEntity
  8
0
  6
Continuous
 62
     7
100
AcDbPolyline
 90
       45
 70
   128
 43
0.0
 10
69.85000000000217
 20
-956.8684688578926
 10
72.43719607962893
 20
-956.8274540570344
 10
77.28204151117267
 20
-956.5292714929794
 10
82.09611299358583
 20
-955.9435291037772
 10
86.85834023796415
 20
-955.0726936849505
 10
91.54847920713496
 20
-953.9204214467375
 10
96.14658190413663
 20
-952.4915644482152
 10
100.633079873682
 20
-950.7921532181192
 10
104.9888672091203
 20
-948.8293748376813
 10
109.1953826712685
 20
-946.6115463519102
 10
113.2346907006401
 20
-944.1480833050688
 10
117.0895610295582
 20
-941.4494631536403
 10
120.7435464974942
 20
-938.5271832864367
 10
124.181058543966
 20
-935.3937133905697
 10
127.3874397067466
 20
-932.0624419592435
 10
130.3490323054879
 20
-928.5476168564898
 10
133.0532423670571
 20
-924.864280042993
 10
135.488597780285
 20
-921.0281968231956
 10
137.6447996876069
 20
-917.0557802789241
 10
139.5127662565093
 20
-912.9640118734293
 10
141.0846682368871
 20
-908.7703594914136
 10
142.3539560896317
 20
-904.4926943665585
 10
143.3153789266433
 20
-900.149208384149
 10
143.9649959662492
 20
-895.7583330977769
 10
144.3001815980516
 20
-891.338661464368
 10
144.319625386966
 20
-886.9088728196716
 10
144.0233283698623
 20
-882.4876610632182
 10
143.4126129277051
 20
-878.0937574938247
 10
142.4901024317664
 20
-873.745677614554
 10
141.2597043563483
 20
-869.4617355264561
 10
139.7265974736495
 20
-865.2599840459846
 10
137.8972166776198
 20
-861.1581476755093
 10
135.7792346146907
 20
-857.1735539794957
 10
133.3815389346409
 20
-853.323063240083
 10
130.7142040222705
 20
-849.622996773145
 10
127.7884563065246
 20
-846.0890647158535
 10
124.6166326042788
 20
-842.7362943852397
 10
121.2121313642441
 20
-839.5789604287514
 10
117.5893570611382
 20
-836.6305179522779
 10
113.7636582990481
 20
-833.9035396539491
 10
109.7512603886676
 20
-831.4096577615975
 10
105.5691932624423
 20
-829.1595113162435
 10
101.2352155993927
 20
-827.162699102752
 10
96.7677359721312
 20
-825.4277383276001
 10
96.10000000000162
 20
-825.2141403485039
  0
LWPOLYLINE
  5
283
330
A
100
AcDbEntity
  8
0
  6
Continuous
 62
     7
100
AcDbPolyline
 90
       44
 70
   128
 43
0.0
 10
43.60000000000182
 20
-825.2191980131547
 10
39.96983839522661
 20
-826.5429784290857
 10
35.58593147277284
 20
-828.4528054607864
 10
31.34756773516627
 20
-830.6194650361158
 10
27.27281655509892
 20
-833.03376233511
 10
23.37905808166806
 20
-835.6854327528747
 10
19.68290502136952
 20
-838.5631827600841
 10
16.20012662306546
 20
-841.6547363673069
 10
12.94557550863107
 20
-844.94688741346
 10
9.933118140104349
 20
-848.4255577930621
 10
7.175569845266682
 20
-852.0758615623094
 10
4.684635406094677
 20
-855.8821746206925
 10
2.470856215280647
 20
-859.8282093674921
 10
0.5435648957186762
 20
-863.8970934129178
 10
-1.089151959404316
 20
-868.0714511298274
 10
-2.420482626202022
 20
-872.3334866217619
 10
-3.444910813790697
 20
-876.66506661281
 10
-4.158228564895768
 20
-881.0478018744676
 10
-4.557542518106916
 20
-885.4631261033322
 10
-4.641274829385228
 20
-889.8923716207066
 10
-4.409160120139462
 20
-894.316841811441
 10
-3.862251281162423
 20
-898.7178083634836
 10
-3.002909160177202
 20
-903.0767037931019
 10
-1.834780902914917
 20
-907.3751689315626
 10
-0.3627877463928813
 20
-911.5950924085748
 10
1.406889640756664
 20
-915.7186774129767
 10
3.46682878401161
 20
-919.7285099651397
 10
5.808387163937972
 20
-923.6076289262522
 10
8.421729278309268
 20
-927.3395974632162
 10
11.29585996922626
 20
-930.9085752356518
 10
14.41866463779629
 20
-934.2993902509753
 10
17.77695656416172
 20
-937.4976091777485
 10
21.35653115622824
 20
-940.4896049133498
 10
25.14222662312882
 20
-943.2626203380619
 10
29.11799034180916
 20
-945.8048274073217
 10
33.26695006479237
 20
-948.1053809878124
 10
37.571489092637
 20
-950.1544670898063
 10
42.01332458240129
 20
-951.9433453588693
 10
46.57358825661922
 20
-953.4643858502759
 10
51.23290889064512
 20
-954.71110021652
 10
55.9714960705196
 20
-955.6781674979532
 10
60.76922481606965
 20
-956.3614547289226
 10
65.6057207486634
 20
-956.7580325680342
 10
69.85000000000217
 20
-956.8684688578926
  0
LINE
  5
2B1
330
A
100
AcDbEntity
  8
0
  6
Continuous
 62
     7
100
AcDbLine
 10
65.3500000000013
 20
-705.703113453766
 30
0.0
 11
65.35000000000133
 21
-713.5113713772108
 31
0.0
  0
LINE
  5
2B2
330
A
100
AcDbEntity
  8
0
  6
Continuous
 62
     7
100
AcDbLine
 10
65.35000000000124
 20
-689.7031134537659
 30
0.0
 11
65.35000000000126
 21
-690.703113453766
 31
0.0
  0
LINE
  5
2B3
330
A
100
AcDbEntity
  8
0
  6
Continuous
 62
     7
100
AcDbLine
 10
74.35000000000124
 20
-690.703113453766
 30
0.0
 11
74.35000000000124
 21
-689.7031134537659
 31
0.0
  0
LINE
  5
2B4
330
A
100
AcDbEntity
  8
0
  6
Continuous
 62
     7
100
AcDbLine
 10
74.35000000000133
 20
-713.5036380388924
 30
0.0
 11
74.3500000000013
 21
-705.7031134537659
 31
0.0
  0
LINE
  5
2B5
330
A
100
AcDbEntity
  8
0
  6
Continuous
 62
     7
100
AcDbLine
 10
74.34999999999991
 20
-311.7031134537658
 30
0.0
 11
65.34999999999991
 21
-311.7031134537658
 31
0.0
  0
LINE
  5
2B6
330
A
100
AcDbEntity
  8
0
  6
Continuous
 62
     7
100
AcDbLine
 10
65.34999999999991
 20
-313.7031134537658
 30
0.0
 11
64.84999999999994
 21
-313.7031134537659
 31
0.0
  0
LINE
  5
2B7
330
A
100
AcDbEntity
  8
0
  6
Continuous
 62
     7
100
AcDbLine
 10
74.84999999999994
 20
-313.7031134537658
 30
0.0
 11
74.34999999999991
 21
-313.7031134537658
 31
0.0
  0
LINE
  5
2B8
330
A
100
AcDbEntity
  8
0
  6
Continuous
 62
     7
100
AcDbLine
 10
70.44999999999993
 20
-311.7031134537658
 30
0.0
 11
70.44999999999984
 21
-290.2651492471637
 31
0.0
  0
LINE
  5
2B9
330
A
100
AcDbEntity
  8
0
  6
Continuous
 62
     7
100
AcDbLine
 10
69.24999999999986
 20
-290.2651476593521
 30
0.0
 11
69.24999999999993
 21
-311.7031134537658
 31
0.0
  0
LWPOLYLINE
  5
2BA
330
A
100
AcDbEntity
  8
0
  6
Continuous
 62
     7
100
AcDbPolyline
 90
       15
 70
   128
 43
0.0
 10
75.38772144822663
 20
-283.1377141948801
 10
75.22999775597774
 20
-282.0704060869853
 10
74.78747855284149
 20
-281.0937649278515
 10
74.09970204173143
 20
-280.2464155914343
 10
73.18633789674518
 20
-279.5464549011366
 10
72.07268731475685
 20
-279.0258246353925
 10
70.81224551337775
 20
-278.7233140225769
 10
69.48226519824037
 20
-278.6663562466649
 10
68.15763428946256
 20
-278.8664529139059
 10
66.90939567814648
 20
-279.3283572557649
 10
65.81286742766448
 20
-280.0525675114058
 10
65.05628596608193
 20
-280.8778731014877
 10
64.55435178284755
 20
-281.8193451818101
 10
64.32421800019622
 20
-282.832668788162
 10
64.3439477868208
 20
-283.1614163400685
  0
LINE
  5
2CB
330
A
100
AcDbEntity
  8
0
  6
Continuous
 62
     7
100
AcDbLine
 10
64.30999999999986
 20
-291.9986870979115
 30
0.0
 11
64.30999999999994
 21
-318.1675828778521
 31
0.0
  0
LINE
  5
2CC
330
A
100
AcDbEntity
  8
0
  6
Continuous
 62
     7
100
AcDbLine
 10
64.30999999999983
 20
-283.1598523330795
 30
0.0
 11
64.30999999999984
 21
-287.4024930201989
 31
0.0
  0
LINE
  5
2CD
330
A
100
AcDbEntity
  8
0
  6
Continuous
 62
     7
100
AcDbLine
 10
75.38999999999984
 20
-287.4024930201989
 30
0.0
 11
75.38999999999983
 21
-283.1598523330795
 31
0.0
  0
LINE
  5
2CE
330
A
100
AcDbEntity
  8
0
  6
Continuous
 62
     7
100
AcDbLine
 10
75.38999999999994
 20
-318.1577608646007
 30
0.0
 11
75.38999999999986
 21
-291.9986870979114
 31
0.0
  0
LINE
  5
2CF
330
A
100
AcDbEntity
  8
0
  6
Continuous
 62
     7
100
AcDbLine
 10
68.3499999999999
 20
-303.0070489233545
 30
0.0
 11
69.2499999999999
 21
-303.0070489233545
 31
0.0
  0
LINE
  5
2D0
330
A
100
AcDbEntity
  8
0
  6
Continuous
 62
     7
100
AcDbLine
 10
70.44999999999991
 20
-303.0070489233545
 30
0.0
 11
71.3499999999999
 21
-303.0070489233545
 31
0.0
  0
LINE
  5
2D1
330
A
100
AcDbEntity
  8
0
  6
Continuous
 62
     7
100
AcDbLine
 10
79.85000000000003
 20
-343.7031134537647
 30
0.0
 11
83.85000000000003
 21
-343.7031134537647
 31
0.0
  0
LINE
  5
2D2
330
A
100
AcDbEntity
  8
0
  6
Continuous
 62
     7
100
AcDbLine
 10
83.8499999999999
 20
-307.7031134537647
 30
0.0
 11
78.84999999999992
 21
-307.7031134537647
 31
0.0
  0
LINE
  5
2D3
330
A
100
AcDbEntity
  8
0
  6
Continuous
 62
     7
100
AcDbLine
 10
63.85000000000001
 20
-336.7831134537648
 30
0.0
 11
64.96803318323419
 21
-336.7831134537648
 31
0.0
  0
LINE
  5
2D4
330
A
100
AcDbEntity
  8
0
  6
Continuous
 62
     7
100
AcDbLine
 10
74.73196681676583
 20
-336.7831134537647
 30
0.0
 11
74.85000000000001
 21
-336.7831134537647
 31
0.0
  0
LINE
  5
2D5
330
A
100
AcDbEntity
  8
0
  6
Continuous
 62
     7
100
AcDbLine
 10
75.84999999999993
 20
-314.6231134537647
 30
0.0
 11
75.38999999999994
 21
-314.6231134537647
 31
0.0
  0
LINE
  5
2D6
330
A
100
AcDbEntity
  8
0
  6
Continuous
 62
     7
100
AcDbLine
 10
64.30999999999993
 20
-314.6231134537647
 30
0.0
 11
63.84999999999994
 21
-314.6231134537647
 31
0.0
  0
LINE
  5
2D7
330
A
100
AcDbEntity
  8
0
  6
Continuous
 62
     7
100
AcDbLine
 10
75.84999999999999
 20
-331.7031134537647
 30
0.0
 11
78.85000000000001
 21
-331.7031134537647
 31
0.0
  0
LINE
  5
2D8
330
A
100
AcDbEntity
  8
0
  6
Continuous
 62
     7
100
AcDbLine
 10
78.84999999999997
 20
-319.7031134537647
 30
0.0
 11
75.84999999999997
 21
-319.7031134537647
 31
0.0
  0
LINE
  5
2D9
330
A
100
AcDbEntity
  8
0
  6
Continuous
 62
     7
100
AcDbLine
 10
64.84999999999996
 20
-320.7671917768546
 30
0.0
 11
64.84999999999998
 21
-326.7671917768546
 31
0.0
  0
LINE
  5
2DA
330
A
100
AcDbEntity
  8
0
  6
Continuous
 62
     7
100
AcDbLine
 10
74.84999999999995
 20
-320.7671917768546
 30
0.0
 11
74.84999999999998
 21
-326.7671917768546
 31
0.0
  0
LWPOLYLINE
  5
2DB
330
A
100
AcDbEntity
  8
0
  6
Continuous
 62
     7
100
AcDbPolyline
 90
       61
 70
   128
 43
0.0
 10
69.85000000000193
 20
-883.8893862289971
 10
73.27625510854018
 20
-883.7259913797312
 10
76.66497144911933
 20
-883.2375970200947
 10
79.9790215363775
 20
-882.4295541008948
 10
83.18209594404908
 20
-881.3107157094485
 10
86.23910111863727
 20
-879.8933400733037
 10
89.11654387172978
 20
-878.1929562565355
 10
91.78289833838013
 20
-876.2281940200686
 10
94.20895138108114
 20
-874.0205797101184
 10
96.3681226550128
 20
-871.594300411038
 10
98.23675582786222
 20
-868.9759389465594
 10
99.79437776355103
 20
-866.1941826328149
 10
101.0239228301985
 20
-863.2795089740978
 10
101.9119198747556
 20
-860.2638517449479
 10
102.4486398157768
 20
-857.1802511170345
 10
102.6282022372724
 20
-854.0624916641217
 10
102.4486398157768
 20
-850.9447322112089
 10
101.9119198747555
 20
-847.8611315832955
 10
101.0239228301984
 20
-844.8454743541455
 10
99.79437776355087
 20
-841.9308006954285
 10
98.23675582786201
 20
-839.149044381684
 10
96.36812265501255
 20
-836.5306829172054
 10
94.20895138108088
 20
-834.104403618125
 10
91.78289833837981
 20
-831.8967893081749
 10
89.11654387172943
 20
-829.9320270717078
 10
86.2391011186369
 20
-828.2316432549398
 10
83.18209594404869
 20
-826.8142676187952
 10
79.97902153637709
 20
-825.6954292273487
 10
76.66497144911892
 20
-824.887386308149
 10
73.27625510853977
 20
-824.3989919485125
 10
69.8500000000015
 20
-824.2355970992466
 10
66.42374489146323
 20
-824.3989919485127
 10
63.03502855088409
 20
-824.887386308149
 10
59.72097846362594
 20
-825.6954292273489
 10
56.51790405595435
 20
-826.8142676187954
 10
53.46089888136619
 20
-828.2316432549402
 10
50.5834561282737
 20
-829.9320270717084
 10
47.91710166162335
 20
-831.8967893081753
 10
45.49104861892234
 20
-834.1044036181255
 10
43.33187734499072
 20
-836.5306829172061
 10
41.46324417214133
 20
-839.1490443816847
 10
39.90562223645253
 20
-841.9308006954292
 10
38.67607716980508
 20
-844.8454743541461
 10
37.78808012524801
 20
-847.861131583296
 10
37.25136018422682
 20
-850.9447322112096
 10
37.0717977627312
 20
-854.0624916641222
 10
37.25136018422691
 20
-857.180251117035
 10
37.78808012524819
 20
-860.2638517449486
 10
38.67607716980535
 20
-863.2795089740985
 10
39.90562223645289
 20
-866.1941826328154
 10
41.46324417214177
 20
-868.9759389465598
 10
43.33187734499125
 20
-871.5943004110384
 10
45.49104861892294
 20
-874.0205797101189
 10
47.91710166162402
 20
-876.228194020069
 10
50.58345612827441
 20
-878.1929562565361
 10
53.46089888136695
 20
-879.8933400733041
 10
56.51790405595516
 20
-881.3107157094487
 10
59.72097846362678
 20
-882.429554100895
 10
63.03502855088495
 20
-883.2375970200949
 10
66.42374489146411
 20
-883.7259913797312
 10
69.85000000000193
 20
-883.8893862289971
  0
LWPOLYLINE
  5
31A
330
A
100
AcDbEntity
  8
0
  6
Continuous
 62
     7
100
AcDbPolyline
 90
       33
 70
   128
 43
0.0
 10
104.0489137040205
 20
-853.9376817549788
 10
104.0050738725531
 20
-852.4169477589135
 10
103.6545965954212
 20
-849.2807440238395
 10
102.9572384122921
 20
-846.1928958128815
 10
101.9201551618012
 20
-843.1850886272098
 10
100.5539887214965
 20
-840.288186638763
 10
98.87275780777397
 20
-837.5319159820772
 10
96.89371412487737
 20
-834.9445597239204
 10
94.63716533906724
 20
-832.5526676407534
 10
92.12626669448438
 20
-830.3807837820968
 10
89.38678340901093
 20
-828.4511946153687
 10
86.44682628826906
 20
-826.7837003365714
 10
83.33656327071521
 20
-825.3954116934853
 10
80.08790986376778
 20
-824.3005744062433
 10
76.73420164751256
 20
-823.5104229869641
 10
73.30985220654061
 20
-823.033065458455
 10
69.85000000000148
 20
-822.8734001549266
 10
66.39014779346236
 20
-823.033065458455
 10
62.96579835249041
 20
-823.5104229869641
 10
59.6120901362352
 20
-824.3005744062434
 10
56.36343672928781
 20
-825.3954116934856
 10
53.25317371173397
 20
-826.7837003365716
 10
50.31321659099214
 20
-828.4511946153692
 10
47.57373330551874
 20
-830.3807837820972
 10
45.06283466093591
 20
-832.5526676407539
 10
42.80628587512583
 20
-834.944559723921
 10
40.82724219222931
 20
-837.5319159820779
 10
39.14601127850685
 20
-840.2881866387637
 10
37.77984483820217
 20
-843.1850886272105
 10
36.74276158771137
 20
-846.1928958128821
 10
36.04540340458235
 20
-849.2807440238403
 10
35.69492612745039
 20
-852.416947758914
 10
35.65103575880677
 20
-853.9785407536923
  0
LWPOLYLINE
  5
33D
330
A
100
AcDbEntity
  8
0
  6
Continuous
 62
     7
100
AcDbPolyline
 90
       10
 70
   128
 43
0.0
 10
76.00554843153085
 20
-823.4062416709381
 10
76.66278667944069
 20
-823.4826378059036
 10
80.56985156941685
 20
-824.3037444967951
 10
84.14191451012881
 20
-825.3583520790133
 10
87.35043071232185
 20
-826.5245678906955
 10
90.42188406297675
 20
-827.7962865738503
 10
92.91781431352038
 20
-828.8880171096396
 10
94.73006695860142
 20
-829.63714883061
 10
95.8103168562973
 20
-829.9696770916968
 10
96.09188075595746
 20
-829.8877387476581
  0
LWPOLYLINE
  5
349
330
A
100
AcDbEntity
  8
0
  6
Continuous
 62
     7
100
AcDbPolyline
 90
       10
 70
   128
 43
0.0
 10
43.65778586699106
 20
-829.8617379335196
 10
43.81939456333836
 20
-829.9745942430176
 10
44.69897073687037
 20
-829.7399917924224
 10
46.06622335169785
 20
-829.1946289749363
 10
47.9152994005298
 20
-828.3918396852829
 10
50.34295970176134
 20
-827.3421392870732
 10
53.19673778357717
 20
-826.1981558848557
 10
56.91610527535686
 20
-824.9262206862962
 10
61.06031165656431
 20
-823.8523118829174
 10
63.6950045460898
 20
-823.3885512682016
  0
LWPOLYLINE
  5
355
330
A
100
AcDbEntity
  8
0
  6
Continuous
 62
     7
100
AcDbPolyline
 90
       41
 70
   128
 43
0.0
 10
69.85000000000216
 20
-952.3087029426509
 10
74.84950094031941
 20
-952.1480495656007
 10
79.82409461843454
 20
-951.6668898014938
 10
84.74899785887282
 20
-950.8676207640711
 10
89.59967504142055
 20
-949.7542243714732
 10
94.35196033635078
 20
-948.3322475085227
 10
98.98217809737133
 20
-946.6087743924228
 10
103.4672608125039
 20
-944.5923912795446
 10
107.7848640252681
 20
-942.2931436891296
 10
111.91347765364
 20
-939.7224863570171
 10
115.8325331521987
 20
-936.893226168728
 10
119.5225059835848
 20
-933.8194583562042
 10
122.9650128887637
 20
-930.5164962760727
 10
126.142903471497
 20
-927.0007951192724
 10
129.0403456407544
 20
-923.2898699321212
 10
131.6429044853944
 20
-919.4022083572368
 10
133.9376141881656
 20
-915.3571785290294
 10
135.9130426207563
 20
-911.1749325826323
 10
137.5593482980823
 20
-906.8763062569772
 10
138.868329408071
 20
-902.4827150921904
 10
139.8334646726761
 20
-898.0160477384512
 10
140.449945836557
 20
-893.4985569078355
 10
140.7147016215654
 20
-888.9527485124245
 10
140.626413027698
 20
-884.4012695409835
 10
140.1855199042882
 20
-879.8667952328015
 10
139.3942187586994
 20
-875.3719161107911
 10
138.2564518134351
 20
-870.9390254366388
 10
136.7778873661855
 20
-866.590207648702
 10
134.9658915506524
 20
-862.347128338448
 10
132.8294916388428
 20
-858.2309263135671
 10
130.3793310676531
 20
-854.2621082854962
 10
127.6276164138022
 20
-850.4604467060133
 10
124.5880565812802
 20
-846.8448812618783
 10
121.2757945042781
 20
-843.433424518265
 10
117.7073317058517
 20
-840.243072181069
 10
113.9004460881636
 20
-837.2897184251543
 10
109.8741033638691
 20
-834.588076710375
 10
105.6483625698893
 20
-832.151606479857
 10
101.2442761342986
 20
-829.9924461057312
 10
96.683784994187
 20
-828.1213524163716
 10
96.10000000000162
 20
-827.9068035591711
  0
LWPOLYLINE
  5
380
330
A
100
AcDbEntity
  8
0
  6
Continuous
 62
     7
100
AcDbPolyline
 90
       41
 70
   128
 43
0.0
 10
43.60000000000185
 20
-827.9068035591711
 10
43.01621500581554
 20
-828.1213524163723
 10
38.45572386570393
 20
-829.9924461057317
 10
34.05163743011335
 20
-832.1516064798579
 10
29.82589663613362
 20
-834.5880767103759
 10
25.79955391183914
 20
-837.2897184251552
 10
21.99266829415115
 20
-840.24307218107
 10
18.42420549572482
 20
-843.4334245182661
 10
15.11194341872278
 20
-846.8448812618794
 10
12.07238358620081
 20
-850.4604467060145
 10
9.320668932350027
 20
-854.2621082854974
 10
6.870508361160474
 20
-858.2309263135684
 10
4.734108449350987
 20
-862.3471283384491
 10
2.922112633818016
 20
-866.5902076487032
 10
1.443548186568416
 20
-870.93902543664
 10
0.3057812413042871
 20
-875.3719161107923
 10
-0.4855199042844288
 20
-879.8667952328028
 10
-0.9264130276940839
 20
-884.4012695409849
 10
-1.014701621561461
 20
-888.9527485124258
 10
-0.7499458365529677
 20
-893.4985569078367
 10
-0.1334646726718625
 20
-898.0160477384524
 10
0.8316705919333145
 20
-902.4827150921916
 10
2.140651701922083
 20
-906.8763062569782
 10
3.786957379248237
 20
-911.1749325826336
 10
5.762385811839007
 20
-915.3571785290306
 10
8.057095514610326
 20
-919.4022083572379
 10
10.65965435925036
 20
-923.2898699321223
 10
13.55709652850782
 20
-927.0007951192733
 10
16.73498711124121
 20
-930.5164962760736
 10
20.17749401642014
 20
-933.8194583562053
 10
23.86746684780633
 20
-936.8932261687287
 10
27.78652234636509
 20
-939.7224863570176
 10
31.9151359747371
 20
-942.29314368913
 10
36.23273918750135
 20
-944.592391279545
 10
40.71782190263391
 20
-946.6087743924232
 10
45.3480396636545
 20
-948.3322475085232
 10
50.10032495858474
 20
-949.7542243714736
 10
54.9510021411325
 20
-950.8676207640711
 10
59.87590538157079
 20
-951.6668898014936
 10
64.85049905968591
 20
-952.1480495656007
 10
69.85000000000216
 20
-952.3087029426509
  0
LWPOLYLINE
  5
3AB
330
A
100
AcDbEntity
  8
0
  6
Continuous
 62
     7
100
AcDbPolyline
 90
       10
 70
   128
 43
0.0
 10
99.53251939605154
 20
-866.7158159158963
 10
99.60684520150685
 20
-866.5650409037493
 10
100.8286900000666
 20
-863.6686209627438
 10
101.7111257882781
 20
-860.6718498807998
 10
102.244484414984
 20
-857.6075609090052
 10
102.4229222914577
 20
-854.5093270385795
 10
102.244484414984
 20
-851.4110931681537
 10
101.711125788278
 20
-848.3468041963595
 10
100.8286900000665
 20
-845.3500331144153
 10
100.5856536813396
 20
-844.6954523427194
  0
LWPOLYLINE
  5
3B7
330
A
100
AcDbEntity
  8
0
  6
Continuous
 62
     7
100
AcDbPolyline
 90
       10
 70
   128
 43
0.0
 10
39.49406674539994
 20
-843.7612790185394
 10
38.87130999993692
 20
-845.3500331144159
 10
37.98887421172548
 20
-848.34680419636
 10
37.4555155850196
 20
-851.4110931681544
 10
37.27707770854595
 20
-854.5093270385802
 10
37.4555155850197
 20
-857.6075609090059
 10
37.98887421172566
 20
-860.6718498808003
 10
38.8713099999372
 20
-863.6686209627443
 10
40.09315479849709
 20
-866.56504090375
 10
40.1674806039522
 20
-866.7158159158967
  0
LWPOLYLINE
  5
3C3
330
A
100
AcDbEntity
  8
0
  6
Continuous
 62
     7
100
AcDbPolyline
 90
       38
 70
   128
 43
0.0
 10
69.85000000000187
 20
-866.2209273429263
 10
71.96251025402496
 20
-866.0573152866716
 10
74.01424743427757
 20
-865.5711859388771
 10
75.94618679767226
 20
-864.7765243557861
 10
77.70274996619734
 20
-863.6961915043071
 10
79.23340381566085
 20
-862.3612665936203
 10
80.49411422166818
 20
-860.8101529829141
 10
81.44861284120812
 20
-859.0874733866636
 10
82.06944048684784
 20
-857.2427861603777
 10
82.33873707756025
 20
-855.3291595969435
 10
82.24875544073769
 20
-853.4016452484591
 10
81.80208418424234
 20
-851.5156941933145
 10
81.0115732268713
 20
-849.7255618096238
 10
79.89996412958844
 20
-848.0827469467797
 10
78.499235862221
 20
-846.6345103973207
 10
76.84968482672161
 20
-845.4225152899772
 10
74.99876560305158
 20
-844.4816285173136
 10
72.99972576731573
 20
-843.8389176787108
 10
70.91007405594554
 20
-843.5128723948153
 10
68.78992594405783
 20
-843.5128723948153
 10
66.70027423268765
 20
-843.838917678711
 10
64.70123439695182
 20
-844.4816285173136
 10
62.85031517328181
 20
-845.4225152899772
 10
61.20076413778245
 20
-846.6345103973209
 10
59.80003587041505
 20
-848.0827469467799
 10
58.68842677313223
 20
-849.7255618096241
 10
57.89791581576123
 20
-851.5156941933149
 10
57.45124455926593
 20
-853.4016452484594
 10
57.36126292244341
 20
-855.3291595969437
 10
57.63055951315588
 20
-857.2427861603781
 10
58.25138715879561
 20
-859.0874733866639
 10
59.20588577833562
 20
-860.8101529829143
 10
60.46659618434298
 20
-862.3612665936205
 10
61.99725003380652
 20
-863.6961915043073
 10
63.75381320233163
 20
-864.7765243557861
 10
65.68575256572635
 20
-865.5711859388773
 10
67.73748974597895
 20
-866.0573152866716
 10
69.85000000000187
 20
-866.2209273429263
  0
LWPOLYLINE
  5
3EB
330
A
100
AcDbEntity
  8
0
  6
Continuous
 62
     7
100
AcDbPolyline
 90
       20
 70
   128
 43
0.0
 10
82.34792296323936
 20
-855.0537580783306
 10
82.24875544073778
 20
-853.8163384911158
 10
81.80208418424244
 20
-851.9303874359712
 10
81.01157322687141
 20
-850.1402550522803
 10
79.89996412958852
 20
-848.497440189436
 10
78.49923586222107
 20
-847.049203639977
 10
76.84968482672168
 20
-845.8372085326336
 10
74.99876560305164
 20
-844.8963217599699
 10
72.99972576731576
 20
-844.2536109213675
 10
70.91007405594556
 20
-843.9275656374718
 10
68.78992594405781
 20
-843.9275656374718
 10
66.70027423268762
 20
-844.2536109213675
 10
64.70123439695178
 20
-844.89632175997
 10
62.85031517328175
 20
-845.8372085326338
 10
61.20076413778238
 20
-847.0492036399772
 10
59.80003587041497
 20
-848.4974401894362
 10
58.68842677313214
 20
-850.1402550522804
 10
57.89791581576113
 20
-851.9303874359714
 10
57.45124455926584
 20
-853.8163384911159
 10
57.35207703676428
 20
-855.0537580783307
  0
LWPOLYLINE
  5
401
330
A
100
AcDbEntity
  8
0
  6
Continuous
 62
     7
100
AcDbPolyline
 90
        7
 70
   128
 43
0.0
 10
72.34999999999995
 20
-317.4416575621858
 10
72.36012119032962
 20
-317.4444684709082
 10
72.88674478740649
 20
-317.6355805058017
 10
73.47981827635887
 20
-317.9757149778847
 10
73.94442063351785
 20
-318.395060499699
 10
74.24487941040426
 20
-318.8621535567275
 10
74.34999999999994
 20
-319.3371411427995
  0
LWPOLYLINE
  5
40A
330
A
100
AcDbEntity
  8
0
  6
Continuous
 62
     7
100
AcDbPolyline
 90
        7
 70
   128
 43
0.0
 10
65.34999999999993
 20
-319.3371411427994
 10
65.45512058959563
 20
-318.8621535567274
 10
65.75557936648206
 20
-318.395060499699
 10
66.22018172364104
 20
-317.9757149778846
 10
66.81325521259342
 20
-317.6355805058017
 10
67.33987880967013
 20
-317.444468470908
 10
67.34999999999992
 20
-317.4416575621858
  0
LWPOLYLINE
  5
413
330
A
100
AcDbEntity
  8
0
  6
Continuous
 62
     7
100
AcDbPolyline
 90
        9
 70
   128
 43
0.0
 10
71.34999999999998
 20
-327.4352975550457
 10
71.16658755956241
 20
-327.4703388977508
 10
70.98154537179114
 20
-327.500796273288
 10
70.79510249248269
 20
-327.5266319797772
 10
70.6074897112896
 20
-327.547814036304
 10
70.41893926603589
 20
-327.5643162225082
 10
70.22968455523967
 20
-327.5761181110405
 10
70.03995984919929
 20
-327.5832050928488
 10
69.84999999999998
 20
-327.5855683952618
  0
LWPOLYLINE
  5
41E
330
A
100
AcDbEntity
  8
0
  6
Continuous
 62
     7
100
AcDbPolyline
 90
        9
 70
   128
 43
0.0
 10
69.84999999999998
 20
-327.5855683952618
 10
69.66004015080068
 20
-327.5832050928488
 10
69.47031544476029
 20
-327.5761181110405
 10
69.28106073396408
 20
-327.5643162225081
 10
69.09251028871037
 20
-327.547814036304
 10
68.90489750751729
 20
-327.5266319797771
 10
68.71845462820883
 20
-327.500796273288
 10
68.53341244043756
 20
-327.4703388977507
 10
68.34999999999998
 20
-327.4352975550457
  0
LINE
  5
429
330
A
100
AcDbEntity
  8
0
  6
Continuous
 62
     7
100
AcDbLine
 10
65.34999999999995
 20
-326.7868618169104
 30
0.0
 11
65.35000000000002
 21
-347.7213124984637
 31
0.0
  0
LWPOLYLINE
  5
42A
330
A
100
AcDbEntity
  8
0
  6
Continuous
 62
     7
100
AcDbPolyline
 90
        4
 70
   128
 43
0.0
 10
65.34999999999995
 20
-324.9688959206395
 10
65.51853353016557
 20
-325.7609217489498
 10
65.50554590457841
 20
-326.4069880886071
 10
65.34999999999993
 20
-326.7868618169105
  0
LINE
  5
430
330
A
100
AcDbEntity
  8
0
  6
Continuous
 62
     7
100
AcDbLine
 10
65.34999999999993
 20
-319.3371411427993
 30
0.0
 11
65.34999999999995
 21
-324.9688959206395
 31
0.0
  0
LINE
  5
431
330
A
100
AcDbEntity
  8
0
  6
Continuous
 62
     7
100
AcDbLine
 10
74.34999999999996
 20
-324.9688959206396
 30
0.0
 11
74.34999999999994
 21
-319.3371411427995
 31
0.0
  0
LWPOLYLINE
  5
432
330
A
100
AcDbEntity
  8
0
  6
Continuous
 62
     7
100
AcDbPolyline
 90
        4
 70
   128
 43
0.0
 10
74.34999999999996
 20
-326.7868618169103
 10
74.18146646983437
 20
-326.3338122782863
 10
74.19445409542156
 20
-325.6629700952395
 10
74.34999999999996
 20
-324.9688959206396
  0
LINE
  5
438
330
A
100
AcDbEntity
  8
0
  6
Continuous
 62
     7
100
AcDbLine
 10
74.35000000000002
 20
-347.7213124984637
 30
0.0
 11
74.34999999999996
 21
-326.7868618169103
 31
0.0
  0
LWPOLYLINE
  5
439
330
A
100
AcDbEntity
  8
0
  6
Continuous
 62
     7
100
AcDbPolyline
 90
        7
 70
   128
 43
0.0
 10
72.34999999999992
 20
-314.1828234148257
 10
72.36012119032995
 20
-314.1800487238127
 10
72.88674478740635
 20
-314.0926606316493
 10
73.47981827635881
 20
-314.1433076672126
 10
73.94442063351772
 20
-314.3503214128523
 10
74.24487941040419
 20
-314.6858434775479
 10
74.34999999999992
 20
-315.1157669589583
  0
LINE
  5
442
330
A
100
AcDbEntity
  8
0
  6
Continuous
 62
     7
100
AcDbLine
 10
74.34999999999992
 20
-315.1157669589583
 30
0.0
 11
74.34999999999994
 21
-319.3371411427995
 31
0.0
  0
LINE
  5
443
330
A
100
AcDbEntity
  8
0
  6
Continuous
 62
     7
100
AcDbLine
 10
65.34999999999993
 20
-319.3371411427993
 30
0.0
 11
65.34999999999991
 21
-315.1157669589583
 31
0.0
  0
LWPOLYLINE
  5
444
330
A
100
AcDbEntity
  8
0
  6
Continuous
 62
     7
100
AcDbPolyline
 90
        7
 70
   128
 43
0.0
 10
65.34999999999991
 20
-315.1157669589584
 10
65.45512058959559
 20
-314.6858434775481
 10
65.75557936648201
 20
-314.3503214128525
 10
66.22018172364096
 20
-314.1433076672127
 10
66.81325521259336
 20
-314.0926606316493
 10
67.33987880967051
 20
-314.1800487238115
 10
67.34999999999992
 20
-314.1828234148257
  0
LWPOLYLINE
  5
44D
330
A
100
AcDbEntity
  8
0
  6
Continuous
 62
     7
100
AcDbPolyline
 90
       13
 70
   128
 43
0.0
 10
70.43983841496608
 20
-334.9208769591714
 10
70.44769394307521
 20
-334.8557566645701
 10
70.3088499388994
 20
-334.317113870856
 10
70.21635217968506
 20
-334.1439751830428
 10
70.06571529431695
 20
-333.9611203213477
 10
69.98471982386977
 20
-333.9037354604016
 10
69.88731971789502
 20
-333.8700799685927
 10
69.81014514068306
 20
-333.8704722026349
 10
69.73730139068163
 20
-333.8927775482308
 10
69.63465137379303
 20
-333.960799121195
 10
69.48739119814179
 20
-334.1380943020391
 10
69.30007161758567
 20
-334.5724617475393
 10
69.26810672365798
 20
-334.9206238146317
  0
LINE
  5
45C
330
A
100
AcDbEntity
  8
0
  6
Continuous
 62
     7
100
AcDbLine
 10
71.34999999999998
 20
-327.5855683952618
 30
0.0
 11
71.35000000000001
 21
-336.9746556917878
 31
0.0
  0
LINE
  5
45D
330
A
100
AcDbEntity
  8
0
  6
Continuous
 62
     7
100
AcDbLine
 10
68.34999999999998
 20
-327.5855683952618
 30
0.0
 11
68.35000000000002
 21
-336.9746556917878
 31
0.0
  0
LWPOLYLINE
  5
45E
330
A
100
AcDbEntity
  8
0
  6
Continuous
 62
     7
100
AcDbPolyline
 90
       12
 70
   128
 43
0.0
 10
69.26123657937191
 20
-694.9105102694185
 10
69.25226573141621
 20
-694.9957533179429
 10
69.43081197374306
 20
-695.799023081866
 10
69.64090242536847
 20
-696.1523477004998
 10
69.71935924071809
 20
-696.2196663425251
 10
69.79477503609854
 20
-696.2547932565946
 10
69.86116083989981
 20
-696.2621043674221
 10
69.9263267698922
 20
-696.2478493046612
 10
70.00831298771747
 20
-696.1995506108114
 10
70.12482970927344
 20
-696.0708112777913
 10
70.33574116787433
 20
-695.6148697633064
 10
70.43370999871277
 20
-694.9037636041618
  0
LINE
  5
46C
330
A
100
AcDbEntity
  8
0
  6
Continuous
 62
     7
100
AcDbLine
 10
71.34999999999998
 20
-327.4352975550457
 30
0.0
 11
71.34999999999998
 21
-327.5855683952618
 31
0.0
  0
LINE
  5
46D
330
A
100
AcDbEntity
  8
0
  6
Continuous
 62
     7
100
AcDbLine
 10
68.34999999999998
 20
-327.4352975550457
 30
0.0
 11
68.34999999999998
 21
-327.5855683952618
 31
0.0
  0
LINE
  5
46E
330
A
100
AcDbEntity
  8
0
  6
Continuous
 62
     7
100
AcDbLine
 10
66.73075658233009
 20
-823.0031134537663
 30
0.0
 11
43.6000000000018
 21
-823.0031134537663
 31
0.0
  0
LINE
  5
46F
330
A
100
AcDbEntity
  8
0
  6
Continuous
 62
     7
100
AcDbLine
 10
96.10000000000162
 20
-823.0031134537659
 30
0.0
 11
72.96924341767333
 21
-823.0031134537663
 31
0.0
  0
LWPOLYLINE
  5
470
330
A
100
AcDbEntity
  8
0
  6
Continuous
 62
     7
100
AcDbPolyline
 90
       11
 70
   128
 43
0.0
 10
93.80000000000157
 20
-799.7031134537658
 10
93.67782406853125
 20
-799.3033035808541
 10
93.36219160575415
 20
-798.1588379357764
 10
92.9686338707261
 20
-796.3405924021851
 10
92.66578310688606
 20
-793.994051414834
 10
92.60622250520279
 20
-791.5008580114747
 10
92.79501274694885
 20
-789.1829959134087
 10
93.14784525971232
 20
-787.1595934780518
 10
93.53292140771406
 20
-785.6055179520782
 10
93.77271648661368
 20
-784.7907006145598
 10
93.76835389859857
 20
-784.8048065882029
  0
LINE
  5
47D
330
A
100
AcDbEntity
  8
0
  6
Continuous
 62
     7
100
AcDbLine
 10
93.80000000000151
 20
-782.2031134537659
 30
0.0
 11
45.90000000000162
 21
-782.2031134537661
 31
0.0
  0
LINE
  5
47E
330
A
100
AcDbEntity
  8
0
  6
Continuous
 62
     7
100
AcDbLine
 10
93.80000000000157
 20
-802.2031134537659
 30
0.0
 11
45.90000000000169
 21
-802.2031134537661
 31
0.0
  0
LWPOLYLINE
  5
47F
330
A
100
AcDbEntity
  8
0
  6
Continuous
 62
     7
100
AcDbPolyline
 90
       12
 70
   128
 43
0.0
 10
45.93164610140457
 20
-784.8048065882031
 10
45.93670679489699
 20
-784.821169813145
 10
46.17001781351068
 20
-785.6160764603576
 10
46.54249007640382
 20
-787.1151355805229
 10
46.91298634932795
 20
-789.2443814261582
 10
47.09951551572583
 20
-791.7214037182669
 10
47.021772416461
 20
-794.1461715089789
 10
46.73453124327877
 20
-796.3228702236533
 10
46.3442106828624
 20
-798.133512379786
 10
46.0137834905006
 20
-799.3314174237024
 10
45.90000000000169
 20
-799.703113453766
 10
45.90000000000169
 20
-799.703113453766
  0
LINE
  5
48D
330
A
100
AcDbEntity
  8
0
  6
Continuous
 62
     7
100
AcDbLine
 10
81.10000000000139
 20
-740.2031134537659
 30
0.0
 11
58.60000000000145
 21
-740.2031134537661
 31
0.0
  0
LINE
  5
48E
330
A
100
AcDbEntity
  8
0
  6
Continuous
 62
     7
100
AcDbLine
 10
74.85000000000001
 20
-336.7031134537659
 30
0.0
 11
74.85000000000013
 21
-372.7031134537659
 31
0.0
  0
LINE
  5
48F
330
A
100
AcDbEntity
  8
0
  6
Continuous
 62
     7
100
AcDbLine
 10
79.85000000000002
 20
-336.7031134537659
 30
0.0
 11
79.85000000000013
 21
-372.7031134537659
 31
0.0
  0
LINE
  5
490
330
A
100
AcDbEntity
  8
0
  6
Continuous
 62
     7
100
AcDbLine
 10
74.85000000000124
 20
-690.703113453766
 30
0.0
 11
74.8500000000013
 21
-705.7031134537659
 31
0.0
  0
LINE
  5
491
330
A
100
AcDbEntity
  8
0
  6
Continuous
 62
     7
100
AcDbLine
 10
64.85000000000126
 20
-690.703113453766
 30
0.0
 11
64.8500000000013
 21
-705.7031134537659
 31
0.0
  0
LINE
  5
492
330
A
100
AcDbEntity
  8
0
  6
Continuous
 62
     7
100
AcDbLine
 10
65.35000000000005
 20
-351.5680303099122
 30
0.0
 11
65.35000000000002
 21
-347.7213124984637
 31
0.0
  0
LINE
  5
493
330
A
100
AcDbEntity
  8
0
  6
Continuous
 62
     7
100
AcDbLine
 10
74.35000000000004
 20
-347.7213124984637
 30
0.0
 11
74.35000000000005
 21
-351.5680303099122
 31
0.0
  0
LINE
  5
494
330
A
100
AcDbEntity
  8
0
  6
Continuous
 62
     7
100
AcDbLine
 10
65.35000000000009
 20
-364.4345262997337
 30
0.0
 11
65.35000000000005
 21
-351.5680303099122
 31
0.0
  0
LINE
  5
495
330
A
100
AcDbEntity
  8
0
  6
Continuous
 62
     7
100
AcDbLine
 10
74.35000000000009
 20
-364.4345262997337
 30
0.0
 11
74.35000000000005
 21
-351.5680303099122
 31
0.0
  0
LINE
  5
496
330
A
100
AcDbEntity
  8
0
  6
Continuous
 62
     7
100
AcDbLine
 10
36.85000000000159
 20
-786.2031134537661
 30
0.0
 11
40.8500000000016
 21
-786.2031134537661
 31
0.0
  0
LINE
  5
497
330
A
100
AcDbEntity
  8
0
  6
Continuous
 62
     7
100
AcDbLine
 10
34.85000000000163
 20
-799.703113453766
 30
0.0
 11
34.85000000000157
 21
-784.703113453766
 31
0.0
  0
LINE
  5
498
330
A
100
AcDbEntity
  8
0
  6
Continuous
 62
     7
100
AcDbLine
 10
98.85000000000161
 20
-786.2031134537659
 30
0.0
 11
102.8500000000016
 21
-786.2031134537659
 31
0.0
  0
LINE
  5
499
330
A
100
AcDbEntity
  8
0
  6
Continuous
 62
     7
100
AcDbLine
 10
104.8500000000016
 20
-799.7031134537658
 30
0.0
 11
104.8500000000016
 21
-784.7031134537658
 31
0.0
  0
LINE
  5
49A
330
A
100
AcDbEntity
  8
0
  6
Continuous
 62
     7
100
AcDbLine
 10
76.85000000000126
 20
-689.7031134537659
 30
0.0
 11
70.45000000000126
 21
-689.703113453766
 31
0.0
  0
LINE
  5
49B
330
A
100
AcDbEntity
  8
0
  6
Continuous
 62
     7
100
AcDbLine
 10
69.25000000000122
 20
-689.703113453766
 30
0.0
 11
62.85000000000122
 21
-689.7031134537659
 31
0.0
  0
LINE
  5
49C
330
A
100
AcDbEntity
  8
0
  6
Continuous
 62
     7
100
AcDbLine
 10
76.85000000000025
 20
-399.703113453766
 30
0.0
 11
70.45000000000024
 21
-399.703113453766
 31
0.0
  0
LINE
  5
49D
330
A
100
AcDbEntity
  8
0
  6
Continuous
 62
     7
100
AcDbLine
 10
69.25000000000022
 20
-399.703113453766
 30
0.0
 11
62.85000000000021
 21
-399.703113453766
 31
0.0
  0
LINE
  5
49E
330
A
100
AcDbEntity
  8
0
  6
Continuous
 62
     7
100
AcDbLine
 10
65.3500000000001
 20
-367.5618333658637
 30
0.0
 11
65.35000000000009
 21
-364.4345262997337
 31
0.0
  0
LINE
  5
49F
330
A
100
AcDbEntity
  8
0
  6
Continuous
 62
     7
100
AcDbLine
 10
74.35000000000009
 20
-364.4345262997337
 30
0.0
 11
74.35000000000011
 21
-367.5618333658634
 31
0.0
  0
LINE
  5
4A0
330
A
100
AcDbEntity
  8
0
  6
Continuous
 62
     7
100
AcDbLine
 10
76.10000000000137
 20
-731.203113453766
 30
0.0
 11
63.60000000000142
 21
-731.203113453766
 31
0.0
  0
LINE
  5
4A1
330
A
100
AcDbEntity
  8
0
  6
Continuous
 62
     7
100
AcDbLine
 10
65.35000000000021
 20
-399.703113453766
 30
0.0
 11
65.3500000000001
 21
-367.5618333658637
 31
0.0
  0
LINE
  5
4A2
330
A
100
AcDbEntity
  8
0
  6
Continuous
 62
     7
100
AcDbLine
 10
74.35000000000011
 20
-367.5618333658635
 30
0.0
 11
74.35000000000022
 21
-399.703113453766
 31
0.0
  0
LINE
  5
4A3
330
A
100
AcDbEntity
  8
0
  6
Continuous
 62
     7
100
AcDbLine
 10
64.85000000000005
 20
-349.703113453766
 30
0.0
 11
64.8500000000001
 21
-359.703113453766
 31
0.0
  0
LINE
  5
4A4
330
A
100
AcDbEntity
  8
0
  6
Continuous
 62
     7
100
AcDbLine
 10
102.8500000000016
 20
-786.2031134537659
 30
0.0
 11
102.8500000000014
 21
-746.2031134537659
 31
0.0
  0
LINE
  5
4A5
330
A
100
AcDbEntity
  8
0
  6
Continuous
 62
     7
100
AcDbLine
 10
98.85000000000147
 20
-746.2031134537659
 30
0.0
 11
98.85000000000161
 21
-786.2031134537659
 31
0.0
  0
LINE
  5
4A6
330
A
100
AcDbEntity
  8
0
  6
Continuous
 62
     7
100
AcDbLine
 10
40.8500000000016
 20
-786.2031134537661
 30
0.0
 11
40.85000000000146
 21
-746.2031134537661
 31
0.0
  0
LINE
  5
4A7
330
A
100
AcDbEntity
  8
0
  6
Continuous
 62
     7
100
AcDbLine
 10
36.85000000000144
 20
-746.2031134537661
 30
0.0
 11
36.85000000000159
 21
-786.2031134537661
 31
0.0
  0
ARC
  5
4A8
330
A
100
AcDbEntity
  8
0
  6
Continuous
 62
     7
100
AcDbCircle
 10
69.85000000000145
 20
-746.2031134537659
 30
0.0
 40
29.00000000000003
100
AcDbArc
 50
0.0
 51
180.0000000000004
  0
ARC
  5
4A9
330
A
100
AcDbEntity
  8
0
  6
Continuous
 62
     7
100
AcDbCircle
 10
69.85000000000145
 20
-746.2031134537659
 30
0.0
 40
33.0
100
AcDbArc
 50
0.0
 51
90.00000000000019
  0
ARC
  5
4AA
330
A
100
AcDbEntity
  8
0
  6
Continuous
 62
     7
100
AcDbCircle
 10
69.85000000000145
 20
-746.2031134537659
 30
0.0
 40
33.0
100
AcDbArc
 50
90.00000000000019
 51
180.0000000000004
  0
LINE
  5
4AB
330
A
100
AcDbEntity
  8
0
  6
Continuous
 62
     7
100
AcDbLine
 10
65.34999999999991
 20
-315.1157669589583
 30
0.0
 11
65.34999999999991
 21
-311.7031134537658
 31
0.0
  0
LINE
  5
4AC
330
A
100
AcDbEntity
  8
0
  6
Continuous
 62
     7
100
AcDbLine
 10
74.34999999999991
 20
-315.0678434269093
 30
0.0
 11
74.34999999999991
 21
-311.7031134537658
 31
0.0
  0
LINE
  5
4AD
330
A
100
AcDbEntity
  8
0
  6
Continuous
 62
     7
100
AcDbLine
 10
64.84999999999994
 20
-313.7031134537659
 30
0.0
 11
64.84999999999996
 21
-320.8041339681995
 31
0.0
  0
LINE
  5
4AE
330
A
100
AcDbEntity
  8
0
  6
Continuous
 62
     7
100
AcDbLine
 10
74.84999999999994
 20
-313.7031134537658
 30
0.0
 11
74.84999999999995
 21
-320.8041339681995
 31
0.0
  0
LWPOLYLINE
  5
4AF
330
A
100
AcDbEntity
  8
0
  6
Continuous
 62
     7
100
AcDbPolyline
 90
       11
 70
   128
 43
0.0
 10
69.25791819477002
 20
-290.2660538328624
 10
69.27927301065415
 20
-290.0932113775393
 10
69.42115262148913
 20
-289.8763558936176
 10
69.5657032632836
 20
-289.7761459536167
 10
69.71352505418957
 20
-289.7247134068017
 10
69.88064527079963
 20
-289.7109737900314
 10
70.02238263120377
 20
-289.733513345778
 10
70.15028296103327
 20
-289.7843568679871
 10
70.30181240429801
 20
-289.8992711091709
 10
70.42083492733471
 20
-290.0935201289069
 10
70.44186231191921
 20
-290.2660678437481
  0
LINE
  5
4BC
330
A
100
AcDbEntity
  8
0
  6
Continuous
 62
     7
100
AcDbLine
 10
74.74897948556637
 20
-336.7031134537659
 30
0.0
 11
76.70857127979288
 21
-327.1031134537659
 31
0.0
  0
ARC
  5
4BD
330
A
100
AcDbEntity
  8
0
  6
Continuous
 62
     7
100
AcDbCircle
 10
69.85000000000001
 20
-335.7031134537659
 30
0.0
 40
4.999999999999989
100
AcDbArc
 50
191.5369590328164
 51
205.8419327631673
  0
ARC
  5
4BE
330
A
100
AcDbEntity
  8
0
  6
Continuous
 62
     7
100
AcDbCircle
 10
69.85000000000001
 20
-335.7031134537659
 30
0.0
 40
5.000000000000001
100
AcDbArc
 50
334.1580672368333
 51
348.4630409671853
  0
LINE
  5
4BF
330
A
100
AcDbEntity
  8
0
  6
Continuous
 62
     7
100
AcDbLine
 10
62.99142872020707
 20
-327.1031134537659
 30
0.0
 11
64.95102051443367
 21
-336.7031134537659
 31
0.0
  0
ARC
  5
4C0
330
A
100
AcDbEntity
  8
0
  6
Continuous
 62
     7
100
AcDbCircle
 10
69.84999999999998
 20
-325.7031134537659
 30
0.0
 40
6.999999999999994
100
AcDbArc
 50
348.4630409671855
 51
44.41530859719326
  0
ARC
  5
4C1
330
A
100
AcDbEntity
  8
0
  6
Continuous
 62
     7
100
AcDbCircle
 10
69.84999999999998
 20
-325.7031134537659
 30
0.0
 40
7.000000000000021
100
AcDbArc
 50
135.584691402807
 51
191.5369590328169
  0
LWPOLYLINE
  5
4C2
330
A
100
AcDbEntity
  8
0
  6
Continuous
 62
     7
100
AcDbPolyline
 90
        3
 70
   128
 43
0.0
 10
74.84999999999995
 20
-319.9275702958189
 10
75.16542648685605
 20
-319.363848077159
 10
75.34767070275761
 20
-318.1542782188207
  0
LWPOLYLINE
  5
4C7
330
A
100
AcDbEntity
  8
0
  6
Continuous
 62
     7
100
AcDbPolyline
 90
        4
 70
   128
 43
0.0
 10
64.37964048756825
 20
-318.168504900482
 10
64.36507477835083
 20
-318.7325018577855
 10
64.83643671539003
 20
-320.0482143045459
 10
64.84999999999995
 20
-320.067086493912
  0
LWPOLYLINE
  5
4CD
330
A
100
AcDbEntity
  8
0
  6
Continuous
 62
     7
100
AcDbPolyline
 90
       12
 70
   128
 43
0.0
 10
75.38999999999984
 20
-287.402493020199
 10
75.35469653796653
 20
-287.8868496472653
 10
75.18231108238744
 20
-288.7254480797246
 10
74.89451548050493
 20
-289.6892710879289
 10
74.5530988723825
 20
-290.7734047680757
 10
74.36333649525993
 20
-291.6250991148027
 10
74.36373480311191
 20
-292.32169804153
 10
74.53099189189663
 20
-292.7398955026303
 10
74.81666597235573
 20
-292.942508254879
 10
75.15550220599884
 20
-292.8306580226717
 10
75.3671906415352
 20
-292.3261956274716
 10
75.38999999999986
 20
-291.9986870979114
  0
LWPOLYLINE
  5
4DB
330
A
100
AcDbEntity
  8
0
  6
Continuous
 62
     7
100
AcDbPolyline
 90
        3
 70
   128
 43
0.0
 10
75.38999999999986
 20
-291.9986870979114
 10
75.20122907764132
 20
-290.9847967294285
 10
74.84999999999985
 20
-290.3117371875703
  0
LWPOLYLINE
  5
4E0
330
A
100
AcDbEntity
  8
0
  6
Continuous
 62
     7
100
AcDbPolyline
 90
        3
 70
   128
 43
0.0
 10
64.84999999999985
 20
-290.3117371875703
 10
64.49877092235841
 20
-290.9847967294285
 10
64.30999999999986
 20
-291.9986870979115
  0
LWPOLYLINE
  5
4E5
330
A
100
AcDbEntity
  8
0
  6
Continuous
 62
     7
100
AcDbPolyline
 90
       12
 70
   128
 43
0.0
 10
64.30999999999986
 20
-291.9986870979115
 10
64.35299456915178
 20
-292.4335709182332
 10
64.53424915952243
 20
-292.8198061224028
 10
64.82875061865988
 20
-292.9500222211311
 10
65.16853318382667
 20
-292.7405416093241
 10
65.34372945798269
 20
-292.27711342663
 10
65.329823260238
 20
-291.576332150901
 10
65.1545816692071
 20
-290.80036186143
 10
64.86256572118077
 20
-289.8656799012858
 10
64.52567186606342
 20
-288.7557427911131
 10
64.32708071827083
 20
-287.7305203239846
 10
64.30999999999984
 20
-287.402493020199
  0
LWPOLYLINE
  5
4F3
330
A
100
AcDbEntity
  8
0
  6
Continuous
 62
     7
100
AcDbPolyline
 90
        6
 70
   128
 43
0.0
 10
70.44999999999986
 20
-293.5949192695868
 10
70.607103263631
 20
-293.5812082216807
 10
70.79471043213025
 20
-293.5605850201545
 10
70.98120804443374
 20
-293.5354282799067
 10
71.16637706032114
 20
-293.5057675473637
 10
71.34999999999985
 20
-293.4716376588608
  0
LWPOLYLINE
  5
4FB
330
A
100
AcDbEntity
  8
0
  6
Continuous
 62
     7
100
AcDbPolyline
 90
        6
 70
   128
 43
0.0
 10
68.34999999999986
 20
-293.4716376588608
 10
68.53362293967859
 20
-293.5057675473637
 10
68.71879195556599
 20
-293.5354282799067
 10
68.90528956786948
 20
-293.5605850201545
 10
69.09289673636871
 20
-293.5812082216807
 10
69.24999999999987
 20
-293.5949192695868
  0
LINE
  5
503
330
A
100
AcDbEntity
  8
0
  6
Continuous
 62
     7
100
AcDbLine
 10
71.34999999999985
 20
-293.6179616268286
 30
0.0
 11
71.3499999999999
 21
-303.0070489233545
 31
0.0
  0
LINE
  5
504
330
A
100
AcDbEntity
  8
0
  6
Continuous
 62
     7
100
AcDbLine
 10
68.34999999999986
 20
-293.6179616268286
 30
0.0
 11
68.3499999999999
 21
-303.0070489233545
 31
0.0
  0
LINE
  5
505
330
A
100
AcDbEntity
  8
0
  6
Continuous
 62
     7
100
AcDbLine
 10
68.34999999999986
 20
-293.4716376588608
 30
0.0
 11
68.34999999999986
 21
-293.6179616268286
 31
0.0
  0
LINE
  5
506
330
A
100
AcDbEntity
  8
0
  6
Continuous
 62
     7
100
AcDbLine
 10
71.34999999999985
 20
-293.4716376588608
 30
0.0
 11
71.34999999999985
 21
-293.6179616268286
 31
0.0
  0
LINE
  5
507
330
A
100
AcDbEntity
  8
0
  6
Continuous
 62
     7
100
AcDbLine
 10
74.84999999999985
 20
-289.8317863384333
 30
0.0
 11
74.84999999999986
 21
-292.7005900590552
 31
0.0
  0
LINE
  5
508
330
A
100
AcDbEntity
  8
0
  6
Continuous
 62
     7
100
AcDbLine
 10
64.84999999999985
 20
-289.8252286560567
 30
0.0
 11
64.84999999999986
 21
-292.7005900590552
 31
0.0
  0
LINE
  5
509
330
A
100
AcDbEntity
  8
0
  6
Continuous
 62
     7
100
AcDbLine
 10
83.8499999999999
 20
-307.7031134537647
 30
0.0
 11
83.85000000000003
 21
-343.7031134537647
 31
0.0
  0
LINE
  5
50A
330
A
100
AcDbEntity
  8
0
  6
Continuous
 62
     7
100
AcDbLine
 10
78.84999999999992
 20
-307.7031134537647
 30
0.0
 11
78.85000000000002
 21
-336.7031134537659
 31
0.0
  0
LINE
  5
50B
330
A
100
AcDbEntity
  8
0
  6
Continuous
 62
     7
100
AcDbLine
 10
63.84999999999994
 20
-314.6231134537647
 30
0.0
 11
63.84999999999997
 21
-322.0975621783019
 31
0.0
  0
LINE
  5
50C
330
A
100
AcDbEntity
  8
0
  6
Continuous
 62
     7
100
AcDbLine
 10
63.84999999999998
 20
-331.3092365403678
 30
0.0
 11
63.85000000000001
 21
-336.7831134537648
 31
0.0
  0
LINE
  5
50D
330
A
100
AcDbEntity
  8
0
  6
Continuous
 62
     7
100
AcDbLine
 10
75.84999999999993
 20
-314.6231134537647
 30
0.0
 11
75.84999999999997
 21
-322.0975621783018
 31
0.0
  0
LINE
  5
50E
330
A
100
AcDbEntity
  8
0
  6
Continuous
 62
     7
100
AcDbLine
 10
75.84999999999999
 20
-331.3092365403677
 30
0.0
 11
75.85
 21
-336.7031134537659
 31
0.0
  0
ARC
  5
50F
330
A
100
AcDbEntity
  8
0
  6
Continuous
 62
     7
100
AcDbCircle
 10
69.84999999999999
 20
-331.2431134537646
 30
0.0
 40
7.000000000000022
100
AcDbArc
 50
158.8585481843235
 51
180.0000000000004
  0
ARC
  5
510
330
A
100
AcDbEntity
  8
0
  6
Continuous
 62
     7
100
AcDbCircle
 10
69.84999999999999
 20
-331.2431134537646
 30
0.0
 40
6.99999999999999
100
AcDbArc
 50
328.9972808661271
 51
356.2321336109032
  0
ARC
  5
511
330
A
100
AcDbEntity
  8
0
  6
Continuous
 62
     7
100
AcDbCircle
 10
69.84999999999999
 20
-331.2431134537646
 30
0.0
 40
7.000000000000007
100
AcDbArc
 50
180.0000000000004
 51
211.002719133875
  0
ARC
  5
512
330
A
100
AcDbEntity
  8
0
  6
Continuous
 62
     7
100
AcDbCircle
 10
69.84999999999999
 20
-331.2431134537646
 30
0.0
 40
7.250000000000004
100
AcDbArc
 50
325.8515756550539
 51
356.3622380394948
  0
ARC
  5
513
330
A
100
AcDbEntity
  8
0
  6
Continuous
 62
     7
100
AcDbCircle
 10
69.84999999999999
 20
-331.2431134537646
 30
0.0
 40
7.250000000000024
100
AcDbArc
 50
155.8965156409661
 51
214.1484243449482
  0
ARC
  5
514
330
A
100
AcDbEntity
  8
0
  6
Continuous
 62
     7
100
AcDbCircle
 10
69.84999999999999
 20
-402.2431134537644
 30
0.0
 40
100.0
100
AcDbArc
 50
93.17581211251017
 51
265.9860127819448
  0
ARC
  5
515
330
A
100
AcDbEntity
  8
0
  6
Continuous
 62
     7
100
AcDbCircle
 10
69.84999999999999
 20
-402.2431134537644
 30
0.0
 40
100.0
100
AcDbArc
 50
274.0139872180575
 51
86.82418788748995
  0
LWPOLYLINE
  5
516
330
A
100
AcDbEntity
  8
0
  6
PHANTOM
 62
     7
100
AcDbPolyline
 90
       17
 70
   128
 43
0.0
 10
69.85000000000193
 20
-885.1128729278066
 10
73.30985220654105
 20
-884.9532076242782
 10
76.73420164751298
 20
-884.4758500957693
 10
80.08790986376821
 20
-883.6856986764898
 10
83.3365632707156
 20
-882.590861389248
 10
86.44682628826943
 20
-881.2025727461618
 10
89.3867834090113
 20
-879.5350784673642
 10
92.1262666944847
 20
-877.6054893006364
 10
94.63716533906755
 20
-875.4336054419795
 10
96.89371412487766
 20
-873.0417133588126
 10
98.8727578077742
 20
-870.4543571006558
 10
100.5539887214966
 20
-867.69808644397
 10
101.9201551618013
 20
-864.8011844555231
 10
102.9572384122922
 20
-861.7933772698515
 10
103.6545965954212
 20
-858.7055290588933
 10
104.0050738725532
 20
-855.5693253238194
 10
104.0489137040205
 20
-853.9376817549788
  0
LWPOLYLINE
  5
529
330
A
100
AcDbEntity
  8
0
  6
PHANTOM
 62
     7
100
AcDbPolyline
 90
       17
 70
   128
 43
0.0
 10
35.65103575880677
 20
-853.9785407536923
 10
35.69492612745044
 20
-855.5693253238201
 10
36.04540340458247
 20
-858.705529058894
 10
36.74276158771159
 20
-861.7933772698521
 10
37.77984483820247
 20
-864.8011844555238
 10
39.14601127850724
 20
-867.6980864439705
 10
40.82724219222978
 20
-870.4543571006563
 10
42.80628587512636
 20
-873.0417133588131
 10
45.06283466093653
 20
-875.4336054419802
 10
47.57373330551942
 20
-877.6054893006367
 10
50.31321659099287
 20
-879.5350784673647
 10
53.25317371173476
 20
-881.2025727461621
 10
56.36343672928863
 20
-882.5908613892483
 10
59.61209013623606
 20
-883.6856986764901
 10
62.9657983524913
 20
-884.4758500957695
 10
66.39014779346327
 20
-884.9532076242784
 10
69.85000000000193
 20
-885.1128729278066
  0
LWPOLYLINE
  5
53C
330
A
100
AcDbEntity
  8
0
  6
PHANTOM
 62
     7
100
AcDbPolyline
 90
       25
 70
   128
 43
0.0
 10
100.5856536813396
 20
-844.6954523427194
 10
99.60684520150667
 20
-842.4536131734098
 10
98.05897817989894
 20
-839.6892781563314
 10
96.20204769024404
 20
-837.0873146961017
 10
94.05639865157437
 20
-834.6762304488864
 10
91.64553924376347
 20
-832.4824417582501
 10
88.99588334698812
 20
-830.5299842321673
 10
86.13646114572953
 20
-828.8402494038715
 10
83.09860106799723
 20
-827.4317503617416
 10
79.91558654451596
 20
-826.3199189160301
 10
76.6222913484936
 20
-825.5169365247223
 10
73.25479751126408
 20
-825.031600830932
 10
69.85000000000152
 20
-824.8692292740836
 10
66.44520248873892
 20
-825.0316008309322
 10
63.07770865150941
 20
-825.5169365247223
 10
59.78441345548707
 20
-826.3199189160303
 10
56.60139893200583
 20
-827.4317503617419
 10
53.56353885427357
 20
-828.8402494038718
 10
50.70411665301501
 20
-830.5299842321677
 10
48.0544607562397
 20
-832.4824417582506
 10
45.64360134842885
 20
-834.6762304488867
 10
43.49795230975924
 20
-837.0873146961022
 10
41.6410218201044
 20
-839.689278156332
 10
40.09315479849671
 20
-842.4536131734104
 10
39.49406674539994
 20
-843.7612790185394
  0
LWPOLYLINE
  5
557
330
A
100
AcDbEntity
  8
0
  6
PHANTOM
 62
     7
100
AcDbPolyline
 90
       60
 70
   128
 43
0.0
 10
69.85000000000193
 20
-883.5926253147324
 10
73.20787397541064
 20
-883.4297722700261
 10
76.5277018969396
 20
-882.9430583259762
 10
79.77186878770196
 20
-882.1379981460502
 10
82.90361694052208
 20
-881.0237133837722
 10
85.88746239744542
 20
-879.6128293307443
 10
88.68959699716091
 20
-877.9213318670482
 10
91.27827143497757
 20
-875.9683863348353
 10
93.62415499513314
 20
-873.7761203873436
 10
95.70066787952354
 20
-871.3693732737425
 10
97.48428236743617
 20
-868.775414400517
 10
98.9547893940268
 20
-866.0236343581939
 10
100.0955275270993
 20
-863.1452119142082
 10
100.8935717477903
 20
-860.1727607450097
 10
101.3398798961969
 20
-857.1399599100766
 10
101.4293951226621
 20
-854.0811722547143
 10
101.1611031839014
 20
-851.0310550652874
 10
100.5380439347852
 20
-848.0241673883176
 10
99.56727688556769
 20
-845.0945784626759
 10
98.25980121481538
 20
-842.2754817014943
 10
96.63043114431864
 20
-839.5988185975308
 10
94.69762808803945
 20
-837.0949168132939
 10
92.48329147691439
 20
-834.792146556507
 10
90.0125106295515
 20
-832.7165991343203
 10
87.31328048022534
 20
-830.8917913283735
 10
84.41618438508543
 20
-829.338398940264
 10
81.35404760051056
 20
-828.0740225264535
 10
78.16156535983774
 20
-827.1129879769299
 10
74.87490976250497
 20
-826.4661841971486
 10
71.53131992971096
 20
-826.1409397323847
 10
68.16868007029199
 20
-826.1409397323847
 10
64.82509023749802
 20
-826.4661841971488
 10
61.53843464016526
 20
-827.1129879769301
 10
58.34595239949246
 20
-828.0740225264539
 10
55.28381561491762
 20
-829.3383989402645
 10
52.38671951977774
 20
-830.8917913283737
 10
49.68748937045163
 20
-832.7165991343207
 10
47.21670852308879
 20
-834.7921465565075
 10
45.00237191196378
 20
-837.0949168132945
 10
43.06956885568467
 20
-839.5988185975314
 10
41.44019878518798
 20
-842.2754817014949
 10
40.13272311443572
 20
-845.0945784626764
 10
39.16195606521828
 20
-848.0241673883181
 10
38.53889681610212
 20
-851.0310550652882
 10
38.27060487734156
 20
-854.0811722547148
 10
38.36012010380679
 20
-857.1399599100773
 10
38.80642825221348
 20
-860.1727607450104
 10
39.6044724729045
 20
-863.1452119142089
 10
40.74521060597713
 20
-866.0236343581946
 10
42.21571763256782
 20
-868.7754144005177
 10
43.99933212048051
 20
-871.369373273743
 10
46.07584500487096
 20
-873.7761203873439
 10
48.42172856502657
 20
-875.9683863348358
 10
51.01040300284329
 20
-877.9213318670485
 10
53.81253760255881
 20
-879.6128293307447
 10
56.79638305948219
 20
-881.0237133837725
 10
59.92813121230232
 20
-882.1379981460504
 10
63.17229810306471
 20
-882.9430583259764
 10
66.49212602459368
 20
-883.4297722700261
 10
69.85000000000193
 20
-883.5926253147324
  0
LWPOLYLINE
  5
595
330
A
100
AcDbEntity
  8
0
  6
PHANTOM
 62
     7
100
AcDbPolyline
 90
        9
 70
   128
 43
0.0
 10
67.34999999999992
 20
-317.4416575621858
 10
67.87565556187061
 20
-317.7695299458457
 10
68.48522321657085
 20
-318.0142150945597
 10
69.15279558105275
 20
-318.1653135853517
 10
69.84999999999994
 20
-318.21640354454
 10
70.54720441894713
 20
-318.1653135853517
 10
71.21477678342902
 20
-318.0142150945597
 10
71.82434443812927
 20
-317.7695299458457
 10
72.34999999999995
 20
-317.4416575621858
  0
LWPOLYLINE
  5
5A0
330
A
100
AcDbEntity
  8
0
  6
PHANTOM
 62
     7
100
AcDbPolyline
 90
        9
 70
   128
 43
0.0
 10
74.34999999999994
 20
-319.3371411427995
 10
73.48649891257199
 20
-320.0492076408033
 10
72.40354689783369
 20
-320.590930105227
 10
71.16649660116749
 20
-320.9296173404945
 10
69.84999999999994
 20
-321.0448306692862
 10
68.53350339883236
 20
-320.9296173404945
 10
67.29645310216618
 20
-320.5909301052269
 10
66.21350108742788
 20
-320.0492076408032
 10
65.34999999999993
 20
-319.3371411427993
  0
LINE
  5
5AB
330
A
100
AcDbEntity
  8
0
  6
PHANTOM
 62
     7
100
AcDbLine
 10
67.34999999999991
 20
-314.1828234148257
 30
0.0
 11
67.34999999999992
 21
-317.4416575621858
 31
0.0
  0
LWPOLYLINE
  5
5AC
330
A
100
AcDbEntity
  8
0
  6
PHANTOM
 62
     7
100
AcDbPolyline
 90
        9
 70
   128
 43
0.0
 10
72.34999999999992
 20
-314.1828234148257
 10
71.82434443812924
 20
-313.8549510311658
 10
71.214776783429
 20
-313.6102658824518
 10
70.5472044189471
 20
-313.4591673916598
 10
69.84999999999992
 20
-313.4080774324715
 10
69.15279558105274
 20
-313.4591673916598
 10
68.48522321657084
 20
-313.6102658824518
 10
67.87565556187061
 20
-313.8549510311659
 10
67.34999999999991
 20
-314.1828234148257
  0
LINE
  5
5B7
330
A
100
AcDbEntity
  8
0
  6
PHANTOM
 62
     7
100
AcDbLine
 10
72.34999999999995
 20
-317.4416575621858
 30
0.0
 11
72.34999999999992
 21
-314.1828234148257
 31
0.0
  0
LWPOLYLINE
  5
5B8
330
A
100
AcDbEntity
  8
0
  6
PHANTOM
 62
     7
100
AcDbPolyline
 90
        5
 70
   128
 43
0.0
 10
65.35000000000002
 20
-347.7213124984637
 10
66.29053551939328
 20
-348.9396412874628
 10
67.8910347136798
 20
-350.1923063993682
 10
69.21508062019817
 20
-350.6569823195529
 10
69.25000000000004
 20
-350.6610318856914
  0
LWPOLYLINE
  5
5BF
330
A
100
AcDbEntity
  8
0
  6
PHANTOM
 62
     7
100
AcDbPolyline
 90
        6
 70
   128
 43
0.0
 10
70.45000000000008
 20
-350.6085132292251
 10
70.93610314281649
 20
-350.5526075730714
 10
71.20973143542643
 20
-350.4623541390793
 10
72.63915059724907
 20
-349.6463673060508
 10
73.92359430204803
 20
-348.3349412831072
 10
74.35000000000004
 20
-347.7213124984637
  0
LINE
  5
5C7
330
A
100
AcDbEntity
  8
0
  6
PHANTOM
 62
     7
100
AcDbLine
 10
69.84999999999998
 20
-327.5855683952618
 30
0.0
 11
68.34999999999998
 21
-327.5855683952618
 31
0.0
  0
LINE
  5
5C8
330
A
100
AcDbEntity
  8
0
  6
PHANTOM
 62
     7
100
AcDbLine
 10
71.34999999999998
 20
-327.5855683952618
 30
0.0
 11
69.84999999999998
 21
-327.5855683952618
 31
0.0
  0
LINE
  5
5C9
330
A
100
AcDbEntity
  8
0
  6
PHANTOM
 62
     7
100
AcDbLine
 10
91.10000000000146
 20
-750.2031134537659
 30
0.0
 11
48.60000000000145
 21
-750.203113453766
 31
0.0
  0
LWPOLYLINE
  5
5CA
330
A
100
AcDbEntity
  8
0
  6
PHANTOM
 62
     7
100
AcDbPolyline
 90
        4
 70
   128
 43
0.0
 10
74.35000000000005
 20
-351.5680303099122
 10
73.9304240219014
 20
-351.8123268132146
 10
71.8392367296053
 20
-352.638911055607
 10
70.45000000000008
 20
-352.7836512502018
  0
LWPOLYLINE
  5
5D0
330
A
100
AcDbEntity
  8
0
  6
PHANTOM
 62
     7
100
AcDbPolyline
 90
        3
 70
   128
 43
0.0
 10
69.25000000000004
 20
-352.827575698606
 10
66.98410634038339
 20
-352.3667970570459
 10
65.35000000000003
 20
-351.5680303099122
  0
LWPOLYLINE
  5
5D5
330
A
100
AcDbEntity
  8
0
  6
PHANTOM
 62
     7
100
AcDbPolyline
 90
        4
 70
   128
 43
0.0
 10
65.3500000000001
 20
-364.4345262997337
 10
66.5803801081459
 20
-364.1018665024933
 10
68.80034270810135
 20
-363.7559243110068
 10
69.25000000000008
 20
-363.7329643384514
  0
LWPOLYLINE
  5
5DB
330
A
100
AcDbEntity
  8
0
  6
PHANTOM
 62
     7
100
AcDbPolyline
 90
        4
 70
   128
 43
0.0
 10
70.45000000000013
 20
-363.7761897986032
 10
71.83923672960531
 20
-363.8603047316727
 10
73.93042402190143
 20
-364.3105988196095
 10
74.35000000000012
 20
-364.4345262997337
  0
LWPOLYLINE
  5
5E1
330
A
100
AcDbEntity
  8
0
  6
PHANTOM
 62
     7
100
AcDbPolyline
 90
        5
 70
   128
 43
0.0
 10
74.35000000000001
 20
-367.5618333658635
 10
73.92359430204805
 20
-367.2539002779421
 10
72.63915059724912
 20
-366.4783527378956
 10
71.20973143542646
 20
-365.9264579983485
 10
70.45000000000013
 20
-365.8394825814208
  0
LWPOLYLINE
  5
5E8
330
A
100
AcDbEntity
  8
0
  6
PHANTOM
 62
     7
100
AcDbPolyline
 90
        5
 70
   128
 43
0.0
 10
69.2500000000001
 20
-365.787769467656
 10
69.13251273718325
 20
-365.7985260387236
 10
67.61506994734027
 20
-366.2225237788307
 10
66.09412302968333
 20
-367.0399779625031
 10
65.3500000000001
 20
-367.5618333658637
  0
LWPOLYLINE
  5
5EF
330
A
100
AcDbEntity
  8
0
  6
PHANTOM
 62
     7
100
AcDbPolyline
 90
       41
 70
   128
 43
0.0
 10
69.85000000000217
 20
-953.3317357512517
 10
74.87246610957921
 20
-953.1721391169138
 10
79.87046326912691
 20
-952.6941267526595
 10
84.81964173888091
 20
-951.9000274866781
 10
89.69588961882619
 20
-950.7937100907708
 10
94.4754503194504
 20
-949.3805644320838
 10
99.13503830145989
 20
-947.6674752142173
 10
103.6519525205864
 20
-945.6627884356416
 10
108.004187024793
 20
-943.3762707288318
 10
112.1705381650603
 20
-940.8190617782153
 10
116.1307078974331
 20
-938.0036200487495
 10
119.8654026730501
 20
-934.9436620895335
 10
123.3564274343746
 20
-931.6540957081587
 10
126.5867742596862
 20
-928.150947341369
 10
129.5407052239652
 20
-924.4512839758721
 10
132.2038290724818
 20
-920.573129999696
 10
134.5631713335422
 20
-916.5353793891817
 10
136.6072375288109
 20
-912.3577036594307
 10
138.3260691732532
 20
-908.0604560266593
 10
139.7112922918739
 20
-903.6645722493769
 10
140.7561582168811
 20
-899.1914686314741
 10
141.4555764665178
 20
-894.6629376841421
 10
141.8061395453769
 20
-890.1010419549498
 10
141.8061395453769
 20
-885.52800654133
 10
141.4555764665177
 20
-880.9661108121378
 10
140.7561582168809
 20
-876.4375798648059
 10
139.7112922918736
 20
-871.964476246903
 10
138.3260691732529
 20
-867.5685924696209
 10
136.6072375288105
 20
-863.2713448368496
 10
134.5631713335418
 20
-859.0936691070986
 10
132.2038290724813
 20
-855.0559184965843
 10
129.5407052239647
 20
-851.177764520408
 10
126.5867742596856
 20
-847.4781011549113
 10
123.356427434374
 20
-843.9749527881215
 10
119.8654026730493
 20
-840.6853864067468
 10
116.1307078974323
 20
-837.6254284475308
 10
112.1705381650595
 20
-834.8099867180652
 10
108.0041870247922
 20
-832.2527777674485
 10
103.6519525205855
 20
-829.9662600606387
 10
99.13503830145899
 20
-827.9615732820634
 10
96.10000000000161
 20
-826.806812310947
  0
LWPOLYLINE
  5
61A
330
A
100
AcDbEntity
  8
0
  6
PHANTOM
 62
     7
100
AcDbPolyline
 90
       41
 70
   128
 43
0.0
 10
43.60000000000185
 20
-826.8068123109472
 10
40.56496169854359
 20
-827.9615732820639
 10
36.04804747941709
 20
-829.9662600606394
 10
31.69581297521049
 20
-832.2527777674494
 10
27.5294618349432
 20
-834.809986718066
 10
23.56929210257046
 20
-837.6254284475317
 10
19.83459732695352
 20
-840.6853864067478
 10
16.34357256562897
 20
-843.9749527881227
 10
13.11322574031742
 20
-847.4781011549124
 10
10.15929477603844
 20
-851.1777645204093
 10
7.49617092752191
 20
-855.0559184965855
 10
5.136828666461521
 20
-859.0936691070998
 10
3.092762471192917
 20
-863.2713448368509
 10
1.373930826750607
 20
-867.5685924696221
 10
-0.0112922918700242
 20
-871.9644762469043
 10
-1.056158216877198
 20
-876.4375798648071
 10
-1.755576466513836
 20
-880.9661108121394
 10
-2.106139545372975
 20
-885.5280065413316
 10
-2.106139545372892
 20
-890.1010419549514
 10
-1.7555764665136
 20
-894.6629376841434
 10
-1.056158216876823
 20
-899.1914686314755
 10
-0.0112922918695246
 20
-903.6645722493783
 10
1.373930826751246
 20
-908.0604560266605
 10
3.09276247119368
 20
-912.3577036594316
 10
5.136828666462409
 20
-916.5353793891828
 10
7.496170927522936
 20
-920.5731299996971
 10
10.15929477603958
 20
-924.4512839758732
 10
13.11322574031867
 20
-928.15094734137
 10
16.34357256563033
 20
-931.6540957081596
 10
19.83459732695498
 20
-934.9436620895344
 10
23.56929210257201
 20
-938.0036200487502
 10
27.52946183494485
 20
-940.819061778216
 10
31.6958129752122
 20
-943.3762707288323
 10
36.04804747941886
 20
-945.6627884356423
 10
40.56496169854542
 20
-947.6674752142178
 10
45.22454968055493
 20
-949.380564432084
 10
50.00411038117916
 20
-950.793710090771
 10
54.88035826112446
 20
-951.9000274866781
 10
59.82953673087845
 20
-952.6941267526595
 10
64.82753389042613
 20
-953.1721391169137
 10
69.85000000000217
 20
-953.3317357512517
  0
LWPOLYLINE
  5
645
330
A
100
AcDbEntity
  8
0
  6
PHANTOM
 62
     7
100
AcDbPolyline
 90
       20
 70
   128
 43
0.0
 10
69.84999999999982
 20
-284.2487967761067
 10
70.99943612098441
 20
-284.113168770915
 10
72.02431300292125
 20
-283.7209821541877
 10
72.81356933304917
 20
-283.1147364312495
 10
73.28167694142504
 20
-282.3601277330525
 10
73.37790910524343
 20
-281.5389296210065
 10
73.09183757635871
 20
-280.7401316527536
 10
72.45446264378269
 20
-280.0502959827813
 10
71.53485377135104
 20
-279.5441770098344
 10
70.43266484959358
 20
-279.2766205778767
 10
69.26733515040599
 20
-279.2766205778767
 10
68.16514622864855
 20
-279.5441770098344
 10
67.24553735621691
 20
-280.0502959827813
 10
66.60816242364091
 20
-280.7401316527537
 10
66.3220908947562
 20
-281.5389296210067
 10
66.4183230585746
 20
-282.3601277330525
 10
66.88643066695049
 20
-283.1147364312496
 10
67.67568699707843
 20
-283.7209821541877
 10
68.70056387901529
 20
-284.1131687709151
 10
69.84999999999982
 20
-284.2487967761067
  0
LWPOLYLINE
  5
65B
330
A
100
AcDbEntity
  8
0
  6
PHANTOM
 62
     7
100
AcDbPolyline
 90
        7
 70
   128
 43
0.0
 10
69.84999999999984
 20
-287.0772239008529
 10
68.41614249013187
 20
-286.9437427015624
 10
67.07999999999983
 20
-286.5523956268342
 10
65.93262843222636
 20
-285.9298523330795
 10
65.05221926303405
 20
-285.1185381169662
 10
64.49877092235841
 20
-284.1737427015624
 10
64.31000309933262
 20
-283.1639960390073
  0
LWPOLYLINE
  5
664
330
A
100
AcDbEntity
  8
0
  6
PHANTOM
 62
     7
100
AcDbPolyline
 90
        8
 70
   128
 43
0.0
 10
75.38996208489094
 20
-283.1453592663069
 10
75.3899999999998
 20
-283.1598523330795
 10
75.20122907764123
 20
-284.1737427015624
 10
74.64778073696557
 20
-285.1185381169663
 10
73.76737156777323
 20
-285.9298523330795
 10
72.61999999999976
 20
-286.5523956268342
 10
71.28385750986772
 20
-286.9437427015624
 10
69.84999999999984
 20
-287.0772239008529
  0
LINE
  5
66E
330
A
100
AcDbEntity
  8
0
  6
PHANTOM
 62
     7
100
AcDbLine
 10
69.24999999999987
 20
-293.6179616268286
 30
0.0
 11
68.34999999999986
 21
-293.6179616268286
 31
0.0
  0
LINE
  5
66F
330
A
100
AcDbEntity
  8
0
  6
PHANTOM
 62
     7
100
AcDbLine
 10
71.34999999999985
 20
-293.6179616268286
 30
0.0
 11
70.44999999999986
 21
-293.6179616268286
 31
0.0
  0
LINE
  5
670
330
A
100
AcDbEntity
  8
0
  6
PHANTOM
 62
     7
100
AcDbLine
 10
64.30999999999986
 20
-291.9986870979115
 30
0.0
 11
64.84999999999985
 21
-291.9986870979115
 31
0.0
  0
LINE
  5
671
330
A
100
AcDbEntity
  8
0
  6
PHANTOM
 62
     7
100
AcDbLine
 10
74.84999999999986
 20
-291.9986870979114
 30
0.0
 11
75.38999999999986
 21
-291.9986870979114
 31
0.0
  0
ARC
  5
672
330
A
100
AcDbEntity
  8
0
  6
PHANTOM
 62
     7
100
AcDbCircle
 10
69.84999999999999
 20
-331.2431134537646
 30
0.0
 40
12.88057611510189
100
AcDbArc
 50
290.4483739090478
 51
292.8413876989165
  0
ARC
  5
673
330
A
100
AcDbEntity
  8
0
  6
PHANTOM
 62
     7
100
AcDbCircle
 10
69.84999999999999
 20
-331.2431134537646
 30
0.0
 40
12.88057611510194
100
AcDbArc
 50
117.7631533202574
 51
249.551626090954
  0
ARC
  5
674
330
A
100
AcDbEntity
  8
0
  6
PHANTOM
 62
     7
100
AcDbCircle
 10
69.84999999999999
 20
-331.2431134537646
 30
0.0
 40
13.86853598087136
100
AcDbArc
 50
56.31500151491023
 51
64.36516398691347
  0
ARC
  5
675
330
A
100
AcDbEntity
  8
0
  6
PHANTOM
 62
     7
100
AcDbCircle
 10
69.84999999999999
 20
-331.2431134537646
 30
0.0
 40
13.8685359808713
100
AcDbArc
 50
289.1037981657614
 51
291.1326456000024
  0
ARC
  5
676
330
A
100
AcDbEntity
  8
0
  6
PHANTOM
 62
     7
100
AcDbCircle
 10
69.84999999999999
 20
-331.2431134537646
 30
0.0
 40
13.86853598087138
100
AcDbArc
 50
115.6348360130869
 51
251.0110365117072
  0
ARC
  5
677
330
A
100
AcDbEntity
  8
0
  6
PHANTOM
 62
     7
100
AcDbCircle
 10
69.84999999999999
 20
-331.2431134537644
 30
0.0
 40
19.73526235791231
100
AcDbArc
 50
300.4447473980068
 51
44.81468508623981
  0
ARC
  5
678
330
A
100
AcDbEntity
  8
0
  6
PHANTOM
 62
     7
100
AcDbCircle
 10
69.84999999999999
 20
-331.2431134537644
 30
0.0
 40
19.73526235791233
100
AcDbArc
 50
62.86835559618017
 51
73.69706935781239
  0
ARC
  5
679
330
A
100
AcDbEntity
  8
0
  6
PHANTOM
 62
     7
100
AcDbCircle
 10
69.84999999999999
 20
-331.2431134537644
 30
0.0
 40
19.73526235791234
100
AcDbArc
 50
106.302930642188
 51
255.3239491984844
  0
ARC
  5
67A
330
A
100
AcDbEntity
  8
0
  6
PHANTOM
 62
     7
100
AcDbCircle
 10
69.84999999999999
 20
-331.2431134537644
 30
0.0
 40
21.71118208945109
100
AcDbArc
 50
104.7835431358865
 51
256.6854965103004
  0
ARC
  5
67B
330
A
100
AcDbEntity
  8
0
  6
PHANTOM
 62
     7
100
AcDbCircle
 10
69.84999999999999
 20
-331.2431134537644
 30
0.0
 40
21.71118208945111
100
AcDbArc
 50
65.51009347665424
 51
75.21645686411395
  0
ARC
  5
67C
330
A
100
AcDbEntity
  8
0
  6
PHANTOM
 62
     7
100
AcDbCircle
 10
69.84999999999999
 20
-331.2431134537644
 30
0.0
 40
21.71118208945109
100
AcDbArc
 50
297.4253243504123
 51
49.84714374407636
  0
ARC
  5
67D
330
A
100
AcDbEntity
  8
0
  6
PHANTOM
 62
     7
100
AcDbCircle
 10
69.84999999999999
 20
-402.2431134537644
 30
0.0
 40
98.50000000000008
100
AcDbArc
 50
274.075216434902
 51
86.77577453664939
  0
ARC
  5
67E
330
A
100
AcDbEntity
  8
0
  6
PHANTOM
 62
     7
100
AcDbCircle
 10
69.84999999999999
 20
-402.2431134537644
 30
0.0
 40
98.49999999999999
100
AcDbArc
 50
93.22422546335072
 51
265.9247835651004
  0
ARC
  5
67F
330
A
100
AcDbEntity
  8
0
  6
Continuous
 62
     7
100
AcDbCircle
 10
894.2449894165191
 20
311.7613370556841
 30
0.0
 40
2.499999999999861
100
AcDbArc
 50
114.4999999999975
 51
294.5000000000012
  0
ARC
  5
680
330
A
100
AcDbEntity
  8
0
  6
Continuous
 62
     7
100
AcDbCircle
 10
1025.279412422742
 20
371.4771639981823
 30
0.0
 40
2.499999999999809
100
AcDbArc
 50
294.5000000000046
 51
114.499999999998
  0
LINE
  5
681
330
A
100
AcDbEntity
  8
0
  6
Continuous
 62
     7
100
AcDbLine
 10
1023.2196465075
 20
373.2858442642227
 30
0.0
 11
956.0238164926557
 21
432.290496593281
 31
0.0
  0
LINE
  5
682
330
A
100
AcDbEntity
  8
0
  6
Continuous
 62
     7
100
AcDbLine
 10
894.0878466629136
 20
343.2021203333148
 30
0.0
 11
894.2312891184798
 21
314.5024631440261
 31
0.0
  0
LINE
  5
683
330
A
100
AcDbEntity
  8
0
  6
Continuous
 62
     7
100
AcDbLine
 10
893.7843437197763
 20
403.9263347201746
 30
0.0
 11
893.8243563518566
 21
395.9206935770983
 31
0.0
  0
ARC
  5
684
330
A
100
AcDbEntity
  8
0
  6
Continuous
 62
     7
100
AcDbCircle
 10
894.5343343522454
 20
403.9300832143559
 30
0.0
 40
0.750000000000045
100
AcDbArc
 50
114.5000000000078
 51
180.2863650538114
  0
ARC
  5
685
330
A
100
AcDbEntity
  8
0
  6
Continuous
 62
     7
100
AcDbCircle
 10
955.5289493420962
 20
431.726930711332
 30
0.0
 40
0.7500000000000968
100
AcDbArc
 50
48.71363494628884
 51
114.500000000006
  0
LINE
  5
686
330
A
100
AcDbEntity
  8
0
  6
Continuous
 62
     7
100
AcDbLine
 10
955.2179294101039
 20
432.4094016644894
 30
0.0
 11
894.223314420253
 21
404.6125541675133
 31
0.0
  0
ARC
  5
687
330
A
100
AcDbEntity
  8
0
  6
Continuous
 62
     7
100
AcDbCircle
 10
893.1140570186155
 20
395.6230692886679
 30
0.0
 40
0.8000000000000678
100
AcDbArc
 50
27.44797028312654
 51
180.0000000000004
  0
ARC
  5
688
330
A
100
AcDbEntity
  8
0
  6
Continuous
 62
     7
100
AcDbCircle
 10
893.1140570186155
 20
343.123069288668
 30
0.0
 40
0.8000000000001818
100
AcDbArc
 50
180.0000000000004
 51
0.0
  0
LINE
  5
689
330
A
100
AcDbEntity
  8
0
  6
Continuous
 62
     7
100
AcDbLine
 10
892.3140570186157
 20
395.6230692886679
 30
0.0
 11
892.3140570186157
 21
343.123069288668
 31
0.0
  0
LINE
  5
68A
330
A
100
AcDbEntity
  8
0
  6
Continuous
 62
     7
100
AcDbLine
 10
873.1140570186155
 20
393.3230692886679
 30
0.0
 11
853.1140570186154
 21
393.3230692886679
 31
0.0
  0
LINE
  5
68B
330
A
100
AcDbEntity
  8
0
  6
Continuous
 62
     7
100
AcDbLine
 10
853.1140570186154
 20
345.423069288668
 30
0.0
 11
873.1140570186155
 21
345.423069288668
 31
0.0
  0
ARC
  5
68C
330
A
100
AcDbEntity
  8
0
  6
Continuous
 62
     7
100
AcDbCircle
 10
821.1140570186156
 20
380.6230692886679
 30
0.0
 40
10.0
100
AcDbArc
 50
90.0
 51
180.0000000000004
  0
ARC
  5
68D
330
A
100
AcDbEntity
  8
0
  6
Continuous
 62
     7
100
AcDbCircle
 10
821.1140570186156
 20
358.1230692886679
 30
0.0
 40
10.0
100
AcDbArc
 50
180.0000000000004
 51
270.0000000000008
  0
LINE
  5
68E
330
A
100
AcDbEntity
  8
0
  6
Continuous
 62
     7
100
AcDbLine
 10
853.1140570186154
 20
390.6230692886679
 30
0.0
 11
821.1140570186156
 21
390.6230692886679
 31
0.0
  0
LINE
  5
68F
330
A
100
AcDbEntity
  8
0
  6
Continuous
 62
     7
100
AcDbLine
 10
821.1140570186156
 20
348.1230692886679
 30
0.0
 11
853.1140570186154
 21
348.123069288668
 31
0.0
  0
LINE
  5
690
330
A
100
AcDbEntity
  8
0
  6
Continuous
 62
     7
100
AcDbLine
 10
892.3140570186157
 20
390.6230692886679
 30
0.0
 11
873.1140570186155
 21
390.6230692886679
 31
0.0
  0
LINE
  5
691
330
A
100
AcDbEntity
  8
0
  6
Continuous
 62
     7
100
AcDbLine
 10
873.1140570186155
 20
348.123069288668
 30
0.0
 11
892.3140570186157
 21
348.123069288668
 31
0.0
  0
LINE
  5
692
330
A
100
AcDbEntity
  8
0
  6
Continuous
 62
     7
100
AcDbLine
 10
896.6472178907293
 20
310.1087259693031
 30
0.0
 11
926.9825661715682
 21
243.5424127051513
 31
0.0
  0
LINE
  5
693
330
A
100
AcDbEntity
  8
0
  6
Continuous
 62
     7
100
AcDbLine
 10
928.8024887133214
 20
244.3717991904638
 30
0.0
 11
898.4665869712275
 21
310.9378602277901
 31
0.0
  0
LINE
  5
694
330
A
100
AcDbEntity
  8
0
  6
Continuous
 62
     7
100
AcDbLine
 10
389.6140570186156
 20
324.3730692886679
 30
0.0
 11
389.6140570186156
 21
34.37306928866796
 31
0.0
  0
LINE
  5
695
330
A
100
AcDbEntity
  8
0
  6
Continuous
 62
     7
100
AcDbLine
 10
760.6140570186155
 20
376.373069288668
 30
0.0
 11
470.6140570186155
 21
376.373069288668
 31
0.0
  0
LINE
  5
696
330
A
100
AcDbEntity
  8
0
  6
Continuous
 62
     7
100
AcDbLine
 10
811.1140570186154
 20
375.6230692886679
 30
0.0
 11
802.1140570186155
 21
375.6230692886679
 31
0.0
  0
LINE
  5
697
330
A
100
AcDbEntity
  8
0
  6
Continuous
 62
     7
100
AcDbLine
 10
802.1140570186155
 20
363.1230692886679
 30
0.0
 11
811.1140570186154
 21
363.1230692886679
 31
0.0
  0
ARC
  5
698
330
A
100
AcDbEntity
  8
0
  6
Continuous
 62
     7
100
AcDbCircle
 10
392.1540570186156
 20
-18.76906633506303
 30
0.0
 40
15.53999999999996
100
AcDbArc
 50
360.0000000000008
 51
18.47801182848604
  0
ARC
  5
699
330
A
100
AcDbEntity
  8
0
  6
Continuous
 62
     7
100
AcDbCircle
 10
929.6953520062096
 20
240.0011684922011
 30
0.0
 40
1.000000000000131
100
AcDbArc
 50
204.4999999999967
 51
24.50000000001154
  0
LINE
  5
69A
330
A
100
AcDbEntity
  8
0
  6
Continuous
 62
     7
100
AcDbLine
 10
930.6053132770863
 20
240.4158617348573
 30
0.0
 11
928.8024887133214
 21
244.3717991904639
 31
0.0
  0
LINE
  5
69B
330
A
100
AcDbEntity
  8
0
  6
Continuous
 62
     7
100
AcDbLine
 10
926.9825661715682
 20
243.5424127051513
 30
0.0
 11
928.785390735333
 21
239.5864752495449
 31
0.0
  0
LINE
  5
69C
330
A
100
AcDbEntity
  8
0
  6
Continuous
 62
     7
100
AcDbLine
 10
358.9922590949886
 20
20.70012407674774
 30
0.0
 11
386.009130601231
 21
-6.316747429494451
 31
0.0
  0
LINE
  5
69D
330
A
100
AcDbEntity
  8
0
  6
Continuous
 62
     7
100
AcDbLine
 10
350.1534243301568
 20
29.53895884157959
 30
0.0
 11
354.3960650172761
 21
25.29631815446029
 31
0.0
  0
LINE
  5
69E
330
A
100
AcDbEntity
  8
0
  6
Continuous
 62
     7
100
AcDbLine
 10
360.6247034449668
 20
34.73716599786347
 30
0.0
 11
357.9881674657037
 21
37.37370197712664
 31
0.0
  0
LINE
  5
69F
330
A
100
AcDbEntity
  8
0
  6
Continuous
 62
     7
100
AcDbLine
 10
364.5289051916794
 20
30.83296425115095
 30
0.0
 11
361.73761327084
 21
33.62425617199028
 31
0.0
  0
LINE
  5
6A0
330
A
100
AcDbEntity
  8
0
  6
Continuous
 62
     7
100
AcDbLine
 10
391.2267196020049
 20
4.135149840825524
 30
0.0
 11
372.3070797847314
 21
23.05478965809898
 31
0.0
  0
ARC
  5
6A1
330
A
100
AcDbEntity
  8
0
  6
Continuous
 62
     7
100
AcDbCircle
 10
351.5676378925299
 20
30.95317240395268
 30
0.0
 40
2.000000000000006
100
AcDbArc
 50
135.0000000000003
 51
225.0000000000005
  0
ARC
  5
6A2
330
A
100
AcDbEntity
  8
0
  6
Continuous
 62
     7
100
AcDbCircle
 10
356.5739539033306
 20
35.9594884147535
 30
0.0
 40
2.000000000000041
100
AcDbArc
 50
45.00000000000072
 51
134.9999999999969
  0
LINE
  5
6A3
330
A
100
AcDbEntity
  8
0
  6
Continuous
 62
     7
100
AcDbLine
 10
407.6940570186155
 20
-54.62693071133206
 30
0.0
 11
407.6940570186155
 21
-18.76906633506306
 31
0.0
  0
LINE
  5
6A4
330
A
100
AcDbEntity
  8
0
  6
Continuous
 62
     7
100
AcDbLine
 10
396.6140570186156
 20
-20.70693071133206
 30
0.0
 11
396.6140570186156
 21
-54.62693071133206
 31
0.0
  0
LINE
  5
6A5
330
A
100
AcDbEntity
  8
0
  6
Continuous
 62
     7
100
AcDbLine
 10
391.2140570186156
 20
34.37306928866796
 30
0.0
 11
391.2140570186156
 21
4.129985411191166
 31
0.0
  0
LINE
  5
6A6
330
A
100
AcDbEntity
  8
0
  6
Continuous
 62
     7
100
AcDbLine
 10
402.0140570186155
 20
0.0481093402646127
 30
0.0
 11
402.0140570186155
 21
34.37306928866796
 31
0.0
  0
LINE
  5
6A7
330
A
100
AcDbEntity
  8
0
  6
Continuous
 62
     7
100
AcDbLine
 10
411.6140570186155
 20
34.37306928866796
 30
0.0
 11
411.6140570186156
 21
324.3730692886679
 31
0.0
  0
LINE
  5
6A8
330
A
100
AcDbEntity
  8
0
  6
Continuous
 62
     7
100
AcDbLine
 10
470.6140570186155
 20
354.3730692886679
 30
0.0
 11
760.6140570186155
 21
354.3730692886679
 31
0.0
  0
LINE
  5
6A9
330
A
100
AcDbEntity
  8
0
  6
Continuous
 62
     7
100
AcDbLine
 10
398.4965119601112
 20
404.1273675839865
 30
0.0
 11
391.9557742341355
 21
410.6681053099621
 31
0.0
  0
LINE
  5
6AA
330
A
100
AcDbEntity
  8
0
  6
Continuous
 62
     7
100
AcDbLine
 10
421.6050567040857
 20
381.0188228400123
 30
0.0
 11
406.2746865531632
 21
396.3491929909345
 31
0.0
  0
ARC
  5
6AB
330
A
100
AcDbEntity
  8
0
  6
Continuous
 62
     7
100
AcDbCircle
 10
385.733234559694
 20
404.4455656355205
 30
0.0
 40
2.000000000000056
100
AcDbArc
 50
134.9999999999988
 51
225.0000000000019
  0
ARC
  5
6AC
330
A
100
AcDbEntity
  8
0
  6
Continuous
 62
     7
100
AcDbCircle
 10
390.5415606717625
 20
409.2538917475891
 30
0.0
 40
1.999999999999976
100
AcDbArc
 50
45.00000000000346
 51
135.0000000000011
  0
LINE
  5
6AD
330
A
100
AcDbEntity
  8
0
  6
Continuous
 62
     7
100
AcDbLine
 10
384.3190209973209
 20
403.0313520731473
 30
0.0
 11
388.5616616844402
 21
398.7887113860281
 31
0.0
  0
LWPOLYLINE
  5
6AE
330
A
100
AcDbEntity
  8
0
  6
Continuous
 62
     7
100
AcDbPolyline
 90
        8
 70
   128
 43
0.0
 10
387.4632394893276
 20
327.2105887197962
 10
387.4790992168416
 20
327.2052082910997
 10
387.7841956062166
 20
327.0929628638411
 10
388.1802232471159
 20
326.9241633058429
 10
388.7096524772571
 20
326.6544042140662
 10
389.6212836186635
 20
326.0522121059406
 10
390.4309037397819
 20
325.3289696230145
 10
391.2429884982826
 20
324.310624293409
  0
LWPOLYLINE
  5
6B8
330
A
100
AcDbEntity
  8
0
  6
Continuous
 62
     7
100
AcDbPolyline
 90
       13
 70
   128
 43
0.0
 10
394.0093331069829
 20
344.4798042206612
 10
393.96917798673
 20
344.3967925619659
 10
393.287629657684
 20
343.4300072799559
 10
392.5260309588649
 20
342.6387056495848
 10
391.7319044013705
 20
342.0173184919812
 10
390.9508807765644
 20
341.5532921840778
 10
390.226970677635
 20
341.2278009096332
 10
389.6027553893781
 20
341.0170118435492
 10
389.1228766136673
 20
340.8951469672452
 10
388.8512934229545
 20
340.8409037827946
 10
388.7528305158965
 20
340.823818810921
 10
388.7014525436559
 20
340.8154552478174
 10
388.6810421095414
 20
340.8122773639482
  0
LINE
  5
6C7
330
A
100
AcDbEntity
  8
0
  6
Continuous
 62
     7
100
AcDbLine
 10
393.1578557621529
 20
394.1925173083156
 30
0.0
 11
413.9683034672711
 21
373.3820696031975
 31
0.0
  0
ARC
  5
6C8
330
A
100
AcDbEntity
  8
0
  6
Continuous
 62
     7
100
AcDbCircle
 10
411.6140570186155
 20
334.1598658530713
 30
0.0
 40
20.40000000000006
100
AcDbArc
 50
135.0000000000001
 51
149.6024530744828
  0
LINE
  5
6C9
330
A
100
AcDbEntity
  8
0
  6
Continuous
 62
     7
100
AcDbLine
 10
413.9710363302304
 20
365.3668018370975
 30
0.0
 11
397.18907868241
 21
348.5848441892768
 31
0.0
  0
ARC
  5
6CA
330
A
100
AcDbEntity
  8
0
  6
Continuous
 62
     7
100
AcDbCircle
 10
411.6140570186155
 20
334.1598658530713
 30
0.0
 40
9.600000000000141
100
AcDbArc
 50
135.0
 51
180.0000000000004
  0
LINE
  5
6CB
330
A
100
AcDbEntity
  8
0
  6
Continuous
 62
     7
100
AcDbLine
 10
402.0140570186155
 20
324.3730692886679
 30
0.0
 11
402.0140570186155
 21
334.1598658530713
 31
0.0
  0
LINE
  5
6CC
330
A
100
AcDbEntity
  8
0
  6
Continuous
 62
     7
100
AcDbLine
 10
404.8258319192246
 20
340.9480909524622
 30
0.0
 11
421.6086209792847
 21
357.7308800125225
 31
0.0
  0
LWPOLYLINE
  5
6CD
330
A
100
AcDbEntity
  8
0
  6
Continuous
 62
     7
100
AcDbPolyline
 90
       10
 70
   128
 43
0.0
 10
413.9539392770464
 20
373.365730838677
 10
414.1826785745919
 20
373.1429526966407
 10
414.4793790913288
 20
372.662397903461
 10
414.6409587876931
 20
372.21128913432
 10
414.7070400934265
 20
371.8253242153441
 10
414.7164695334928
 20
371.5287338258023
 10
414.7037784958998
 20
371.3369479273205
 10
414.6977115718395
 20
371.2845046501818
 10
414.6944527344325
 20
371.2597449812951
 10
414.6922086706606
 20
371.2437582398805
  0
LWPOLYLINE
  5
6D9
330
A
100
AcDbEntity
  8
0
  6
Continuous
 62
     7
100
AcDbPolyline
 90
        9
 70
   128
 43
0.0
 10
414.688973688959
 20
367.5246721685142
 10
414.6903408105711
 20
367.5156710813071
 10
414.6935451723957
 20
367.493410116063
 10
414.6994836992874
 20
367.4476965786694
 10
414.7173067385842
 20
367.1745598585738
 10
414.70045962865
 20
366.8577026616183
 10
414.4584791270012
 20
366.0405622965746
 10
414.0957720027286
 20
365.4987912560946
 10
413.9592387378574
 20
365.3838404448766
  0
LWPOLYLINE
  5
6E4
330
A
100
AcDbEntity
  8
0
  6
Continuous
 62
     7
100
AcDbPolyline
 90
       11
 70
   128
 43
0.0
 10
421.6233287347119
 20
357.7159879205614
 10
421.8868390284781
 20
357.9743769366577
 10
422.3677762350284
 20
358.2580917689277
 10
422.8157007409369
 20
358.4096907816848
 10
423.1959779767105
 20
358.4689461733763
 10
423.48544623688
 20
358.4746178915218
 10
423.6725628270879
 20
358.4603901903904
 10
423.732758716143
 20
358.452790468746
 10
423.7551319196989
 20
358.4495854050049
 10
423.7663199292557
 20
358.4479043551715
 10
423.7682737805799
 20
358.4476022425667
  0
LWPOLYLINE
  5
6F1
330
A
100
AcDbEntity
  8
0
  6
Continuous
 62
     7
100
AcDbPolyline
 90
        9
 70
   128
 43
0.0
 10
423.7428464339957
 20
380.2948570425188
 10
423.7393965394805
 20
380.2943479353694
 10
423.7167724716213
 20
380.2912459233468
 10
423.6801595186027
 20
380.2866780409757
 10
423.5720342589321
 20
380.2763861824722
 10
423.3493588881014
 20
380.270024897727
 10
422.545960311315
 20
380.4162828928916
 10
421.8673503421316
 20
380.7864434257279
 10
421.6315763949926
 20
381.0409924579591
  0
LWPOLYLINE
  5
6FC
330
A
100
AcDbEntity
  8
0
  6
Continuous
 62
     7
100
AcDbPolyline
 90
        9
 70
   128
 43
0.0
 10
434.6600728954569
 20
362.9733447986533
 10
434.6621523461477
 20
362.9761442355804
 10
434.6759565242136
 20
362.9943353211197
 10
434.6986158109683
 20
363.0234545690735
 10
434.7677944723952
 20
363.1071881163837
 10
434.9207516294715
 20
363.269141488616
 10
435.592260232262
 20
363.7338100505421
 10
436.3338529669617
 20
363.9519167384229
 10
436.6780111296978
 20
363.9387384882284
  0
LWPOLYLINE
  5
707
330
A
100
AcDbEntity
  8
0
  6
Continuous
 62
     7
100
AcDbPolyline
 90
       11
 70
   128
 43
0.0
 10
436.6790008373607
 20
374.7946156055413
 10
436.4015136550681
 20
374.7862560865562
 10
435.8446951809257
 20
374.9095294088442
 10
435.4040874317058
 20
375.1112016401349
 10
435.0775025591308
 20
375.3374519115983
 10
434.8549913248619
 20
375.5431050011282
 10
434.722957713263
 20
375.692367509615
 10
434.6867570435146
 20
375.7378119159398
 10
434.6705127849427
 20
375.7589347248546
 10
434.6601386369962
 20
375.7726781191152
 10
434.6597600909118
 20
375.773186816395
  0
LINE
  5
714
330
A
100
AcDbEntity
  8
0
  6
Continuous
 62
     7
100
AcDbLine
 10
436.6814643006645
 20
363.973069288668
 30
0.0
 11
470.6140570186155
 21
363.973069288668
 31
0.0
  0
LINE
  5
715
330
A
100
AcDbEntity
  8
0
  6
Continuous
 62
     7
100
AcDbLine
 10
470.6140570186155
 20
374.773069288668
 30
0.0
 11
436.6814643006645
 21
374.773069288668
 31
0.0
  0
LINE
  5
716
330
A
100
AcDbEntity
  8
0
  6
Continuous
 62
     7
100
AcDbLine
 10
760.6140570186155
 20
364.873069288668
 30
0.0
 11
784.1140570186155
 21
364.873069288668
 31
0.0
  0
LINE
  5
717
330
A
100
AcDbEntity
  8
0
  6
Continuous
 62
     7
100
AcDbLine
 10
761.6140570186155
 20
373.873069288668
 30
0.0
 11
760.6140570186155
 21
373.873069288668
 31
0.0
  0
LINE
  5
718
330
A
100
AcDbEntity
  8
0
  6
Continuous
 62
     7
100
AcDbLine
 10
784.1140570186154
 20
373.873069288668
 30
0.0
 11
776.6140570186155
 21
373.873069288668
 31
0.0
  0
LINE
  5
719
330
A
100
AcDbEntity
  8
0
  6
Continuous
 62
     7
100
AcDbLine
 10
767.1718549232028
 20
381.1177321130687
 30
0.0
 11
404.7812954339241
 21
405.1903802448335
 31
0.0
  0
LINE
  5
71A
330
A
100
AcDbEntity
  8
0
  6
Continuous
 62
     7
100
AcDbLine
 10
406.5137120283801
 20
403.8726557418918
 30
0.0
 11
764.8849640461291
 21
380.0669995942223
 31
0.0
  0
LINE
  5
71B
330
A
100
AcDbEntity
  8
0
  6
Continuous
 62
     7
100
AcDbLine
 10
383.7038612935497
 20
330.122068516058
 30
0.0
 11
360.6209262272331
 21
34.73720098494448
 31
0.0
  0
LINE
  5
71C
330
A
100
AcDbEntity
  8
0
  6
Continuous
 62
     7
100
AcDbLine
 10
361.73761327084
 20
33.62425617199033
 30
0.0
 11
384.8032801190217
 21
328.7881478908158
 31
0.0
  0
ARC
  5
71D
330
A
100
AcDbEntity
  8
0
  6
Continuous
 62
     7
100
AcDbCircle
 10
374.1540570186156
 20
-105.126930711332
 30
0.0
 40
1.0
100
AcDbArc
 50
180.0000000000004
 51
270.0000000000008
  0
ARC
  5
71E
330
A
100
AcDbEntity
  8
0
  6
Continuous
 62
     7
100
AcDbCircle
 10
572.1540570186155
 20
-105.126930711332
 30
0.0
 40
1.0
100
AcDbArc
 50
270.0000000000008
 51
0.0
  0
ARC
  5
71F
330
A
100
AcDbEntity
  8
0
  6
Continuous
 62
     7
100
AcDbCircle
 10
374.6540570186156
 20
-96.12693071133206
 30
0.0
 40
1.5
100
AcDbArc
 50
90.0
 51
180.0000000000004
  0
ARC
  5
720
330
A
100
AcDbEntity
  8
0
  6
Continuous
 62
     7
100
AcDbCircle
 10
571.6540570186156
 20
-96.12693071133206
 30
0.0
 40
1.5
100
AcDbArc
 50
0.0
 51
90.0
  0
LINE
  5
721
330
A
100
AcDbEntity
  8
0
  6
Continuous
 62
     7
100
AcDbLine
 10
573.1540570186155
 20
-105.126930711332
 30
0.0
 11
573.1540570186155
 21
-96.12693071133206
 31
0.0
  0
LINE
  5
722
330
A
100
AcDbEntity
  8
0
  6
Continuous
 62
     7
100
AcDbLine
 10
373.1540570186156
 20
-96.12693071133206
 30
0.0
 11
373.1540570186156
 21
-105.126930711332
 31
0.0
  0
LINE
  5
723
330
A
100
AcDbEntity
  8
0
  6
Continuous
 62
     7
100
AcDbLine
 10
529.5890919497208
 20
-108.626930711332
 30
0.0
 11
529.5890919497208
 21
-106.126930711332
 31
0.0
  0
LINE
  5
724
330
A
100
AcDbEntity
  8
0
  6
Continuous
 62
     7
100
AcDbLine
 10
509.5890919497207
 20
-106.126930711332
 30
0.0
 11
509.5890919497207
 21
-108.626930711332
 31
0.0
  0
LINE
  5
725
330
A
100
AcDbEntity
  8
0
  6
Continuous
 62
     7
100
AcDbLine
 10
436.7190220875098
 20
-108.626930711332
 30
0.0
 11
436.7190220875098
 21
-106.126930711332
 31
0.0
  0
LINE
  5
726
330
A
100
AcDbEntity
  8
0
  6
Continuous
 62
     7
100
AcDbLine
 10
416.7190220875098
 20
-106.126930711332
 30
0.0
 11
416.7190220875098
 21
-108.626930711332
 31
0.0
  0
ARC
  5
727
330
A
100
AcDbEntity
  8
0
  6
Continuous
 62
     7
100
AcDbCircle
 10
380.4428749291645
 20
-92.62693071133204
 30
0.0
 40
2.0
100
AcDbArc
 50
270.0000000000008
 51
351.0999999999934
  0
ARC
  5
728
330
A
100
AcDbEntity
  8
0
  6
Continuous
 62
     7
100
AcDbCircle
 10
423.8652391080666
 20
-92.62693071133204
 30
0.0
 40
2.000000000000023
100
AcDbArc
 50
188.9000000000021
 51
270.0000000000008
  0
LINE
  5
729
330
A
100
AcDbEntity
  8
0
  6
Continuous
 62
     7
100
AcDbLine
 10
421.8893193765278
 20
-92.93635148393104
 30
0.0
 11
416.0225929994869
 21
-55.4722203250326
 31
0.0
  0
LINE
  5
72A
330
A
100
AcDbEntity
  8
0
  6
Continuous
 62
     7
100
AcDbLine
 10
388.2855210377443
 20
-55.4722203250326
 30
0.0
 11
382.4187946607033
 21
-92.93635148393104
 31
0.0
  0
ARC
  5
72B
330
A
100
AcDbEntity
  8
0
  6
Continuous
 62
     7
100
AcDbCircle
 10
389.2734809035136
 20
-55.62693071133207
 30
0.0
 40
1.0
100
AcDbArc
 50
90.0
 51
171.0999999999925
  0
ARC
  5
72C
330
A
100
AcDbEntity
  8
0
  6
Continuous
 62
     7
100
AcDbCircle
 10
415.0346331337175
 20
-55.62693071133207
 30
0.0
 40
1.0
100
AcDbArc
 50
8.900000000007405
 51
90.0
  0
LINE
  5
72D
330
A
100
AcDbEntity
  8
0
  6
Continuous
 62
     7
100
AcDbLine
 10
558.2875218059326
 20
-108.626930711332
 30
0.0
 11
558.2875218059326
 21
-106.126930711332
 31
0.0
  0
LINE
  5
72E
330
A
100
AcDbEntity
  8
0
  6
Continuous
 62
     7
100
AcDbLine
 10
538.2875218059328
 20
-106.126930711332
 30
0.0
 11
538.2875218059328
 21
-108.626930711332
 31
0.0
  0
LINE
  5
72F
330
A
100
AcDbEntity
  8
0
  6
Continuous
 62
     7
100
AcDbLine
 10
408.0205922312986
 20
-108.626930711332
 30
0.0
 11
408.0205922312986
 21
-106.126930711332
 31
0.0
  0
LINE
  5
730
330
A
100
AcDbEntity
  8
0
  6
Continuous
 62
     7
100
AcDbLine
 10
388.0205922312986
 20
-106.126930711332
 30
0.0
 11
388.0205922312986
 21
-108.626930711332
 31
0.0
  0
LINE
  5
731
330
A
100
AcDbEntity
  8
0
  6
Continuous
 62
     7
100
AcDbLine
 10
483.1540570186152
 20
-108.626930711332
 30
0.0
 11
483.1540570186152
 21
-106.126930711332
 31
0.0
  0
LINE
  5
732
330
A
100
AcDbEntity
  8
0
  6
Continuous
 62
     7
100
AcDbLine
 10
463.1540570186153
 20
-106.126930711332
 30
0.0
 11
463.1540570186153
 21
-108.626930711332
 31
0.0
  0
CIRCLE
  5
733
330
A
100
AcDbEntity
  8
0
  6
Continuous
 62
     7
100
AcDbCircle
 10
394.6781353417041
 20
400.3089909655794
 30
0.0
 40
3.0
  0
LINE
  5
734
330
A
100
AcDbEntity
  8
0
  6
Continuous
 62
     7
100
AcDbLine
 10
1026.316145529382
 20
369.2022608209923
 30
0.0
 11
896.7124152743208
 21
310.1384381287977
 31
0.0
  0
LWPOLYLINE
  5
735
330
A
100
AcDbEntity
  8
0
  6
Continuous
 62
     7
100
AcDbPolyline
 90
        3
 70
   128
 43
0.0
 10
896.6472178907293
 20
310.1087259693031
 10
896.6910815167882
 20
310.1287352767787
 10
896.7124152743208
 20
310.1384381287977
  0
LINE
  5
73A
330
A
100
AcDbEntity
  8
0
  6
Continuous
 62
     7
100
AcDbLine
 10
896.6472178907293
 20
310.1087259693031
 30
0.0
 11
895.2817225231596
 21
309.4864338784935
 31
0.0
  0
LINE
  5
73B
330
A
100
AcDbEntity
  8
0
  6
Continuous
 62
     7
100
AcDbLine
 10
893.2082563101387
 20
314.0362402329939
 30
0.0
 11
1024.242679316101
 21
373.7520671753735
 31
0.0
  0
LWPOLYLINE
  5
73C
330
A
100
AcDbEntity
  8
0
  6
Continuous
 62
     7
100
AcDbPolyline
 90
       22
 70
   128
 43
0.0
 10
894.1201689221303
 20
343.2022818817334
 10
894.1063956891388
 20
343.1673839128217
 10
894.3331111102315
 20
343.739220670404
 10
894.7984069379208
 20
344.9310280445341
 10
895.4659394162325
 20
346.6989497527164
 10
896.3270382493956
 20
349.0961179236399
 10
897.2921242601522
 20
351.991818404331
 10
898.3558096432302
 20
355.5576693280252
 10
899.3564736262499
 20
359.5297621634723
 10
900.1973424340784
 20
363.9031983602584
 10
900.742877841218
 20
368.4826131285646
 10
900.8855378078674
 20
372.7316251659648
 10
900.650935357272
 20
376.8889343090833
 10
900.105572539786
 20
380.4771292618345
 10
899.3027832501324
 20
383.7928962505813
 10
898.2530828519228
 20
386.9369238870795
 10
897.1090994497052
 20
389.6642338080099
 10
895.8371642511457
 20
392.2132669503385
 10
894.7632554477669
 20
394.1077388604498
 10
894.2357157565863
 20
394.9749589013637
 10
893.9140570186157
 20
395.4851402694741
 10
893.9140570186157
 20
395.4851402694741
  0
LWPOLYLINE
  5
754
330
A
100
AcDbEntity
  8
0
  6
Continuous
 62
     7
100
AcDbPolyline
 90
        8
 70
   128
 43
0.0
 10
893.9140570186157
 20
395.4851402694741
 10
893.9140394504883
 20
395.4904637986781
 10
893.913632074925
 20
395.511849210869
 10
893.9124167267438
 20
395.5388544523921
 10
893.908045980541
 20
395.5923023282976
 10
893.8902005302775
 20
395.7158832844104
 10
893.8382736913474
 20
395.9412664543751
 10
893.8437072395359
 20
395.9207902938928
  0
CIRCLE
  5
75E
330
A
100
AcDbEntity
  8
0
  6
Continuous
 62
     7
100
AcDbCircle
 10
863.1140570186158
 20
369.373069288668
 30
0.0
 40
7.500000000000113
  0
LINE
  5
75F
330
A
100
AcDbEntity
  8
0
  6
Continuous
 62
     7
100
AcDbLine
 10
784.1140570186155
 20
364.873069288668
 30
0.0
 11
817.1140570186157
 21
364.873069288668
 31
0.0
  0
LWPOLYLINE
  5
760
330
A
100
AcDbEntity
  8
0
  6
Continuous
 62
     7
100
AcDbPolyline
 90
       11
 70
   128
 43
0.0
 10
784.1140570186154
 20
373.873069288668
 10
784.1464797061791
 20
373.6287894217913
 10
784.2311660808118
 20
372.9134811894919
 10
784.3325707200062
 20
371.7970833038741
 10
784.4061654656626
 20
370.4007705291652
 10
784.4223149420604
 20
369.373069288668
 10
784.3887561521077
 20
367.8914091375332
 10
784.3029530788201
 20
366.5769037449172
 10
784.2017296601373
 20
365.568954128525
 10
784.12934830724
 20
364.9866118599117
 10
784.1140570186155
 20
364.873069288668
  0
LINE
  5
76D
330
A
100
AcDbEntity
  8
0
  6
Continuous
 62
     7
100
AcDbLine
 10
784.1140570186154
 20
373.873069288668
 30
0.0
 11
817.1140570186157
 21
373.873069288668
 31
0.0
  0
LINE
  5
76E
330
A
100
AcDbEntity
  8
0
  6
Continuous
 62
     7
100
AcDbLine
 10
817.1140570186157
 20
364.873069288668
 30
0.0
 11
857.1140570186157
 21
364.873069288668
 31
0.0
  0
LINE
  5
76F
330
A
100
AcDbEntity
  8
0
  6
Continuous
 62
     7
100
AcDbLine
 10
817.1140570186157
 20
373.873069288668
 30
0.0
 11
857.1140570186157
 21
373.873069288668
 31
0.0
  0
LINE
  5
770
330
A
100
AcDbEntity
  8
0
  6
Continuous
 62
     7
100
AcDbLine
 10
893.9140570186157
 20
395.4851402694741
 30
0.0
 11
893.9140570186157
 21
343.1230692886682
 31
0.0
  0
LINE
  5
771
330
A
100
AcDbEntity
  8
0
  6
Continuous
 62
     7
100
AcDbLine
 10
853.1140570186154
 20
393.3230692886679
 30
0.0
 11
853.1140570186158
 21
373.873069288668
 31
0.0
  0
LINE
  5
772
330
A
100
AcDbEntity
  8
0
  6
Continuous
 62
     7
100
AcDbLine
 10
853.1140570186158
 20
364.873069288668
 30
0.0
 11
853.1140570186154
 21
345.423069288668
 31
0.0
  0
LINE
  5
773
330
A
100
AcDbEntity
  8
0
  6
Continuous
 62
     7
100
AcDbLine
 10
873.1140570186155
 20
393.3230692886679
 30
0.0
 11
873.1140570186155
 21
345.423069288668
 31
0.0
  0
LINE
  5
774
330
A
100
AcDbEntity
  8
0
  6
Continuous
 62
     7
100
AcDbLine
 10
811.1140570186154
 20
380.6230688633679
 30
0.0
 11
811.1140570186158
 21
373.873069288668
 31
0.0
  0
LINE
  5
775
330
A
100
AcDbEntity
  8
0
  6
Continuous
 62
     7
100
AcDbLine
 10
811.1140570186158
 20
364.873069288668
 30
0.0
 11
811.1140570186154
 21
358.1230692886679
 31
0.0
  0
LINE
  5
776
330
A
100
AcDbEntity
  8
0
  6
Continuous
 62
     7
100
AcDbLine
 10
389.6140570186156
 20
34.37306928866796
 30
0.0
 11
398.0140570186156
 21
34.37306928866796
 31
0.0
  0
LINE
  5
777
330
A
100
AcDbEntity
  8
0
  6
Continuous
 62
     7
100
AcDbLine
 10
389.6140570186156
 20
324.3730692886679
 30
0.0
 11
398.0140570186156
 21
324.3730692886679
 31
0.0
  0
LINE
  5
778
330
A
100
AcDbEntity
  8
0
  6
Continuous
 62
     7
100
AcDbLine
 10
760.6140570186155
 20
376.373069288668
 30
0.0
 11
760.6140570186155
 21
367.973069288668
 31
0.0
  0
LINE
  5
779
330
A
100
AcDbEntity
  8
0
  6
Continuous
 62
     7
100
AcDbLine
 10
470.6140570186155
 20
376.373069288668
 30
0.0
 11
470.6140570186156
 21
367.973069288668
 31
0.0
  0
LINE
  5
77A
330
A
100
AcDbEntity
  8
0
  6
Continuous
 62
     7
100
AcDbLine
 10
398.0140570186156
 20
34.37306928866796
 30
0.0
 11
407.6140570186156
 21
34.37306928866796
 31
0.0
  0
LINE
  5
77B
330
A
100
AcDbEntity
  8
0
  6
Continuous
 62
     7
100
AcDbLine
 10
398.0140570186156
 20
324.3730692886679
 30
0.0
 11
407.6140570186156
 21
324.3730692886679
 31
0.0
  0
LINE
  5
77C
330
A
100
AcDbEntity
  8
0
  6
Continuous
 62
     7
100
AcDbLine
 10
760.6140570186155
 20
367.973069288668
 30
0.0
 11
760.6140570186155
 21
358.373069288668
 31
0.0
  0
LINE
  5
77D
330
A
100
AcDbEntity
  8
0
  6
Continuous
 62
     7
100
AcDbLine
 10
470.6140570186156
 20
367.973069288668
 30
0.0
 11
470.6140570186156
 21
358.373069288668
 31
0.0
  0
LINE
  5
77E
330
A
100
AcDbEntity
  8
0
  6
Continuous
 62
     7
100
AcDbLine
 10
802.1140570186155
 20
375.6230692886679
 30
0.0
 11
802.1140570186155
 21
373.873069288668
 31
0.0
  0
LINE
  5
77F
330
A
100
AcDbEntity
  8
0
  6
Continuous
 62
     7
100
AcDbLine
 10
802.1140570186155
 20
364.873069288668
 30
0.0
 11
802.1140570186155
 21
363.1230692886679
 31
0.0
  0
CIRCLE
  5
780
330
A
100
AcDbEntity
  8
0
  6
Continuous
 62
     7
100
AcDbCircle
 10
396.6140570186157
 20
-9.626930711332082
 30
0.0
 40
11.07999999999998
  0
LWPOLYLINE
  5
781
330
A
100
AcDbEntity
  8
0
  6
Continuous
 62
     7
100
AcDbPolyline
 90
       11
 70
   128
 43
0.0
 10
361.73761327084
 20
33.62425617199028
 10
361.7142819435358
 20
33.64386836269795
 10
361.6497989297378
 20
33.69887242439534
 10
361.5495175513073
 20
33.78676393785746
 10
361.4080575329428
 20
33.91566712921457
 10
361.2235219385387
 20
34.09259651844043
 10
361.0041549423901
 20
34.31602862166128
 10
360.7872994584683
 20
34.55106105679329
 10
360.6870895184675
 20
34.66445694183589
 10
360.6356569716524
 20
34.72383482623032
 10
360.6244365278451
 20
34.73689908074174
  0
LWPOLYLINE
  5
78E
330
A
100
AcDbEntity
  8
0
  6
Continuous
 62
     7
100
AcDbPolyline
 90
        5
 70
   128
 43
0.0
 10
391.221553454148
 20
4.129983692968631
 10
391.2481369095516
 20
4.066761687271269
 10
391.4008984947098
 20
3.703644495767655
 10
391.7871974641776
 20
2.786938586006648
 10
392.6610931869798
 20
0.7239377037227268
  0
LINE
  5
795
330
A
100
AcDbEntity
  8
0
  6
Continuous
 62
     7
100
AcDbLine
 10
358.3134365850497
 20
29.21368972223382
 30
0.0
 11
354.3960650172761
 21
25.29631815446029
 31
0.0
  0
LINE
  5
796
330
A
100
AcDbEntity
  8
0
  6
Continuous
 62
     7
100
AcDbLine
 10
358.9922590949886
 20
20.70012407674774
 30
0.0
 11
362.9096306627622
 21
24.61749564452126
 31
0.0
  0
LWPOLYLINE
  5
797
330
A
100
AcDbEntity
  8
0
  6
Continuous
 62
     7
100
AcDbPolyline
 90
       12
 70
   128
 43
0.0
 10
362.9096306627622
 20
24.61749564452126
 10
363.344514483084
 20
25.15681025699093
 10
363.7307496872535
 20
26.00290919489182
 10
363.8609657859819
 20
26.97634319009571
 10
363.6514851741748
 20
28.06502496586233
 10
363.1880569914808
 20
28.89650846562089
 10
362.4872757157517
 20
29.56966344446854
 10
361.7113054262808
 20
29.97386049092826
 10
360.7766234661365
 20
30.16139695104253
 10
359.6666863559639
 20
30.02521704015479
 10
358.6414638888353
 20
29.50041864250103
 10
358.3134365850497
 20
29.21368972223382
  0
LINE
  5
7A5
330
A
100
AcDbEntity
  8
0
  6
Continuous
 62
     7
100
AcDbLine
 10
372.1607558167636
 20
22.90846569013116
 30
0.0
 11
364.3825812237116
 21
30.68664028318313
 31
0.0
  0
LINE
  5
7A6
330
A
100
AcDbEntity
  8
0
  6
Continuous
 62
     7
100
AcDbLine
 10
350.1534246316706
 20
32.36738626783959
 30
0.0
 11
355.1597403409575
 21
37.37370197712659
 31
0.0
  0
CIRCLE
  5
7A7
330
A
100
AcDbEntity
  8
0
  6
Continuous
 62
     7
100
AcDbCircle
 10
360.611533623906
 20
26.91559268337757
 30
0.0
 40
3.0
  0
CIRCLE
  5
7A8
330
A
100
AcDbEntity
  8
0
  6
Continuous
 62
     7
100
AcDbCircle
 10
389.6140570186156
 20
333.8730692886679
 30
0.0
 40
5.0
  0
CIRCLE
  5
7A9
330
A
100
AcDbEntity
  8
0
  6
Continuous
 62
     7
100
AcDbCircle
 10
425.6140570186155
 20
369.373069288668
 30
0.0
 40
5.0
  0
CIRCLE
  5
7AA
330
A
100
AcDbEntity
  8
0
  6
Continuous
 62
     7
100
AcDbCircle
 10
769.1140570186154
 20
373.873069288668
 30
0.0
 40
7.499999999999886
  0
LINE
  5
7AB
330
A
100
AcDbEntity
  8
0
  6
Continuous
 62
     7
100
AcDbLine
 10
407.6140570186156
 20
34.37306928866796
 30
0.0
 11
411.6140570186155
 21
34.37306928866796
 31
0.0
  0
LINE
  5
7AC
330
A
100
AcDbEntity
  8
0
  6
Continuous
 62
     7
100
AcDbLine
 10
407.6140570186156
 20
324.3730692886679
 30
0.0
 11
411.6140570186156
 21
324.3730692886679
 31
0.0
  0
LINE
  5
7AD
330
A
100
AcDbEntity
  8
0
  6
Continuous
 62
     7
100
AcDbLine
 10
760.6140570186155
 20
358.373069288668
 30
0.0
 11
760.6140570186155
 21
354.3730692886679
 31
0.0
  0
LINE
  5
7AE
330
A
100
AcDbEntity
  8
0
  6
Continuous
 62
     7
100
AcDbLine
 10
470.6140570186156
 20
358.373069288668
 30
0.0
 11
470.6140570186155
 21
354.3730692886679
 31
0.0
  0
LINE
  5
7AF
330
A
100
AcDbEntity
  8
0
  6
Continuous
 62
     7
100
AcDbLine
 10
406.1244157129472
 20
396.1989221507185
 30
0.0
 11
398.3462411198951
 21
403.9770967437704
 31
0.0
  0
LINE
  5
7B0
330
A
100
AcDbEntity
  8
0
  6
Continuous
 62
     7
100
AcDbLine
 10
397.6978053817599
 20
401.5106951093643
 30
0.0
 11
418.6322560633132
 21
380.5762444278112
 31
0.0
  0
LWPOLYLINE
  5
7B1
330
A
100
AcDbEntity
  8
0
  6
Continuous
 62
     7
100
AcDbPolyline
 90
        4
 70
   128
 43
0.0
 10
395.8798394854889
 20
403.3286610056351
 10
396.6718653137993
 20
402.8756114670112
 10
397.3179316534565
 20
402.2047692839644
 10
397.6978053817599
 20
401.5106951093641
  0
LINE
  5
7B7
330
A
100
AcDbEntity
  8
0
  6
Continuous
 62
     7
100
AcDbLine
 10
390.2480847076488
 20
408.9604157834753
 30
0.0
 11
395.8798394854889
 21
403.3286610056351
 31
0.0
  0
LINE
  5
7B8
330
A
100
AcDbEntity
  8
0
  6
Continuous
 62
     7
100
AcDbLine
 10
384.3190209973209
 20
405.8597791978935
 30
0.0
 11
385.0937669796752
 21
406.6345251802478
 31
0.0
  0
LWPOLYLINE
  5
7B9
330
A
100
AcDbEntity
  8
0
  6
Continuous
 62
     7
100
AcDbPolyline
 90
        7
 70
   128
 43
0.0
 10
386.0267105238078
 20
404.7390415996342
 10
385.5967870423975
 20
405.214029185706
 10
385.2612649777019
 20
405.6811222427346
 10
385.0542512320621
 20
406.1004677645489
 10
385.0036041964988
 20
406.4406022366318
 10
385.0909922886609
 20
406.631714271525
 10
385.0937669796752
 20
406.6345251802478
  0
LINE
  5
7C2
330
A
100
AcDbEntity
  8
0
  6
Continuous
 62
     7
100
AcDbLine
 10
385.0937669796752
 20
406.6345251802478
 30
0.0
 11
388.3526011270352
 21
409.8933593276079
 31
0.0
  0
LWPOLYLINE
  5
7C3
330
A
100
AcDbEntity
  8
0
  6
Continuous
 62
     7
100
AcDbPolyline
 90
        7
 70
   128
 43
0.0
 10
390.2480847076489
 20
408.9604157834752
 10
389.7730971215769
 20
409.3903392648855
 10
389.3060040645484
 20
409.7258613295811
 10
388.886658542734
 20
409.9328750752209
 10
388.5465240706511
 20
409.9835221107842
 10
388.3554120357574
 20
409.8961340186215
 10
388.3526011270352
 20
409.8933593276079
  0
LINE
  5
7CC
330
A
100
AcDbEntity
  8
0
  6
Continuous
 62
     7
100
AcDbLine
 10
388.3526011270352
 20
409.8933593276079
 30
0.0
 11
389.1273471093894
 21
410.6681053099621
 31
0.0
  0
LWPOLYLINE
  5
7CD
330
A
100
AcDbEntity
  8
0
  6
Continuous
 62
     7
100
AcDbPolyline
 90
        4
 70
   128
 43
0.0
 10
422.4789738747618
 20
380.0002821726335
 10
420.876686799917
 20
379.8148809651883
 10
419.2635483464358
 20
380.1604413148548
 10
418.6322560633132
 20
380.5762444278112
  0
ARC
  5
7D3
330
A
100
AcDbEntity
  8
0
  6
Continuous
 62
     7
100
AcDbCircle
 10
425.6140570186155
 20
369.373069288668
 30
0.0
 40
11.07999999999999
100
AcDbArc
 50
28.56366628540642
 51
106.4363337145943
  0
LWPOLYLINE
  5
7D4
330
A
100
AcDbEntity
  8
0
  6
Continuous
 62
     7
100
AcDbPolyline
 90
        5
 70
   128
 43
0.0
 10
438.4727769307132
 20
372.3580315999878
 10
437.6477516981699
 20
372.5443489571214
 10
436.5056518595929
 20
373.2669387587246
 10
435.527495757741
 20
374.3665437683126
 10
435.3454698645832
 20
374.6708050334305
  0
LINE
  5
7DB
330
A
100
AcDbEntity
  8
0
  6
Continuous
 62
     7
100
AcDbLine
 10
470.6140570186156
 20
372.3580315999878
 30
0.0
 11
438.4727769307132
 21
372.3580315999878
 31
0.0
  0
LINE
  5
7DC
330
A
100
AcDbEntity
  8
0
  6
Continuous
 62
     7
100
AcDbLine
 10
438.4727769307132
 20
366.3881069773481
 30
0.0
 11
470.6140570186156
 21
366.3881069773481
 31
0.0
  0
LWPOLYLINE
  5
7DD
330
A
100
AcDbEntity
  8
0
  6
Continuous
 62
     7
100
AcDbPolyline
 90
        4
 70
   128
 43
0.0
 10
435.3454698645832
 20
364.0753335439054
 10
436.3473594695888
 20
365.3394200509604
 10
437.7323686755924
 20
366.2357331238498
 10
438.4727769307132
 20
366.3881069773481
  0
ARC
  5
7E3
330
A
100
AcDbEntity
  8
0
  6
Continuous
 62
     7
100
AcDbCircle
 10
425.6140570186155
 20
369.373069288668
 30
0.0
 40
11.07999999999996
100
AcDbArc
 50
253.563666285407
 51
331.4363337145947
  0
LWPOLYLINE
  5
7E4
330
A
100
AcDbEntity
  8
0
  6
Continuous
 62
     7
100
AcDbPolyline
 90
        5
 70
   128
 43
0.0
 10
418.6322560633134
 20
358.1698941495247
 10
419.3473832665773
 20
358.6215288194248
 10
420.6659179559586
 20
358.9181672113443
 10
422.1351169275447
 20
358.8322898651155
 10
422.4789738747618
 20
358.7458564047024
  0
LINE
  5
7EB
330
A
100
AcDbEntity
  8
0
  6
Continuous
 62
     7
100
AcDbLine
 10
403.1181423927378
 20
342.655780478949
 30
0.0
 11
418.6322560633134
 21
358.1698941495247
 31
0.0
  0
ARC
  5
7EC
330
A
100
AcDbEntity
  8
0
  6
Continuous
 62
     7
100
AcDbCircle
 10
411.6140570186156
 20
334.1598658530713
 30
0.0
 40
12.01503768868025
100
AcDbArc
 50
135.0000000000003
 51
180.0000000000004
  0
LINE
  5
7ED
330
A
100
AcDbEntity
  8
0
  6
Continuous
 62
     7
100
AcDbLine
 10
399.5990193299354
 20
334.1598658530713
 30
0.0
 11
399.5990193299354
 21
324.3730692886678
 31
0.0
  0
LWPOLYLINE
  5
7EE
330
A
100
AcDbEntity
  8
0
  6
Continuous
 62
     7
100
AcDbPolyline
 90
        4
 70
   128
 43
0.0
 10
387.9758681030227
 20
327.0674585830201
 10
389.9570311813036
 20
326.3918262575282
 10
391.8678090242472
 20
325.4237890045147
 10
393.6290947072872
 20
324.3730692886524
  0
ARC
  5
7F4
330
A
100
AcDbEntity
  8
0
  6
Continuous
 62
     7
100
AcDbCircle
 10
389.6140570186156
 20
333.8730692886679
 30
0.0
 40
7.000000000000046
100
AcDbArc
 50
94.29774705668362
 51
256.4657260063461
  0
LWPOLYLINE
  5
7F5
330
A
100
AcDbEntity
  8
0
  6
Continuous
 62
     7
100
AcDbPolyline
 90
        6
 70
   128
 43
0.0
 10
397.3674261264449
 20
345.1367678550865
 10
396.0107930029874
 20
343.8150395371871
 10
394.3889381832156
 20
342.6976621701393
 10
392.3475111626233
 20
341.6563786598113
 10
390.0843667130627
 20
340.9813340057078
 10
389.089480405399
 20
340.8533858557634
  0
ARC
  5
7FD
330
A
100
AcDbEntity
  8
0
  6
Continuous
 62
     7
100
AcDbCircle
 10
411.6140570186156
 20
334.1598658530713
 30
0.0
 40
17.98496231131997
100
AcDbArc
 50
135.0000000000003
 51
142.3860692064835
  0
LINE
  5
7FE
330
A
100
AcDbEntity
  8
0
  6
Continuous
 62
     7
100
AcDbLine
 10
414.4108818794723
 20
362.3912683333657
 30
0.0
 11
398.8967682088967
 21
346.87715466279
 31
0.0
  0
LWPOLYLINE
  5
7FF
330
A
100
AcDbEntity
  8
0
  6
Continuous
 62
     7
100
AcDbPolyline
 90
        4
 70
   128
 43
0.0
 10
414.98684413465
 20
366.2379861448142
 10
415.1722453420952
 20
364.6356990699695
 10
414.8266849924304
 20
363.0225606164922
 10
414.4108818794723
 20
362.3912683333657
  0
ARC
  5
805
330
A
100
AcDbEntity
  8
0
  6
Continuous
 62
     7
100
AcDbCircle
 10
425.6140570186155
 20
369.373069288668
 30
0.0
 40
11.07999999999996
100
AcDbArc
 50
163.5636662854063
 51
196.4363337145956
  0
LWPOLYLINE
  5
806
330
A
100
AcDbEntity
  8
0
  6
Continuous
 62
     7
100
AcDbPolyline
 90
        5
 70
   128
 43
0.0
 10
414.4108818794722
 20
376.3548702439702
 10
414.8625165493708
 20
375.639743040704
 10
415.1591549412917
 20
374.3212083513261
 10
415.0732775950638
 20
372.8520093797426
 10
414.9868441346499
 20
372.5081524325215
  0
LINE
  5
80D
330
A
100
AcDbEntity
  8
0
  6
Continuous
 62
     7
100
AcDbLine
 10
414.4108818794722
 20
376.3548702439702
 30
0.0
 11
394.8655452886397
 21
395.9002068348024
 31
0.0
  0
LINE
  5
80E
330
A
100
AcDbEntity
  8
0
  6
Continuous
 62
     7
100
AcDbLine
 10
396.9762323805604
 20
398.0108939267231
 30
0.0
 11
394.8655452886397
 21
395.9002068348024
 31
0.0
  0
ARC
  5
80F
330
A
100
AcDbEntity
  8
0
  6
Continuous
 62
     7
100
AcDbCircle
 10
394.6781353417041
 20
400.3089909655794
 30
0.0
 40
3.250000000000026
100
AcDbArc
 50
315.0000000000001
 51
21.70051576762692
  0
LINE
  5
810
330
A
100
AcDbEntity
  8
0
  6
Continuous
 62
     7
100
AcDbLine
 10
390.2693512109271
 20
400.4964009125149
 30
0.0
 11
386.0267105238078
 21
404.7390415996342
 31
0.0
  0
LINE
  5
811
330
A
100
AcDbEntity
  8
0
  6
Continuous
 62
     7
100
AcDbLine
 10
388.5616616844402
 20
398.7887113860281
 30
0.0
 11
390.2693512109271
 21
400.4964009125149
 31
0.0
  0
LINE
  5
812
330
A
100
AcDbEntity
  8
0
  6
Continuous
 62
     7
100
AcDbLine
 10
390.2693512109271
 20
400.4964009125149
 30
0.0
 11
392.3800383028478
 21
402.6070880044357
 31
0.0
  0
ARC
  5
813
330
A
100
AcDbEntity
  8
0
  6
Continuous
 62
     7
100
AcDbCircle
 10
394.6781353417041
 20
400.3089909655794
 30
0.0
 40
3.250000000000066
100
AcDbArc
 50
68.29948423237912
 51
135.0
  0
LINE
  5
814
330
A
100
AcDbEntity
  8
0
  6
Continuous
 62
     7
100
AcDbLine
 10
394.8655452886397
 20
395.9002068348024
 30
0.0
 11
393.1578557621529
 21
394.1925173083156
 31
0.0
  0
ARC
  5
815
330
A
100
AcDbEntity
  8
0
  6
Continuous
 62
     7
100
AcDbCircle
 10
368.4179924882054
 20
26.94387695462497
 30
0.0
 40
5.500000000000001
100
AcDbArc
 50
315.0000000000004
 51
135.0000000000004
  0
LINE
  5
816
330
A
100
AcDbEntity
  8
0
  6
Continuous
 62
     7
100
AcDbLine
 10
372.3070797847314
 20
23.05478965809898
 30
0.0
 11
372.1607558167636
 21
22.90846569013116
 31
0.0
  0
LINE
  5
817
330
A
100
AcDbEntity
  8
0
  6
Continuous
 62
     7
100
AcDbLine
 10
364.3825812237116
 20
30.68664028318313
 30
0.0
 11
364.5289051916794
 21
30.83296425115095
 31
0.0
  0
ARC
  5
818
330
A
100
AcDbEntity
  8
0
  6
Continuous
 62
     7
100
AcDbCircle
 10
402.3855992566372
 20
400.2382802874604
 30
0.0
 40
5.500000000000044
100
AcDbArc
 50
314.9999999999999
 51
135.0
  0
LINE
  5
819
330
A
100
AcDbEntity
  8
0
  6
Continuous
 62
     7
100
AcDbLine
 10
406.2746865531632
 20
396.3491929909345
 30
0.0
 11
406.1244157129472
 21
396.1989221507185
 31
0.0
  0
LINE
  5
81A
330
A
100
AcDbEntity
  8
0
  6
Continuous
 62
     7
100
AcDbLine
 10
398.3462411198951
 20
403.9770967437704
 30
0.0
 11
398.4965119601112
 21
404.1273675839865
 31
0.0
  0
ARC
  5
81B
330
A
100
AcDbEntity
  8
0
  6
Continuous
 62
     7
100
AcDbCircle
 10
425.6140570186154
 20
369.373069288668
 30
0.0
 40
18.0
100
AcDbArc
 50
152.4576031237222
 51
180.0000000000004
  0
ARC
  5
81C
330
A
100
AcDbEntity
  8
0
  6
Continuous
 62
     7
100
AcDbCircle
 10
425.6140570186154
 20
369.373069288668
 30
0.0
 40
18.00000000000003
100
AcDbArc
 50
17.45760312372215
 51
117.5423968762782
  0
ARC
  5
81D
330
A
100
AcDbEntity
  8
0
  6
Continuous
 62
     7
100
AcDbCircle
 10
425.6140570186154
 20
369.373069288668
 30
0.0
 40
18.00000000000003
100
AcDbArc
 50
242.4576031237232
 51
342.5423968762786
  0
ARC
  5
81E
330
A
100
AcDbEntity
  8
0
  6
Continuous
 62
     7
100
AcDbCircle
 10
425.6140570186154
 20
369.373069288668
 30
0.0
 40
18.0
100
AcDbArc
 50
180.0000000000004
 51
207.5423968762794
  0
ARC
  5
81F
330
A
100
AcDbEntity
  8
0
  6
Continuous
 62
     7
100
AcDbCircle
 10
396.6140570186155
 20
-9.626930711332082
 30
0.0
 40
18.00000000000006
100
AcDbArc
 50
151.6523934336508
 51
180.0000000000004
  0
ARC
  5
820
330
A
100
AcDbEntity
  8
0
  6
Continuous
 62
     7
100
AcDbCircle
 10
396.6140570186155
 20
-9.626930711332082
 30
0.0
 40
18.00000000000002
100
AcDbArc
 50
107.457603123722
 51
115.7924563932206
  0
ARC
  5
821
330
A
100
AcDbEntity
  8
0
  6
Continuous
 62
     7
100
AcDbCircle
 10
396.6140570186155
 20
-9.626930711332082
 30
0.0
 40
17.99999999999998
100
AcDbArc
 50
307.9922990426725
 51
72.54239687627777
  0
ARC
  5
822
330
A
100
AcDbEntity
  8
0
  6
Continuous
 62
     7
100
AcDbCircle
 10
396.6140570186155
 20
-9.626930711332082
 30
0.0
 40
18.00000000000006
100
AcDbArc
 50
180.0000000000004
 51
270.0000000000009
  0
LINE
  5
823
330
A
100
AcDbEntity
  8
0
  6
Continuous
 62
     7
100
AcDbLine
 10
572.1540570186155
 20
-106.126930711332
 30
0.0
 11
374.1540570202993
 21
-106.126930711332
 31
0.0
  0
LINE
  5
824
330
A
100
AcDbEntity
  8
0
  6
Continuous
 62
     7
100
AcDbLine
 10
374.6540570233195
 20
-94.62693071133205
 30
0.0
 11
571.6540570186156
 21
-94.62693071133205
 31
0.0
  0
LINE
  5
825
330
A
100
AcDbEntity
  8
0
  6
Continuous
 62
     7
100
AcDbLine
 10
509.5890919497207
 20
-108.626930711332
 30
0.0
 11
529.5890919497208
 21
-108.626930711332
 31
0.0
  0
LINE
  5
826
330
A
100
AcDbEntity
  8
0
  6
Continuous
 62
     7
100
AcDbLine
 10
416.7190220875098
 20
-108.626930711332
 30
0.0
 11
436.7190220875098
 21
-108.626930711332
 31
0.0
  0
LINE
  5
827
330
A
100
AcDbEntity
  8
0
  6
Continuous
 62
     7
100
AcDbLine
 10
389.273480908386
 20
-54.62693071133206
 30
0.0
 11
415.0346331337175
 21
-54.62693071133206
 31
0.0
  0
LINE
  5
828
330
A
100
AcDbEntity
  8
0
  6
Continuous
 62
     7
100
AcDbLine
 10
538.2875218059328
 20
-108.626930711332
 30
0.0
 11
558.2875218059326
 21
-108.626930711332
 31
0.0
  0
LINE
  5
829
330
A
100
AcDbEntity
  8
0
  6
Continuous
 62
     7
100
AcDbLine
 10
388.0205922312986
 20
-108.626930711332
 30
0.0
 11
408.0205922312986
 21
-108.626930711332
 31
0.0
  0
LINE
  5
82A
330
A
100
AcDbEntity
  8
0
  6
Continuous
 62
     7
100
AcDbLine
 10
463.1540570186153
 20
-108.626930711332
 30
0.0
 11
483.1540570186152
 21
-108.626930711332
 31
0.0
  0
LINE
  5
82B
330
A
100
AcDbEntity
  8
0
  6
PHANTOM
 62
     7
100
AcDbLine
 10
893.7843437197761
 20
403.9263347201747
 30
0.0
 11
956.0238164926559
 21
432.290496593281
 31
0.0
  0
LINE
  5
82C
330
A
100
AcDbEntity
  8
0
  6
PHANTOM
 62
     7
100
AcDbLine
 10
817.1140570186157
 20
373.873069288668
 30
0.0
 11
817.1140570186157
 21
364.873069288668
 31
0.0
  0
LINE
  5
82D
330
A
100
AcDbEntity
  8
0
  6
PHANTOM
 62
     7
100
AcDbLine
 10
821.1140570186156
 20
390.6230692886679
 30
0.0
 11
821.1140570186156
 21
373.873069288668
 31
0.0
  0
LINE
  5
82E
330
A
100
AcDbEntity
  8
0
  6
PHANTOM
 62
     7
100
AcDbLine
 10
821.1140570186156
 20
364.873069288668
 30
0.0
 11
821.1140570186156
 21
348.1230692886679
 31
0.0
  0
LWPOLYLINE
  5
82F
330
A
100
AcDbEntity
  8
0
  6
PHANTOM
 62
     7
100
AcDbPolyline
 90
        9
 70
   128
 43
0.0
 10
928.8024887133214
 20
244.3717991904638
 10
928.7539360510614
 20
244.2947797892567
 10
928.5742417368279
 20
244.1663526067099
 10
928.2907626010299
 20
244.006069517171
 10
927.9466557723482
 20
243.8383321680523
 10
927.5943083961132
 20
243.6886770502144
 10
927.2873621663197
 20
243.579887798721
 10
927.0725468639797
 20
243.528526590935
 10
926.9825661715682
 20
243.5424127051513
  0
LINE
  5
83A
330
A
100
AcDbEntity
  8
0
  6
PHANTOM
 62
     7
100
AcDbLine
 10
398.0140570186156
 20
324.3730692886679
 30
0.0
 11
398.0140570186156
 21
34.37306928866796
 31
0.0
  0
LINE
  5
83B
330
A
100
AcDbEntity
  8
0
  6
PHANTOM
 62
     7
100
AcDbLine
 10
760.6140570186155
 20
367.973069288668
 30
0.0
 11
470.6140570186156
 21
367.973069288668
 31
0.0
  0
LINE
  5
83C
330
A
100
AcDbEntity
  8
0
  6
PHANTOM
 62
     7
100
AcDbLine
 10
407.6140570186156
 20
324.3730692886679
 30
0.0
 11
407.6140570186156
 21
34.37306928866796
 31
0.0
  0
LINE
  5
83D
330
A
100
AcDbEntity
  8
0
  6
PHANTOM
 62
     7
100
AcDbLine
 10
760.6140570186155
 20
358.373069288668
 30
0.0
 11
470.6140570186156
 21
358.373069288668
 31
0.0
  0
LINE
  5
83E
330
A
100
AcDbEntity
  8
0
  6
PHANTOM
 62
     7
100
AcDbLine
 10
402.8740694976214
 20
-18.76906633506306
 30
0.0
 11
407.6940570186155
 21
-18.76906633506306
 31
0.0
  0
LINE
  5
83F
330
A
100
AcDbEntity
  8
0
  6
PHANTOM
 62
     7
100
AcDbLine
 10
357.9881674657037
 20
37.37370197712664
 30
0.0
 11
350.1534243301568
 21
29.53895884157959
 31
0.0
  0
LWPOLYLINE
  5
840
330
A
100
AcDbEntity
  8
0
  6
PHANTOM
 62
     7
100
AcDbPolyline
 90
        6
 70
   128
 43
0.0
 10
418.6322560633132
 20
380.5762444278112
 10
419.8505848523122
 20
380.8794000830933
 10
421.1032499642177
 20
381.0004000740726
 10
421.5679258844024
 20
381.0029827748676
 10
421.614898690999
 20
381.0020583233984
 10
421.5886749924936
 20
381.0024411284201
  0
LINE
  5
848
330
A
100
AcDbEntity
  8
0
  6
PHANTOM
 62
     7
100
AcDbLine
 10
391.9557742341356
 20
410.6681053099621
 30
0.0
 11
390.2480847076488
 21
408.9604157834753
 31
0.0
  0
LINE
  5
849
330
A
100
AcDbEntity
  8
0
  6
PHANTOM
 62
     7
100
AcDbLine
 10
386.0267105238078
 20
404.7390415996342
 30
0.0
 11
384.3190209973209
 21
403.0313520731473
 31
0.0
  0
LINE
  5
84A
330
A
100
AcDbEntity
  8
0
  6
PHANTOM
 62
     7
100
AcDbLine
 10
390.2480847076488
 20
408.9604157834753
 30
0.0
 11
386.0267105238078
 21
404.7390415996342
 31
0.0
  0
LWPOLYLINE
  5
84B
330
A
100
AcDbEntity
  8
0
  6
PHANTOM
 62
     7
100
AcDbPolyline
 90
        6
 70
   128
 43
0.0
 10
394.0442465724521
 20
344.4629133008656
 10
394.0885747718246
 20
344.4823259879269
 10
394.1704436943128
 20
344.5173010610791
 10
394.9319409075673
 20
344.7971705789484
 10
396.2572847187372
 20
345.0908456003328
 10
397.3674261264449
 20
345.1367678550865
  0
LWPOLYLINE
  5
853
330
A
100
AcDbEntity
  8
0
  6
PHANTOM
 62
     7
100
AcDbPolyline
 90
        6
 70
   128
 43
0.0
 10
413.9846851788633
 20
373.3984513147897
 10
413.9828586615301
 20
373.5235751693624
 10
413.9826102631675
 20
373.6138286033547
 10
414.0181000705261
 20
374.4298154363831
 10
414.2327362440708
 20
375.7412414593267
 10
414.4108818794722
 20
376.3548702439702
  0
LINE
  5
85B
330
A
100
AcDbEntity
  8
0
  6
PHANTOM
 62
     7
100
AcDbLine
 10
397.18907868241
 20
348.5848441892768
 30
0.0
 11
398.8967682088967
 21
346.87715466279
 31
0.0
  0
LWPOLYLINE
  5
85C
330
A
100
AcDbEntity
  8
0
  6
PHANTOM
 62
     7
100
AcDbPolyline
 90
        6
 70
   128
 43
0.0
 10
414.4108818794722
 20
362.3912683333657
 10
414.2396865745095
 20
362.9769184876112
 10
414.014377760925
 20
364.3604897622576
 10
413.9827203527919
 20
365.0993996834461
 10
413.9833168162813
 20
365.2705224197475
 10
413.984715871013
 20
365.353122296315
  0
LINE
  5
864
330
A
100
AcDbEntity
  8
0
  6
PHANTOM
 62
     7
100
AcDbLine
 10
403.1181423927378
 20
342.655780478949
 30
0.0
 11
404.8258319192246
 21
340.9480909524622
 31
0.0
  0
LINE
  5
865
330
A
100
AcDbEntity
  8
0
  6
PHANTOM
 62
     7
100
AcDbLine
 10
399.5990193299354
 20
334.1598658530713
 30
0.0
 11
402.0140570186155
 21
334.1598658530713
 31
0.0
  0
LWPOLYLINE
  5
866
330
A
100
AcDbEntity
  8
0
  6
PHANTOM
 62
     7
100
AcDbPolyline
 90
        6
 70
   128
 43
0.0
 10
421.5957568642933
 20
357.743744127514
 10
421.6148986909992
 20
357.7440802539375
 10
421.2744309039967
 20
357.742278303988
 10
421.1587445836921
 20
357.7442912632829
 10
420.1544839963887
 20
357.821107506686
 10
418.6322560633134
 20
358.1698941495247
  0
LWPOLYLINE
  5
86E
330
A
100
AcDbEntity
  8
0
  6
PHANTOM
 62
     7
100
AcDbPolyline
 90
        5
 70
   128
 43
0.0
 10
438.4727769307132
 20
366.3881069773481
 10
438.1648438427917
 20
365.8282379157643
 10
437.3892963027451
 20
364.7491489881151
 10
436.837401563198
 20
364.1470640816754
 10
436.6800767927555
 20
363.9929572055658
  0
LWPOLYLINE
  5
875
330
A
100
AcDbEntity
  8
0
  6
PHANTOM
 62
     7
100
AcDbPolyline
 90
        7
 70
   128
 43
0.0
 10
436.6802461221552
 20
374.7530155058055
 10
436.6624556256486
 20
374.7704421184957
 10
436.6648259959135
 20
374.7681743209737
 10
436.7094696035731
 20
374.7251914871697
 10
437.1334673436802
 20
374.2888690872478
 10
437.9509215273526
 20
373.2529388977972
 10
438.4727769307132
 20
372.3580315999878
  0
LINE
  5
87E
330
A
100
AcDbEntity
  8
0
  6
PHANTOM
 62
     7
100
AcDbLine
 10
373.1540570186158
 20
-105.126930711332
 30
0.0
 11
573.1540570186155
 21
-105.126930711332
 31
0.0
  0
LINE
  5
87F
330
A
100
AcDbEntity
  8
0
  6
PHANTOM
 62
     7
100
AcDbLine
 10
573.1540570186155
 20
-96.12693071133206
 30
0.0
 11
373.1540570186156
 21
-96.12693071133206
 31
0.0
  0
LINE
  5
880
330
A
100
AcDbEntity
  8
0
  6
PHANTOM
 62
     7
100
AcDbLine
 10
382.4187946607033
 20
-92.93635148393104
 30
0.0
 11
421.8893193765278
 21
-92.93635148393104
 31
0.0
  0
LINE
  5
881
330
A
100
AcDbEntity
  8
0
  6
PHANTOM
 62
     7
100
AcDbLine
 10
416.0225929994869
 20
-55.4722203250326
 30
0.0
 11
388.2855210377443
 21
-55.4722203250326
 31
0.0
  0
ENDSEC
  0
SECTION
  2
OBJECTS
  0
DICTIONARY
  5
19
330
0
100
AcDbDictionary
281
     1
  3
ACAD_COLOR
350
886
  3
ACAD_GROUP
350
1A
  3
ACAD_LAYOUT
350
887
  3
ACAD_MATERIAL
350
885
  3
ACAD_MLINESTYLE
350
1B
  3
ACAD_PLOTSETTINGS
350
888
  3
ACAD_PLOTSTYLENAME
350
883
  3
ACDBHEADERROUNDTRIPXREC
350
8A0
  3
AcDbVariableDictionary
350
899
  3
ASE_INDEX_DICTIONARY
350
88E
  0
DICTIONARY
  5
886
102
{ACAD_REACTORS
330
19
102
}
330
19
100
AcDbDictionary
281
     1
  0
DICTIONARY
  5
1A
102
{ACAD_REACTORS
330
19
102
}
330
19
100
AcDbDictionary
281
     1
  0
DICTIONARY
  5
887
102
{ACAD_REACTORS
330
19
102
}
330
19
100
AcDbDictionary
281
     1
  3
Layout1
350
88A
  3
Model
350
889
  0
DICTIONARY
  5
885
102
{ACAD_REACTORS
330
19
102
}
330
19
100
AcDbDictionary
281
     1
  0
DICTIONARY
  5
1B
102
{ACAD_REACTORS
330
19
102
}
330
19
100
AcDbDictionary
281
     1
  3
STANDARD
350
1C
  0
DICTIONARY
  5
888
102
{ACAD_REACTORS
330
19
102
}
330
19
100
AcDbDictionary
281
     1
  0
ACDBDICTIONARYWDFLT
  5
883
102
{ACAD_REACTORS
330
19
102
}
330
19
100
AcDbDictionary
281
     1
  3
Normal
350
884
100
AcDbDictionaryWithDefault
340
884
  0
DICTIONARY
  5
8A0
102
{ACAD_REACTORS
330
19
102
}
330
19
100
AcDbDictionary
281
     1
  3
COLORDICT
350
8A2
  3
MATERIALDICT
350
8A1
  0
DICTIONARY
  5
899
102
{ACAD_REACTORS
330
19
102
}
330
19
100
AcDbDictionary
281
     1
  3
DIMASSOC
350
89A
  3
PROJECTNAME
350
89B
  0
DICTIONARY
  5
88E
102
{ACAD_REACTORS
330
19
102
}
330
19
100
AcDbDictionary
281
     1
  3
ASEBlockHierarchyIndexRecord
350
890
1001
DCO15
1040
1552229281.078
  0
LAYOUT
  5
88A
102
{ACAD_XDICTIONARY
360
8A5
102
}
102
{ACAD_REACTORS
330
887
102
}
330
887
100
AcDbPlotSettings
  1

  2
ProgeSOFT PDF Wizard
  4

  6

 40
0.0
 41
0.0
 42
0.0
 43
0.0
 44
0.0
 45
0.0
 46
0.0
 47
0.0
 48
0.0
 49
0.0
140
0.0
141
0.0
142
1.0
143
1.0
 70
   688
 72
     0
 73
     0
 74
     5
  7

 75
    16
147
1.0
148
0.0
149
0.0
100
AcDbLayout
  1
Layout1
 70
     1
 71
     1
 10
0.0
 20
0.0
 11
12.0
 21
9.0
 12
0.0
 22
0.0
 32
0.0
 14
1.000000000000000E+20
 24
1.000000000000000E+20
 34
1.000000000000000E+20
 15
-1.000000000000000E+20
 25
-1.000000000000000E+20
 35
-1.000000000000000E+20
146
0.0
 13
0.0
 23
0.0
 33
0.0
 16
1.0
 26
0.0
 36
0.0
 17
0.0
 27
1.0
 37
0.0
 76
     0
330
B
  0
LAYOUT
  5
889
102
{ACAD_XDICTIONARY
360
8A3
102
}
102
{ACAD_REACTORS
330
887
102
}
330
887
100
AcDbPlotSettings
  1

  2
ProgeSOFT PDF Wizard
  4

  6

 40
0.0
 41
0.0
 42
0.0
 43
0.0
 44
0.0
 45
0.0
 46
0.0
 47
0.0
 48
0.0
 49
0.0
140
0.0
141
0.0
142
1.0
143
1.0
 70
  1712
 72
     0
 73
     0
 74
     0
  7

 75
     0
147
1.0
148
0.0
149
0.0
100
AcDbLayout
  1
Model
 70
     1
 71
     0
 10
0.0
 20
0.0
 11
12.0
 21
9.0
 12
0.0
 22
0.0
 32
0.0
 14
0.0
 24
0.0
 34
0.0
 15
0.0
 25
0.0
 35
0.0
146
0.0
 13
0.0
 23
0.0
 33
0.0
 16
1.0
 26
0.0
 36
0.0
 17
0.0
 27
1.0
 37
0.0
 76
     0
330
A
  0
MLINESTYLE
  5
1C
102
{ACAD_REACTORS
330
1B
102
}
330
1B
100
AcDbMlineStyle
  2
STANDARD
 70
     0
  3

 62
     0
 51
90.0
 52
90.0
 71
     2
 49
0.5
 62
   256
  6
BYLAYER
 49
-0.5
 62
   256
  6
BYLAYER
  0
ACDBPLACEHOLDER
  5
884
102
{ACAD_REACTORS
330
883
102
}
330
883
  0
XRECORD
  5
8A2
102
{ACAD_REACTORS
330
8A0
102
}
330
8A0
100
AcDbXrecord
280
     1
340
886
  0
XRECORD
  5
8A1
102
{ACAD_REACTORS
330
8A0
102
}
330
8A0
100
AcDbXrecord
280
     1
340
885
  0
DICTIONARYVAR
  5
89A
102
{ACAD_REACTORS
330
899
102
}
330
899
100
DictionaryVariables
280
     0
  1
1
  0
DICTIONARYVAR
  5
89B
102
{ACAD_REACTORS
330
899
102
}
330
899
100
DictionaryVariables
280
     0
  1

  0
XRECORD
  5
890
102
{ACAD_REACTORS
330
88E
102
}
330
88E
100
AcDbXrecord
280
     1
  0
DICTIONARY
  5
8A5
330
88A
100
AcDbDictionary
280
     1
281
     1
  3
ACAD_XREC_ROUNDTRIP
360
8A6
  0
DICTIONARY
  5
8A3
330
889
100
AcDbDictionary
280
     1
281
     1
  3
ACAD_XREC_ROUNDTRIP
360
8A4
  0
XRECORD
  5
8A6
102
{ACAD_REACTORS
330
8A5
102
}
330
8A5
100
AcDbXrecord
280
     1
102
SHADEPLOT
 70
     0
102
SHADEPLOTRESLEVEL
 70
     2
102
SHADEPLOTCUSTOMDPI
 70
   300
  0
XRECORD
  5
8A4
102
{ACAD_REACTORS
330
8A3
102
}
330
8A3
100
AcDbXrecord
280
     1
102
SHADEPLOT
 70
     0
102
SHADEPLOTRESLEVEL
 70
     2
102
SHADEPLOTCUSTOMDPI
 70
   300
  0
ENDSEC
  0
EOF
