  0
SECTION
  2
HEADER
  9
$ACADVER
  1
AC1015
  9
$ACADMAINTVER
 70
    20
  9
$DWGCODEPAGE
  3
ANSI_1252
  9
$INSBASE
 10
0.0
 20
0.0
 30
0.0
  9
$EXTMIN
 10
-176.7968749717255
 20
-364.2414210262419
 30
0.0
  9
$EXTMAX
 10
997.35602380319
 20
619.8733330516054
 30
0.0
  9
$LIMMIN
 10
0.0
 20
0.0
  9
$LIMMAX
 10
0.0
 20
0.0
  9
$ORTHOMODE
 70
     0
  9
$REGENMODE
 70
     1
  9
$FILLMODE
 70
     1
  9
$QTEXTMODE
 70
     0
  9
$MIRRTEXT
 70
     1
  9
$LTSCALE
 40
1.0
  9
$ATTMODE
 70
     1
  9
$TEXTSIZE
 40
0.0
  9
$TRACEWID
 40
0.05
  9
$TEXTSTYLE
  7
STANDARD
  9
$CLAYER
  8
0
  9
$CELTYPE
  6
CONTINUOUS
  9
$CECOLOR
 62
   256
  9
$CELTSCALE
 40
1.0
  9
$DISPSILH
 70
     0
  9
$DIMSCALE
 40
1.0
  9
$DIMASZ
 40
6.0
  9
$DIMEXO
 40
1.0
  9
$DIMDLI
 40
0.38
  9
$DIMRND
 40
0.0
  9
$DIMDLE
 40
1.0
  9
$DIMEXE
 40
0.18
  9
$DIMTP
 40
0.0
  9
$DIMTM
 40
0.0
  9
$DIMTXT
 40
3.5
  9
$DIMCEN
 40
0.09
  9
$DIMTSZ
 40
0.0
  9
$DIMTOL
 70
     0
  9
$DIMLIM
 70
     0
  9
$DIMTIH
 70
     1
  9
$DIMTOH
 70
     1
  9
$DIMSE1
 70
     0
  9
$DIMSE2
 70
     0
  9
$DIMTAD
 70
     1
  9
$DIMZIN
 70
     0
  9
$DIMBLK
  1

  9
$DIMASO
 70
     1
  9
$DIMSHO
 70
     1
  9
$DIMPOST
  1

  9
$DIMAPOST
  1

  9
$DIMALT
 70
     0
  9
$DIMALTD
 70
     2
  9
$DIMALTF
 40
0.0394
  9
$DIMLFAC
 40
5.0
  9
$DIMTOFL
 70
     0
  9
$DIMTVP
 40
0.0
  9
$DIMTIX
 70
     0
  9
$DIMSOXD
 70
     0
  9
$DIMSAH
 70
     0
  9
$DIMBLK1
  1

  9
$DIMBLK2
  1

  9
$DIMSTYLE
  2
STANDARD
  9
$DIMCLRD
 70
     0
  9
$DIMCLRE
 70
     0
  9
$DIMCLRT
 70
     0
  9
$DIMTFAC
 40
1.0
  9
$DIMGAP
 40
1.0
  9
$DIMJUST
 70
     0
  9
$DIMSD1
 70
     0
  9
$DIMSD2
 70
     0
  9
$DIMTOLJ
 70
     1
  9
$DIMTZIN
 70
     0
  9
$DIMALTZ
 70
     0
  9
$DIMALTTZ
 70
     0
  9
$DIMUPT
 70
     0
  9
$DIMDEC
 70
     4
  9
$DIMTDEC
 70
     4
  9
$DIMALTU
 70
     2
  9
$DIMALTTD
 70
     2
  9
$DIMTXSTY
  7
STANDARD
  9
$DIMAUNIT
 70
     0
  9
$DIMADEC
 70
     0
  9
$DIMALTRND
 40
0.0
  9
$DIMAZIN
 70
     0
  9
$DIMDSEP
 70
    46
  9
$DIMATFIT
 70
     3
  9
$DIMFRAC
 70
     0
  9
$DIMLDRBLK
  1

  9
$DIMLUNIT
 70
     2
  9
$DIMLWD
 70
    -2
  9
$DIMLWE
 70
    -2
  9
$DIMTMOVE
 70
     0
  9
$LUNITS
 70
     2
  9
$LUPREC
 70
     2
  9
$SKETCHINC
 40
0.1
  9
$FILLETRAD
 40
0.0
  9
$AUNITS
 70
     0
  9
$AUPREC
 70
     2
  9
$MENU
  1
acad
  9
$ELEVATION
 40
0.0
  9
$PELEVATION
 40
0.0
  9
$THICKNESS
 40
0.0
  9
$LIMCHECK
 70
     0
  9
$CHAMFERA
 40
0.0
  9
$CHAMFERB
 40
0.0
  9
$CHAMFERC
 40
0.0
  9
$CHAMFERD
 40
0.0
  9
$SKPOLY
 70
     0
  9
$TDCREATE
 40
2444972.041666667
  9
$TDUCREATE
 40
2444972.000000000
  9
$TDUPDATE
 40
2453768.827939630
  9
$TDUUPDATE
 40
2453768.786272963
  9
$TDINDWG
 40
0.0021196875
  9
$TDUSRTIMER
 40
0.0021196875
  9
$USRTIMER
 70
     1
  9
$ANGBASE
 50
0.0
  9
$ANGDIR
 70
     0
  9
$PDMODE
 70
     0
  9
$PDSIZE
 40
-1.0
  9
$PLINEWID
 40
0.0
  9
$SPLFRAME
 70
     0
  9
$SPLINETYPE
 70
     6
  9
$SPLINESEGS
 70
     8
  9
$HANDSEED
  5
AAF
  9
$SURFTAB1
 70
     6
  9
$SURFTAB2
 70
     6
  9
$SURFTYPE
 70
     6
  9
$SURFU
 70
     6
  9
$SURFV
 70
     6
  9
$UCSBASE
  2

  9
$UCSNAME
  2

  9
$UCSORG
 10
0.0
 20
0.0
 30
0.0
  9
$UCSXDIR
 10
1.0
 20
0.0
 30
0.0
  9
$UCSYDIR
 10
0.0
 20
1.0
 30
0.0
  9
$UCSORTHOREF
  2

  9
$UCSORTHOVIEW
 70
     1
  9
$UCSORGTOP
 10
0.0
 20
0.0
 30
0.0
  9
$UCSORGBOTTOM
 10
0.0
 20
0.0
 30
0.0
  9
$UCSORGLEFT
 10
0.0
 20
0.0
 30
0.0
  9
$UCSORGRIGHT
 10
0.0
 20
0.0
 30
0.0
  9
$UCSORGFRONT
 10
0.0
 20
0.0
 30
0.0
  9
$UCSORGBACK
 10
0.0
 20
0.0
 30
0.0
  9
$PUCSBASE
  2

  9
$PUCSNAME
  2

  9
$PUCSORG
 10
0.0
 20
0.0
 30
0.0
  9
$PUCSXDIR
 10
1.0
 20
0.0
 30
0.0
  9
$PUCSYDIR
 10
0.0
 20
1.0
 30
0.0
  9
$PUCSORTHOREF
  2

  9
$PUCSORTHOVIEW
 70
     0
  9
$PUCSORGTOP
 10
0.0
 20
0.0
 30
0.0
  9
$PUCSORGBOTTOM
 10
0.0
 20
0.0
 30
0.0
  9
$PUCSORGLEFT
 10
0.0
 20
0.0
 30
0.0
  9
$PUCSORGRIGHT
 10
0.0
 20
0.0
 30
0.0
  9
$PUCSORGFRONT
 10
0.0
 20
0.0
 30
0.0
  9
$PUCSORGBACK
 10
0.0
 20
0.0
 30
0.0
  9
$USERI1
 70
     0
  9
$USERI2
 70
     0
  9
$USERI3
 70
     0
  9
$USERI4
 70
     0
  9
$USERI5
 70
     0
  9
$USERR1
 40
0.0
  9
$USERR2
 40
0.0
  9
$USERR3
 40
0.0
  9
$USERR4
 40
0.0
  9
$USERR5
 40
0.0
  9
$WORLDVIEW
 70
     1
  9
$SHADEDGE
 70
     3
  9
$SHADEDIF
 70
    70
  9
$TILEMODE
 70
     1
  9
$MAXACTVP
 70
    16
  9
$PINSBASE
 10
0.0
 20
0.0
 30
0.0
  9
$PLIMCHECK
 70
     0
  9
$PEXTMIN
 10
1.000000000000000E+20
 20
1.000000000000000E+20
 30
1.000000000000000E+20
  9
$PEXTMAX
 10
-1.000000000000000E+20
 20
-1.000000000000000E+20
 30
-1.000000000000000E+20
  9
$PLIMMIN
 10
0.0
 20
0.0
  9
$PLIMMAX
 10
12.0
 20
9.0
  9
$UNITMODE
 70
     0
  9
$VISRETAIN
 70
     0
  9
$PLINEGEN
 70
     1
  9
$PSLTSCALE
 70
     1
  9
$TREEDEPTH
 70
  3020
  9
$CMLSTYLE
  2
STANDARD
  9
$CMLJUST
 70
     0
  9
$CMLSCALE
 40
1.0
  9
$PROXYGRAPHICS
 70
     0
  9
$MEASUREMENT
 70
     0
  9
$CELWEIGHT
370
    -1
  9
$ENDCAPS
280
     0
  9
$JOINSTYLE
280
     0
  9
$LWDISPLAY
290
     0
  9
$INSUNITS
 70
     0
  9
$HYPERLINKBASE
  1

  9
$STYLESHEET
  1

  9
$XEDIT
290
     1
  9
$CEPSNTYPE
380
     0
  9
$PSTYLEMODE
290
     1
  9
$FINGERPRINTGUID
  2
{8AFCE6D2-71FE-472A-B64D-BF63676DD81F}
  9
$VERSIONGUID
  2
{32209F05-FF4B-4F94-8773-42D5CB1B4F83}
  9
$EXTNAMES
290
     1
  9
$PSVPSCALE
 40
0.0
  9
$OLESTARTUP
290
     0
  0
ENDSEC
  0
SECTION
  2
CLASSES
  0
CLASS
  1
IMAGE
  2
AcDbRasterImage
  3
ISM
 90
    32895
280
     0
281
     1
  0
CLASS
  1
DICTIONARYVAR
  2
AcDbDictionaryVar
  3
ObjectDBX Classes
 90
        0
280
     0
281
     0
  0
CLASS
  1
RASTERVARIABLES
  2
AcDbRasterVariables
  3
ISM
 90
    32768
280
     0
281
     0
  0
CLASS
  1
IMAGEDEF
  2
AcDbRasterImageDef
  3
ISM
 90
    32768
280
     0
281
     0
  0
CLASS
  1
IMAGEDEF_REACTOR
  2
AcDbRasterImageDefReactor
  3
ISM
 90
    32769
280
     0
281
     0
  0
CLASS
  1
IDBUFFER
  2
AcDbIdBuffer
  3
ObjectDBX Classes
 90
    32768
280
     0
281
     0
  0
CLASS
  1
SPATIAL_FILTER
  2
AcDbSpatialFilter
  3
ObjectDBX Classes
 90
    32768
280
     0
281
     0
  0
CLASS
  1
SORTENTSTABLE
  2
AcDbSortentsTable
  3
ObjectDBX Classes
 90
    32768
280
     0
281
     0
  0
CLASS
  1
LAYER_INDEX
  2
AcDbLayerIndex
  3
ObjectDBX Classes
 90
    32768
280
     0
281
     0
  0
CLASS
  1
SPATIAL_INDEX
  2
AcDbSpatialIndex
  3
ObjectDBX Classes
 90
    32768
280
     0
281
     0
  0
CLASS
  1
OBJECT_PTR
  2
CAseDLPNTableRecord
  3
ASE-LPNTableRecord
 90
    32769
280
     0
281
     0
  0
CLASS
  1
LAYOUT
  2
AcDbLayout
  3
ObjectDBX Classes
 90
        0
280
     0
281
     0
  0
CLASS
  1
PLOTSETTINGS
  2
AcDbPlotSettings
  3
ObjectDBX Classes
 90
    32768
280
     0
281
     0
  0
CLASS
  1
ACDBDICTIONARYWDFLT
  2
AcDbDictionaryWithDefault
  3
ObjectDBX Classes
 90
        0
280
     0
281
     0
  0
CLASS
  1
ACDBPLACEHOLDER
  2
AcDbPlaceHolder
  3
ObjectDBX Classes
 90
        0
280
     0
281
     0
  0
CLASS
  1
VBA_PROJECT
  2
AcDbVbaProject
  3
acad
 90
    32768
280
     0
281
     0
  0
CLASS
  1
WIPEOUT
  2
AcDbWipeout
  3
"WipeOut|Product Desc: Object Enabler for WipeOut entity^I^I^I^I^I^I|Company: Autodesk, Inc.^I^I^I^I^I^I|WEB Address: www.autodesk.com"
 90
    32895
280
     0
281
     1
  0
CLASS
  1
WIPEOUTVARIABLES
  2
AcDbWipeoutVariables
  3
"WipeOut|Product Desc:     WipeOut Dbx Application|Company:          Autodesk, Inc.|WEB Address:      www.autodesk.com"
 90
    32768
280
     0
281
     0
  0
CLASS
  1
RTEXT
  2
RText
  3
RText|AutoCAD Express Tool|expresstools@autodesk.com
 90
    32768
280
     0
281
     1
  0
CLASS
  1
ARCALIGNEDTEXT
  2
AcDbArcAlignedText
  3
ATEXT|AutoCAD Express Tool|expresstools@autodesk.com
 90
    32768
280
     0
281
     1
  0
ENDSEC
  0
SECTION
  2
TABLES
  0
TABLE
  2
VPORT
  5
7
330
0
100
AcDbSymbolTable
 70
     2
  0
VPORT
  5
AA7
330
7
100
AcDbSymbolTableRecord
100
AcDbViewportTableRecord
  2
*Active
 70
     0
 10
0.0
 20
0.0
 11
1.0
 21
1.0
 12
463.4530339722264
 22
127.7902461043824
 13
0.0
 23
0.0
 14
1.0
 24
1.0
 15
0.0
 25
0.0
 16
0.0
 26
0.0
 36
1.0
 17
0.0
 27
0.0
 37
0.0
 40
992.2941981014817
 41
1.569570871261378
 42
50.0
 43
0.0
 44
0.0
 50
0.0
 51
0.0
 71
     0
 72
  2000
 73
     1
 74
     1
 75
     0
 76
     0
 77
     0
 78
     0
281
     0
 65
     1
110
0.0
120
0.0
130
0.0
111
1.0
121
0.0
131
0.0
112
0.0
122
1.0
132
0.0
 79
     1
146
0.0
  0
ENDTAB
  0
TABLE
  2
LTYPE
  5
4
330
0
100
AcDbSymbolTable
 70
     6
  0
LTYPE
  5
11
330
4
100
AcDbSymbolTableRecord
100
AcDbLinetypeTableRecord
  2
BYBLOCK
 70
     0
  3

 72
    65
 73
     0
 40
0.0
  0
LTYPE
  5
12
330
4
100
AcDbSymbolTableRecord
100
AcDbLinetypeTableRecord
  2
BYLAYER
 70
     0
  3

 72
    65
 73
     0
 40
0.0
  0
LTYPE
  5
13
330
4
100
AcDbSymbolTableRecord
100
AcDbLinetypeTableRecord
  2
CONTINUOUS
 70
     0
  3
Solid line
 72
    65
 73
     0
 40
0.0
  0
LTYPE
  5
1E
330
4
100
AcDbSymbolTableRecord
100
AcDbLinetypeTableRecord
  2
HIDDEN
 70
     0
  3
Hidden __ __ __ __ __ __ __ __ __ __ __ __ __ __
 72
    65
 73
     2
 40
1.905
 49
1.27
 74
     0
 49
-0.635
 74
     0
  0
LTYPE
  5
1F
330
4
100
AcDbSymbolTableRecord
100
AcDbLinetypeTableRecord
  2
PHANTOM
 70
     0
  3
Phantom ______  __  __  ______  __  __  ______
 72
    65
 73
     6
 40
12.7
 49
6.349999999999999
 74
     0
 49
-1.27
 74
     0
 49
1.27
 74
     0
 49
-1.27
 74
     0
 49
1.27
 74
     0
 49
-1.27
 74
     0
  0
LTYPE
  5
20
330
4
100
AcDbSymbolTableRecord
100
AcDbLinetypeTableRecord
  2
CENTER
 70
     0
  3
Center ____ _ ____ _ ____ _ ____ _ ____ _ ____
 72
    65
 73
     4
 40
10.16
 49
6.349999999999999
 74
     0
 49
-1.27
 74
     0
 49
1.27
 74
     0
 49
-1.27
 74
     0
  0
LTYPE
  5
21
330
4
100
AcDbSymbolTableRecord
100
AcDbLinetypeTableRecord
  2
CENTERX2
 70
     0
  3
Center (2x) ________  __  ________  __  _____
 72
    65
 73
     4
 40
20.32
 49
12.7
 74
     0
 49
-2.54
 74
     0
 49
2.54
 74
     0
 49
-2.54
 74
     0
  0
LTYPE
  5
22
330
4
100
AcDbSymbolTableRecord
100
AcDbLinetypeTableRecord
  2
DOT2
 70
     0
  3
Dot (.5x) ........................................
 72
    65
 73
     2
 40
0.635
 49
0.0
 74
     0
 49
-0.635
 74
     0
  0
ENDTAB
  0
TABLE
  2
LAYER
  5
2
330
0
100
AcDbSymbolTable
 70
     2
  0
LAYER
  5
14
330
2
100
AcDbSymbolTableRecord
100
AcDbLayerTableRecord
  2
0
 70
     0
 62
     7
  6
CONTINUOUS
370
    -3
390
A8C
  0
LAYER
  5
26
330
2
100
AcDbSymbolTableRecord
100
AcDbLayerTableRecord
  2
DEFPOINTS
 70
     0
 62
     7
  6
CONTINUOUS
290
     0
370
    -3
390
A8C
  0
ENDTAB
  0
TABLE
  2
STYLE
  5
3
330
0
100
AcDbSymbolTable
 70
     1
  0
STYLE
  5
17
330
3
100
AcDbSymbolTableRecord
100
AcDbTextStyleTableRecord
  2
STANDARD
 70
     0
 40
0.0
 41
1.0
 50
0.0
 71
     0
 42
0.0
  3
Century Gothic
  4

  0
ENDTAB
  0
TABLE
  2
VIEW
  5
5
330
0
100
AcDbSymbolTable
 70
     0
  0
ENDTAB
  0
TABLE
  2
UCS
  5
6
330
0
100
AcDbSymbolTable
 70
     0
  0
ENDTAB
  0
TABLE
  2
APPID
  5
8
330
0
100
AcDbSymbolTable
 70
     2
  0
APPID
  5
16
330
8
100
AcDbSymbolTableRecord
100
AcDbRegAppTableRecord
  2
ACAD
 70
     0
  0
APPID
  5
A97
330
8
100
AcDbSymbolTableRecord
100
AcDbRegAppTableRecord
  2
DCO15
 70
     0
  0
ENDTAB
  0
TABLE
  2
DIMSTYLE
  5
9
330
0
100
AcDbSymbolTable
 70
     1
100
AcDbDimStyleTable
 71
     0
  0
DIMSTYLE
105
18
330
9
100
AcDbSymbolTableRecord
100
AcDbDimStyleTableRecord
  2
STANDARD
 70
     0
289
     0
340
17
  0
ENDTAB
  0
TABLE
  2
BLOCK_RECORD
  5
1
330
0
100
AcDbSymbolTable
 70
     0
  0
BLOCK_RECORD
  5
A
330
1
100
AcDbSymbolTableRecord
100
AcDbBlockTableRecord
  2
*MODEL_SPACE
340
A91
  0
BLOCK_RECORD
  5
B
330
1
100
AcDbSymbolTableRecord
100
AcDbBlockTableRecord
  2
*PAPER_SPACE
340
A92
  0
ENDTAB
  0
ENDSEC
  0
SECTION
  2
BLOCKS
  0
BLOCK
  5
D
330
A
100
AcDbEntity
  8
0
100
AcDbBlockBegin
  2
*MODEL_SPACE
 70
     0
 10
0.0
 20
0.0
 30
0.0
  3
*MODEL_SPACE
  1

  0
ENDBLK
  5
E
330
A
100
AcDbEntity
  8
0
100
AcDbBlockEnd
  0
BLOCK
  5
F
330
B
100
AcDbEntity
 67
     1
  8
0
100
AcDbBlockBegin
  2
*PAPER_SPACE
 70
     0
 10
0.0
 20
0.0
 30
0.0
  3
*PAPER_SPACE
  1

  0
ENDBLK
  5
10
330
B
100
AcDbEntity
 67
     1
  8
0
100
AcDbBlockEnd
  0
ENDSEC
  0
SECTION
  2
ENTITIES
  0
LINE
  5
27
330
A
100
AcDbEntity
  8
0
  6
Continuous
 62
     7
100
AcDbLine
 10
-174.7968749717255
 20
-49.28194818765755
 30
0.0
 11
-165.7968749717255
 21
-49.28194818765755
 31
0.0
  0
LINE
  5
28
330
A
100
AcDbEntity
  8
0
  6
Continuous
 62
     7
100
AcDbLine
 10
-165.7968749717255
 20
30.71805181234247
 30
0.0
 11
-174.7968749717255
 21
30.71805181234247
 31
0.0
  0
ARC
  5
29
330
A
100
AcDbEntity
  8
0
  6
Continuous
 62
     7
100
AcDbCircle
 10
-165.7968749717255
 20
-42.28194818765754
 30
0.0
 40
7.000000000000007
100
AcDbArc
 50
270.0000000000003
 51
0.0
  0
ARC
  5
2A
330
A
100
AcDbEntity
  8
0
  6
Continuous
 62
     7
100
AcDbCircle
 10
-165.7968749717255
 20
23.71805181234246
 30
0.0
 40
7.000000000000003
100
AcDbArc
 50
360.0000000000008
 51
90.00000000000047
  0
LINE
  5
2B
330
A
100
AcDbEntity
  8
0
  6
Continuous
 62
     7
100
AcDbLine
 10
-176.7968749717255
 20
-47.78194818765754
 30
0.0
 11
-174.7968749717255
 21
-47.78194818765754
 31
0.0
  0
LINE
  5
2C
330
A
100
AcDbEntity
  8
0
  6
Continuous
 62
     7
100
AcDbLine
 10
-174.7968749717255
 20
29.21805181234247
 30
0.0
 11
-176.7968749717255
 21
29.21805181234247
 31
0.0
  0
ARC
  5
2D
330
A
100
AcDbEntity
  8
0
  6
Continuous
 62
     7
100
AcDbCircle
 10
-96.79687497172555
 20
-19.28194818765755
 30
0.0
 40
10.00000000000001
100
AcDbArc
 50
180.0000000000004
 51
0.0
  0
LINE
  5
2E
330
A
100
AcDbEntity
  8
0
  6
Continuous
 62
     7
100
AcDbLine
 10
-106.7968749717255
 20
-16.28194818765755
 30
0.0
 11
-106.7968749717255
 21
-19.28194818765755
 31
0.0
  0
LINE
  5
2F
330
A
100
AcDbEntity
  8
0
  6
Continuous
 62
     7
100
AcDbLine
 10
-106.7968749717255
 20
30.71805181234247
 30
0.0
 11
-106.7968749717255
 21
13.21805181234245
 31
0.0
  0
LINE
  5
30
330
A
100
AcDbEntity
  8
0
  6
Continuous
 62
     7
100
AcDbLine
 10
-86.79687497172553
 20
-19.28194818765755
 30
0.0
 11
-86.79687497172553
 21
30.71805181234247
 31
0.0
  0
ARC
  5
31
330
A
100
AcDbEntity
  8
0
  6
Continuous
 62
     7
100
AcDbCircle
 10
495.2940574261781
 20
499.1063195793588
 30
0.0
 40
2.499999999999983
100
AcDbArc
 50
114.5000000000005
 51
294.499999999997
  0
ARC
  5
32
330
A
100
AcDbEntity
  8
0
  6
Continuous
 62
     7
100
AcDbCircle
 10
626.3284804324007
 20
558.8221465218567
 30
0.0
 40
2.500000000000011
100
AcDbArc
 50
294.5000000000025
 51
114.4999999999988
  0
LINE
  5
33
330
A
100
AcDbEntity
  8
0
  6
Continuous
 62
     7
100
AcDbLine
 10
624.2687145171593
 20
560.6308267878975
 30
0.0
 11
557.0728845023147
 21
619.6354791169556
 31
0.0
  0
LINE
  5
34
330
A
100
AcDbEntity
  8
0
  6
Continuous
 62
     7
100
AcDbLine
 10
495.137309774015
 20
530.4680518123425
 30
0.0
 11
495.2803571281386
 21
501.8474456677004
 31
0.0
  0
LINE
  5
35
330
A
100
AcDbEntity
  8
0
  6
Continuous
 62
     7
100
AcDbLine
 10
494.833411729435
 20
591.2713172438491
 30
0.0
 11
494.873267301898
 21
583.3364238406134
 31
0.0
  0
ARC
  5
36
330
A
100
AcDbEntity
  8
0
  6
Continuous
 62
     7
100
AcDbCircle
 10
495.5834023619043
 20
591.2750657380303
 30
0.0
 40
0.75000000000028
100
AcDbArc
 50
114.4999999999949
 51
180.2863650547978
  0
ARC
  5
37
330
A
100
AcDbEntity
  8
0
  6
Continuous
 62
     7
100
AcDbCircle
 10
556.5780173517551
 20
619.0719132350063
 30
0.0
 40
0.7500000000003037
100
AcDbArc
 50
48.71363494630271
 51
114.4999999999988
  0
LINE
  5
38
330
A
100
AcDbEntity
  8
0
  6
Continuous
 62
     7
100
AcDbLine
 10
556.2669974197628
 20
619.754384188164
 30
0.0
 11
495.2723824299121
 21
591.957536691188
 31
0.0
  0
ARC
  5
39
330
A
100
AcDbEntity
  8
0
  6
Continuous
 62
     7
100
AcDbCircle
 10
494.1631250282743
 20
582.9680518123423
 30
0.0
 40
0.8000000000000651
100
AcDbArc
 50
27.41711945387159
 51
180.0000000000004
  0
ARC
  5
3A
330
A
100
AcDbEntity
  8
0
  6
Continuous
 62
     7
100
AcDbCircle
 10
494.1631250282743
 20
530.4680518123425
 30
0.0
 40
0.8000000000000113
100
AcDbArc
 50
180.0000000000004
 51
0.0
  0
LINE
  5
3B
330
A
100
AcDbEntity
  8
0
  6
Continuous
 62
     7
100
AcDbLine
 10
493.3631250282743
 20
582.9680518123425
 30
0.0
 11
493.3631250282743
 21
530.4680518123425
 31
0.0
  0
LINE
  5
3C
330
A
100
AcDbEntity
  8
0
  6
Continuous
 62
     7
100
AcDbLine
 10
474.1631250282742
 20
580.6680518123426
 30
0.0
 11
454.1631250282742
 21
580.6680518123426
 31
0.0
  0
LINE
  5
3D
330
A
100
AcDbEntity
  8
0
  6
Continuous
 62
     7
100
AcDbLine
 10
454.1631250282742
 20
532.7680518123425
 30
0.0
 11
474.1631250282742
 21
532.7680518123425
 31
0.0
  0
ARC
  5
3E
330
A
100
AcDbEntity
  8
0
  6
Continuous
 62
     7
100
AcDbCircle
 10
422.1631250282742
 20
567.9680518123424
 30
0.0
 40
10.0
100
AcDbArc
 50
89.99999999999934
 51
180.0000000000004
  0
ARC
  5
3F
330
A
100
AcDbEntity
  8
0
  6
Continuous
 62
     7
100
AcDbCircle
 10
422.1631250282742
 20
545.4680518123425
 30
0.0
 40
10.00000000000011
100
AcDbArc
 50
180.0000000000004
 51
270.0000000000015
  0
LINE
  5
40
330
A
100
AcDbEntity
  8
0
  6
Continuous
 62
     7
100
AcDbLine
 10
454.1631250282742
 20
577.9680518123424
 30
0.0
 11
422.1631250282743
 21
577.9680518123424
 31
0.0
  0
LINE
  5
41
330
A
100
AcDbEntity
  8
0
  6
Continuous
 62
     7
100
AcDbLine
 10
422.1631250282743
 20
535.4680518123424
 30
0.0
 11
454.1631250282742
 21
535.4680518123424
 31
0.0
  0
LINE
  5
42
330
A
100
AcDbEntity
  8
0
  6
Continuous
 62
     7
100
AcDbLine
 10
493.3631250282743
 20
577.9680518123424
 30
0.0
 11
474.1631250282742
 21
577.9680518123424
 31
0.0
  0
LINE
  5
43
330
A
100
AcDbEntity
  8
0
  6
Continuous
 62
     7
100
AcDbLine
 10
474.1631250282742
 20
535.4680518123424
 30
0.0
 11
493.3631250282743
 21
535.4680518123424
 31
0.0
  0
LINE
  5
44
330
A
100
AcDbEntity
  8
0
  6
Continuous
 62
     7
100
AcDbLine
 10
497.6962859509817
 20
497.4537084235999
 30
0.0
 11
528.0316341812272
 21
430.8873952288262
 31
0.0
  0
LINE
  5
45
330
A
100
AcDbEntity
  8
0
  6
Continuous
 62
     7
100
AcDbLine
 10
529.8515567229805
 20
431.7167817141387
 30
0.0
 11
499.5156549808866
 21
498.2828427514648
 31
0.0
  0
LWPOLYLINE
  5
46
330
A
100
AcDbEntity
  8
0
  6
Continuous
 62
     7
100
AcDbPolyline
 90
        5
 70
   128
 43
0.0
 10
-104.9364882955948
 20
531.82062472787
 10
-105.9394429791816
 20
530.4614287153468
 10
-107.221055031313
 20
529.3610822436609
 10
-108.7164085344115
 20
528.575455276145
 10
-110.3496513945072
 20
528.144398895579
  0
LWPOLYLINE
  5
4D
330
A
100
AcDbEntity
  8
0
  6
Continuous
 62
     7
100
AcDbPolyline
 90
        4
 70
   128
 43
0.0
 10
-108.1590935223123
 20
513.3252586793793
 10
-108.2448603578867
 20
513.0877826590604
 10
-108.1257395798147
 20
512.4359409071408
 10
-107.7368749720666
 20
511.7180518123428
  0
LINE
  5
53
330
A
100
AcDbEntity
  8
0
  6
Continuous
 62
     7
100
AcDbLine
 10
-109.3368749717255
 20
511.7180518123425
 30
0.0
 11
-109.3368749717255
 21
121.7180518123424
 31
0.0
  0
LINE
  5
54
330
A
100
AcDbEntity
  8
0
  6
Continuous
 62
     7
100
AcDbLine
 10
-89.79687497172553
 20
31.21805181234244
 30
0.0
 11
-89.79687497172553
 21
32.71805181234244
 31
0.0
  0
LINE
  5
55
330
A
100
AcDbEntity
  8
0
  6
Continuous
 62
     7
100
AcDbLine
 10
-103.7968749717255
 20
32.71805181234244
 30
0.0
 11
-103.7968749717255
 21
31.21805181234244
 31
0.0
  0
LINE
  5
56
330
A
100
AcDbEntity
  8
0
  6
Continuous
 62
     7
100
AcDbLine
 10
361.6631250282744
 20
563.7180518123425
 30
0.0
 11
-28.33687497172555
 21
563.7180518123425
 31
0.0
  0
LWPOLYLINE
  5
57
330
A
100
AcDbEntity
  8
0
  6
Continuous
 62
     7
100
AcDbPolyline
 90
        5
 70
   128
 43
0.0
 10
-77.33902886848333
 20
545.079144680087
 10
-76.87256818729918
 20
545.4498982864942
 10
-76.33164205822755
 20
545.6997720289405
 10
-75.74694950958738
 20
545.8145427661548
 10
-75.151704713214
 20
545.7876907474275
  0
LWPOLYLINE
  5
5E
330
A
100
AcDbEntity
  8
0
  6
Continuous
 62
     7
100
AcDbPolyline
 90
        5
 70
   128
 43
0.0
 10
-75.15170392845336
 20
567.6484130160283
 10
-75.7469492674594
 20
567.6215610934964
 10
-76.33164210299553
 20
567.7363318104688
 10
-76.87256830964229
 20
567.986205482986
 10
-77.33902888754006
 20
568.3569589757003
  0
LWPOLYLINE
  5
65
330
A
100
AcDbEntity
  8
0
  6
Continuous
 62
     7
100
AcDbPolyline
 90
        5
 70
   128
 43
0.0
 10
-62.2769746287943
 20
562.1180518120779
 10
-62.86897456191193
 20
562.1857269609574
 10
-63.42815461049092
 20
562.3915322065673
 10
-63.922749998184
 20
562.7238173372424
 10
-64.32466462572591
 20
563.1637065253608
  0
LWPOLYLINE
  5
6C
330
A
100
AcDbEntity
  8
0
  6
Continuous
 62
     7
100
AcDbPolyline
 90
        5
 70
   128
 43
0.0
 10
-84.26723606498088
 20
554.9032222415426
 10
-84.24038403619722
 20
554.3079773658361
 10
-84.3551547631756
 20
553.7232847613725
 10
-84.60502850200787
 20
553.1823585993913
 10
-84.9757821105628
 20
552.7158979091697
  0
LWPOLYLINE
  5
73
330
A
100
AcDbEntity
  8
0
  6
Continuous
 62
     7
100
AcDbPolyline
 90
        5
 70
   128
 43
0.0
 10
-84.97578212432483
 20
560.720205728193
 10
-84.60502863371141
 20
560.2537451522599
 10
-84.35515496167379
 20
559.7128189488366
 10
-84.24038424393391
 20
559.1281261173979
 10
-84.26723616466178
 20
558.5328807829332
  0
LWPOLYLINE
  5
7A
330
A
100
AcDbEntity
  8
0
  6
Continuous
 62
     7
100
AcDbPolyline
 90
        5
 70
   128
 43
0.0
 10
-64.32466462572595
 20
550.2723970993239
 10
-63.922749998184
 20
550.7122862874426
 10
-63.42815461049092
 20
551.0445714181176
 10
-62.8689745619119
 20
551.2503766637278
 10
-62.2769746287943
 20
551.3180518126071
  0
LINE
  5
81
330
A
100
AcDbEntity
  8
0
  6
Continuous
 62
     7
100
AcDbLine
 10
412.1631250282742
 20
562.9680518123425
 30
0.0
 11
403.1631250282743
 21
562.9680518123425
 31
0.0
  0
LINE
  5
82
330
A
100
AcDbEntity
  8
0
  6
Continuous
 62
     7
100
AcDbLine
 10
403.1631250282743
 20
550.4680518123426
 30
0.0
 11
412.1631250282742
 21
550.4680518123426
 31
0.0
  0
ARC
  5
83
330
A
100
AcDbEntity
  8
0
  6
Continuous
 62
     7
100
AcDbCircle
 10
530.7444200158683
 20
427.3461510158758
 30
0.0
 40
1.000000000000142
100
AcDbArc
 50
204.5000000000295
 51
24.49999999999731
  0
LINE
  5
84
330
A
100
AcDbEntity
  8
0
  6
Continuous
 62
     7
100
AcDbLine
 10
528.0316341812272
 20
430.8873952288261
 30
0.0
 11
529.8344587449919
 21
426.9314577732195
 31
0.0
  0
LINE
  5
85
330
A
100
AcDbEntity
  8
0
  6
Continuous
 62
     7
100
AcDbLine
 10
531.654381286745
 20
427.7608442585321
 30
0.0
 11
529.8515567229805
 21
431.7167817141387
 31
0.0
  0
ARC
  5
86
330
A
100
AcDbEntity
  8
0
  6
Continuous
 62
     7
100
AcDbCircle
 10
-147.3832940978112
 20
118.2981549276272
 30
0.0
 40
2.000000000000006
100
AcDbArc
 50
135.0000000000014
 51
224.9999999999982
  0
ARC
  5
87
330
A
100
AcDbEntity
  8
0
  6
Continuous
 62
     7
100
AcDbCircle
 10
-142.3769780870105
 20
123.304470938428
 30
0.0
 40
2.000000000000026
100
AcDbArc
 50
45.00000000000258
 51
135.0000000000008
  0
LINE
  5
88
330
A
100
AcDbEntity
  8
0
  6
Continuous
 62
     7
100
AcDbLine
 10
-139.9586728953524
 20
108.0451066004223
 30
0.0
 11
-112.9182122624167
 21
81.00464596748668
 31
0.0
  0
LINE
  5
89
330
A
100
AcDbEntity
  8
0
  6
Continuous
 62
     7
100
AcDbLine
 10
-148.7975076601844
 20
116.8839413652542
 30
0.0
 11
-144.554866973065
 21
112.6413006781348
 31
0.0
  0
LINE
  5
8A
330
A
100
AcDbEntity
  8
0
  6
Continuous
 62
     7
100
AcDbLine
 10
-138.4707657270903
 20
122.226685703254
 30
0.0
 11
-140.9627645246374
 21
124.7186845008011
 31
0.0
  0
LINE
  5
8B
330
A
100
AcDbEntity
  8
0
  6
Continuous
 62
     7
100
AcDbLine
 10
-134.4220267986617
 20
118.1779467748254
 30
0.0
 11
-137.3356095990509
 21
121.0915295752146
 31
0.0
  0
LINE
  5
8C
330
A
100
AcDbEntity
  8
0
  6
Continuous
 62
     7
100
AcDbLine
 10
-107.7368749717255
 20
91.49279494788936
 30
0.0
 11
-126.6438522056096
 21
110.3997721817736
 31
0.0
  0
LINE
  5
8D
330
A
100
AcDbEntity
  8
0
  6
Continuous
 62
     7
100
AcDbLine
 10
-91.25687497172553
 20
30.71805181234247
 30
0.0
 11
-91.25687497172553
 21
31.21805181234244
 31
0.0
  0
LINE
  5
8E
330
A
100
AcDbEntity
  8
0
  6
Continuous
 62
     7
100
AcDbLine
 10
-102.3368749717255
 20
31.21805181234244
 30
0.0
 11
-102.3368749717255
 21
30.71805181234247
 31
0.0
  0
LINE
  5
8F
330
A
100
AcDbEntity
  8
0
  6
Continuous
 62
     7
100
AcDbLine
 10
-91.25687497172553
 20
32.71805181234244
 30
0.0
 11
-91.25687497172553
 21
68.5759161886115
 31
0.0
  0
LINE
  5
90
330
A
100
AcDbEntity
  8
0
  6
Continuous
 62
     7
100
AcDbLine
 10
-102.3368749717255
 20
66.63805181234247
 30
0.0
 11
-102.3368749717255
 21
32.71805181234244
 31
0.0
  0
ARC
  5
91
330
A
100
AcDbEntity
  8
0
  6
Continuous
 62
     7
100
AcDbCircle
 10
-106.7968749717255
 20
68.5759161886115
 30
0.0
 40
15.53999999999999
100
AcDbArc
 50
0.0
 51
18.49221005015469
  0
LINE
  5
92
330
A
100
AcDbEntity
  8
0
  6
Continuous
 62
     7
100
AcDbLine
 10
-107.7368749717255
 20
121.7180518123424
 30
0.0
 11
-107.7368749717255
 21
91.49279494788935
 31
0.0
  0
LINE
  5
93
330
A
100
AcDbEntity
  8
0
  6
Continuous
 62
     7
100
AcDbLine
 10
-96.93687497172552
 20
87.39309186393914
 30
0.0
 11
-96.93687497172552
 21
121.7180518123424
 31
0.0
  0
ARC
  5
94
330
A
100
AcDbEntity
  8
0
  6
Continuous
 62
     7
100
AcDbCircle
 10
-113.2176974306471
 20
591.7905481591949
 30
0.0
 40
2.000000000000086
100
AcDbArc
 50
134.9999999999974
 51
225.0000000000046
  0
LINE
  5
95
330
A
100
AcDbEntity
  8
0
  6
Continuous
 62
     7
100
AcDbLine
 10
-87.33687497172551
 20
121.7180518123424
 30
0.0
 11
-87.33687497172546
 21
511.7180518123425
 31
0.0
  0
LINE
  5
96
330
A
100
AcDbEntity
  8
0
  6
Continuous
 62
     7
100
AcDbLine
 10
-28.33687497172555
 20
541.7180518123423
 30
0.0
 11
361.6631250282744
 21
541.7180518123423
 31
0.0
  0
LINE
  5
97
330
A
100
AcDbEntity
  8
0
  6
Continuous
 62
     7
100
AcDbLine
 10
-100.4544200302294
 20
591.4723501076617
 30
0.0
 11
-106.9951577562056
 21
598.0130878336368
 31
0.0
  0
LINE
  5
98
330
A
100
AcDbEntity
  8
0
  6
Continuous
 62
     7
100
AcDbLine
 10
-77.32659901238834
 20
568.3445290898197
 30
0.0
 11
-92.67624543717799
 21
583.694175514609
 31
0.0
  0
ARC
  5
99
330
A
100
AcDbEntity
  8
0
  6
Continuous
 62
     7
100
AcDbCircle
 10
-108.4093713185786
 20
596.5988742712635
 30
0.0
 40
2.000000000000106
100
AcDbArc
 50
45.00000000000546
 51
134.999999999998
  0
LINE
  5
9A
330
A
100
AcDbEntity
  8
0
  6
Continuous
 62
     7
100
AcDbLine
 10
-84.96301067750236
 20
552.7286693433803
 30
0.0
 11
-101.7618533079311
 21
535.9298267129513
 31
0.0
  0
LINE
  5
9B
330
A
100
AcDbEntity
  8
0
  6
Continuous
 62
     7
100
AcDbLine
 10
-28.33687497172558
 20
562.1180518123424
 30
0.0
 11
-62.29382250108003
 21
562.1180518123424
 31
0.0
  0
LINE
  5
9C
330
A
100
AcDbEntity
  8
0
  6
Continuous
 62
     7
100
AcDbLine
 10
-62.2938225005469
 20
551.3180518123426
 30
0.0
 11
-28.33687497172558
 21
551.3180518123426
 31
0.0
  0
LINE
  5
9D
330
A
100
AcDbEntity
  8
0
  6
Continuous
 62
     7
100
AcDbLine
 10
-105.7930762281884
 20
581.5374998319902
 30
0.0
 11
-84.96301979507864
 21
560.7074433988807
 31
0.0
  0
LINE
  5
9E
330
A
100
AcDbEntity
  8
0
  6
Continuous
 62
     7
100
AcDbLine
 10
-94.12510007111643
 20
528.2930734761366
 30
0.0
 11
-77.32658897952346
 21
545.0915845677298
 31
0.0
  0
LINE
  5
9F
330
A
100
AcDbEntity
  8
0
  6
Continuous
 62
     7
100
AcDbLine
 10
-114.6319109930202
 20
590.376334596822
 30
0.0
 11
-110.3892703059009
 21
586.1336939097028
 31
0.0
  0
ARC
  5
A0
330
A
100
AcDbEntity
  8
0
  6
Continuous
 62
     7
100
AcDbCircle
 10
-87.33687497172551
 20
521.5048483767459
 30
0.0
 40
20.39999999999994
100
AcDbArc
 50
135.0000000000004
 51
149.737963657174
  0
LINE
  5
A1
330
A
100
AcDbEntity
  8
0
  6
Continuous
 62
     7
100
AcDbLine
 10
-96.93687497172552
 20
511.7180518123425
 30
0.0
 11
-96.93687497172552
 21
521.5048483767459
 31
0.0
  0
ARC
  5
A2
330
A
100
AcDbEntity
  8
0
  6
Continuous
 62
     7
100
AcDbCircle
 10
-87.33687497172551
 20
521.5048483767459
 30
0.0
 40
9.599999999999994
100
AcDbArc
 50
135.0000000000005
 51
180.0000000000004
  0
LINE
  5
A3
330
A
100
AcDbEntity
  8
0
  6
Continuous
 62
     7
100
AcDbLine
 10
361.6631250282744
 20
552.2180518123425
 30
0.0
 11
385.1631250282743
 21
552.2180518123425
 31
0.0
  0
LINE
  5
A4
330
A
100
AcDbEntity
  8
0
  6
Continuous
 62
     7
100
AcDbLine
 10
362.6631250282742
 20
561.2180518123424
 30
0.0
 11
361.6631250282744
 21
561.2180518123424
 31
0.0
  0
LINE
  5
A5
330
A
100
AcDbEntity
  8
0
  6
Continuous
 62
     7
100
AcDbLine
 10
385.1631250282743
 20
561.2180518123424
 30
0.0
 11
377.6631250282745
 21
561.2180518123424
 31
0.0
  0
LINE
  5
A6
330
A
100
AcDbEntity
  8
0
  6
Continuous
 62
     7
100
AcDbLine
 10
368.1199062773846
 20
568.4343706201566
 30
0.0
 11
-94.24315619852821
 21
592.5689920596483
 31
0.0
  0
LINE
  5
A7
330
A
100
AcDbEntity
  8
0
  6
Continuous
 62
     7
100
AcDbLine
 10
-92.48916434856337
 20
591.2758027629812
 30
0.0
 11
365.8466374594588
 21
567.351397968256
 31
0.0
  0
LINE
  5
A8
330
A
100
AcDbEntity
  8
0
  6
Continuous
 62
     7
100
AcDbLine
 10
-115.1743658650627
 20
517.3549313029346
 30
0.0
 11
-138.47076572709
 21
122.2266857032533
 31
0.0
  0
LINE
  5
A9
330
A
100
AcDbEntity
  8
0
  6
Continuous
 62
     7
100
AcDbLine
 10
-137.3356095990509
 20
121.0915295752146
 30
0.0
 11
-114.0496795818615
 21
516.0421970320487
 31
0.0
  0
LINE
  5
AA
330
A
100
AcDbEntity
  8
0
  6
Continuous
 62
     7
100
AcDbLine
 10
-174.7968749717255
 20
-9.28194818765754
 30
0.0
 11
-174.7968749717255
 21
30.71805181234247
 31
0.0
  0
LINE
  5
AB
330
A
100
AcDbEntity
  8
0
  6
Continuous
 62
     7
100
AcDbLine
 10
-174.7968749717255
 20
-49.28194818765755
 30
0.0
 11
-174.7968749717255
 21
-9.28194818765754
 31
0.0
  0
LINE
  5
AC
330
A
100
AcDbEntity
  8
0
  6
Continuous
 62
     7
100
AcDbLine
 10
-158.7968749717255
 20
-9.28194818765754
 30
0.0
 11
-158.7968749717255
 21
23.71805181234241
 31
0.0
  0
LINE
  5
AD
330
A
100
AcDbEntity
  8
0
  6
Continuous
 62
     7
100
AcDbLine
 10
-158.7968749717255
 20
-42.28194818765746
 30
0.0
 11
-158.7968749717255
 21
-9.28194818765754
 31
0.0
  0
LINE
  5
AE
330
A
100
AcDbEntity
  8
0
  6
Continuous
 62
     7
100
AcDbLine
 10
-176.7968749717255
 20
-9.28194818765754
 30
0.0
 11
-176.7968749717255
 21
29.21805181234247
 31
0.0
  0
LINE
  5
AF
330
A
100
AcDbEntity
  8
0
  6
Continuous
 62
     7
100
AcDbLine
 10
-176.7968749717255
 20
-47.78194818765754
 30
0.0
 11
-176.7968749717255
 21
-9.28194818765754
 31
0.0
  0
LINE
  5
B0
330
A
100
AcDbEntity
  8
0
  6
Continuous
 62
     7
100
AcDbLine
 10
-156.2968749717255
 20
-39.28194818765754
 30
0.0
 11
-158.7968749717255
 21
-39.28194818765754
 31
0.0
  0
ARC
  5
B1
330
A
100
AcDbEntity
  8
0
  6
Continuous
 62
     7
100
AcDbCircle
 10
-156.2968749717255
 20
13.21805181234245
 30
0.0
 40
2.500000000000001
100
AcDbArc
 50
180.0000000000004
 51
270.0000000000008
  0
LINE
  5
B2
330
A
100
AcDbEntity
  8
0
  6
Continuous
 62
     7
100
AcDbLine
 10
-96.79687497172555
 20
30.71805181234247
 30
0.0
 11
-86.79687497172553
 21
30.71805181234247
 31
0.0
  0
LINE
  5
B3
330
A
100
AcDbEntity
  8
0
  6
Continuous
 62
     7
100
AcDbLine
 10
-106.7968749717255
 20
30.71805181234247
 30
0.0
 11
-96.79687497172555
 21
30.71805181234247
 31
0.0
  0
ARC
  5
B4
330
A
100
AcDbEntity
  8
0
  6
Continuous
 62
     7
100
AcDbCircle
 10
-109.2968749717255
 20
13.21805181234245
 30
0.0
 40
2.500000000000001
100
AcDbArc
 50
270.0000000000008
 51
0.0
  0
LINE
  5
B5
330
A
100
AcDbEntity
  8
0
  6
Continuous
 62
     7
100
AcDbLine
 10
-102.7968749717255
 20
-16.28194818765755
 30
0.0
 11
-104.2968749717255
 21
-16.28194818765755
 31
0.0
  0
LINE
  5
B6
330
A
100
AcDbEntity
  8
0
  6
Continuous
 62
     7
100
AcDbLine
 10
-156.2968749717255
 20
10.71805181234245
 30
0.0
 11
-109.2968749717255
 21
10.71805181234245
 31
0.0
  0
LINE
  5
B7
330
A
100
AcDbEntity
  8
0
  6
Continuous
 62
     7
100
AcDbLine
 10
-150.7968749717255
 20
-39.28194818765754
 30
0.0
 11
-109.7968749717255
 21
-16.28194818765755
 31
0.0
  0
LINE
  5
B8
330
A
100
AcDbEntity
  8
0
  6
Continuous
 62
     7
100
AcDbLine
 10
-109.7968749717255
 20
-16.28194818765755
 30
0.0
 11
-104.2968749717255
 21
-16.28194818765755
 31
0.0
  0
LINE
  5
B9
330
A
100
AcDbEntity
  8
0
  6
Continuous
 62
     7
100
AcDbLine
 10
-156.2968749717255
 20
-39.28194818765754
 30
0.0
 11
-150.7968749717255
 21
-39.28194818765754
 31
0.0
  0
LINE
  5
BA
330
A
100
AcDbEntity
  8
0
  6
Continuous
 62
     7
100
AcDbLine
 10
625.2917473257602
 20
561.0970496990481
 30
0.0
 11
494.2573243195375
 21
501.3812227565502
 31
0.0
  0
LINE
  5
BB
330
A
100
AcDbEntity
  8
0
  6
Continuous
 62
     7
100
AcDbLine
 10
497.7614832839793
 20
497.4834206524715
 30
0.0
 11
627.3652135390412
 21
556.547243344666
 31
0.0
  0
LWPOLYLINE
  5
BC
330
A
100
AcDbEntity
  8
0
  6
Continuous
 62
     7
100
AcDbPolyline
 90
        5
 70
   128
 43
0.0
 10
496.3307905909402
 20
496.8314165766407
 10
496.4164135328066
 20
496.8704371975627
 10
496.6730585034741
 20
496.987397046902
 10
497.1000546963101
 20
497.1819904204688
 10
497.6962859509817
 20
497.4537084235999
  0
LWPOLYLINE
  5
C3
330
A
100
AcDbEntity
  8
0
  6
Continuous
 62
     7
100
AcDbPolyline
 90
       20
 70
   128
 43
0.0
 10
494.9631250279816
 20
582.8301227936078
 10
495.4429300384803
 20
582.0652119164016
 10
496.2645567141299
 20
580.6780226367773
 10
497.3193694483394
 20
578.733105158571
 10
498.4856920103553
 20
576.280725330448
 10
499.7573813132921
 20
573.0170993500691
 10
500.8489233071877
 20
569.2417691929108
 10
501.5976546397284
 20
565.0695342761594
 10
501.9297716170387
 20
560.6032462498225
 10
501.8528310593887
 20
556.7180518123426
 10
501.4247649353129
 20
552.448808870557
 10
500.7170711812474
 20
548.3253475900311
 10
499.8244177675958
 20
544.4706151391371
 10
498.8384209655867
 20
540.9432374112823
 10
497.7787852958058
 20
537.618150398219
 10
496.8038748644735
 20
534.8320111477549
 10
495.9945817473835
 20
532.6590355276796
 10
495.4264617687715
 20
531.1964446531634
 10
495.2108471799135
 20
530.6519845035917
 10
495.137309774015
 20
530.4680518123425
  0
LWPOLYLINE
  5
D9
330
A
100
AcDbEntity
  8
0
  6
Continuous
 62
     7
100
AcDbPolyline
 90
       11
 70
   128
 43
0.0
 10
494.8730688495794
 20
583.3368061622703
 10
494.9047932911037
 20
583.2196771092228
 10
494.9212370433311
 20
583.1501237044165
 10
494.9342476356417
 20
583.0876834874681
 10
494.9438719439295
 20
583.0343158949154
 10
494.9507204192939
 20
582.9896231889431
 10
494.955468525725
 20
582.9523629925306
 10
494.9598119885562
 20
582.9079536976616
 10
494.9615317863267
 20
582.8830252951062
 10
494.9628323685483
 20
582.8521950262791
 10
494.9631250282743
 20
582.8301228921913
  0
CIRCLE
  5
E6
330
A
100
AcDbEntity
  8
0
  6
Continuous
 62
     7
100
AcDbCircle
 10
464.1631250282745
 20
556.7180518123424
 30
0.0
 40
7.499999999999943
  0
LWPOLYLINE
  5
E7
330
A
100
AcDbEntity
  8
0
  6
Continuous
 62
     7
100
AcDbPolyline
 90
       11
 70
   128
 43
0.0
 10
385.1631250282743
 20
561.2180518123424
 10
385.196407602416
 20
560.9671055701091
 10
385.2818136010477
 20
560.2437632546296
 10
385.383125606549
 20
559.121874203518
 10
385.4559575829003
 20
557.7224433195437
 10
385.4713829517194
 20
556.7180518123424
 10
385.4378241617665
 20
555.2363916612078
 10
385.352021088479
 20
553.9218862685917
 10
385.2507976697962
 20
552.9139366521995
 10
385.1784163168988
 20
552.3315943835862
 10
385.1631250282743
 20
552.2180518123425
  0
LINE
  5
F4
330
A
100
AcDbEntity
  8
0
  6
Continuous
 62
     7
100
AcDbLine
 10
385.1631250282743
 20
552.2180518123425
 30
0.0
 11
418.1631250282745
 21
552.2180518123425
 31
0.0
  0
LINE
  5
F5
330
A
100
AcDbEntity
  8
0
  6
Continuous
 62
     7
100
AcDbLine
 10
385.1631250282743
 20
561.2180518123424
 30
0.0
 11
418.1631250282745
 21
561.2180518123424
 31
0.0
  0
LINE
  5
F6
330
A
100
AcDbEntity
  8
0
  6
Continuous
 62
     7
100
AcDbLine
 10
458.1631250282745
 20
552.2180518123425
 30
0.0
 11
418.1631250282745
 21
552.2180518123425
 31
0.0
  0
LINE
  5
F7
330
A
100
AcDbEntity
  8
0
  6
Continuous
 62
     7
100
AcDbLine
 10
418.1631250282745
 20
561.2180518123424
 30
0.0
 11
458.1631250282745
 21
561.2180518123424
 31
0.0
  0
LINE
  5
F8
330
A
100
AcDbEntity
  8
0
  6
Continuous
 62
     7
100
AcDbLine
 10
494.9631250282743
 20
530.4680518123425
 30
0.0
 11
494.9631250282743
 21
582.83012284267
 31
0.0
  0
LINE
  5
F9
330
A
100
AcDbEntity
  8
0
  6
Continuous
 62
     7
100
AcDbLine
 10
454.1631250282742
 20
580.6680518123426
 30
0.0
 11
454.1631250282744
 21
561.2180518123424
 31
0.0
  0
LINE
  5
FA
330
A
100
AcDbEntity
  8
0
  6
Continuous
 62
     7
100
AcDbLine
 10
454.1631250282744
 20
552.2180518123425
 30
0.0
 11
454.1631250282742
 21
532.7680518123425
 31
0.0
  0
LINE
  5
FB
330
A
100
AcDbEntity
  8
0
  6
Continuous
 62
     7
100
AcDbLine
 10
474.1631250282742
 20
532.7680518123425
 30
0.0
 11
474.1631250282742
 21
580.6680518123426
 31
0.0
  0
LINE
  5
FC
330
A
100
AcDbEntity
  8
0
  6
Continuous
 62
     7
100
AcDbLine
 10
412.1631250282743
 20
552.2180518123425
 30
0.0
 11
412.1631250282742
 21
545.4680518123425
 31
0.0
  0
LINE
  5
FD
330
A
100
AcDbEntity
  8
0
  6
Continuous
 62
     7
100
AcDbLine
 10
412.1631250282742
 20
567.9680518123424
 30
0.0
 11
412.1631250282743
 21
561.2180518123424
 31
0.0
  0
LWPOLYLINE
  5
FE
330
A
100
AcDbEntity
  8
0
  6
Continuous
 62
     7
100
AcDbPolyline
 90
        6
 70
   128
 43
0.0
 10
-109.8614517901085
 20
528.1983711096629
 10
-108.0077834583467
 20
528.5207118607162
 10
-106.17980370902
 20
529.1849000213901
 10
-103.7578225802793
 20
530.5604596295927
 10
-102.6091916274598
 20
531.4312598597218
 10
-101.5835080348314
 20
532.4817522326863
  0
LWPOLYLINE
  5
106
330
A
100
AcDbEntity
  8
0
  6
Continuous
 62
     7
100
AcDbPolyline
 90
        3
 70
   128
 43
0.0
 10
-110.975063886286
 20
514.412441110984
 10
-109.3777585854812
 20
513.8973519287783
 10
-108.1570563393893
 20
513.3296390516948
  0
LWPOLYLINE
  5
10B
330
A
100
AcDbEntity
  8
0
  6
Continuous
 62
     7
100
AcDbPolyline
 90
        4
 70
   128
 43
0.0
 10
-105.3218367789267
 20
511.7180526196636
 10
-108.0184328737913
 20
513.2734634080679
 10
-109.4535240653332
 20
513.9274582650541
 10
-110.9750638864318
 20
514.4124411111707
  0
LINE
  5
111
330
A
100
AcDbEntity
  8
0
  6
Continuous
 62
     7
100
AcDbLine
 10
-109.3368749717255
 20
121.7180518123424
 30
0.0
 11
-100.9368749717255
 21
121.7180518123424
 31
0.0
  0
LINE
  5
112
330
A
100
AcDbEntity
  8
0
  6
Continuous
 62
     7
100
AcDbLine
 10
-109.3368749717255
 20
511.7180518123425
 30
0.0
 11
-100.9368749717254
 21
511.7180518123425
 31
0.0
  0
LINE
  5
113
330
A
100
AcDbEntity
  8
0
  6
Continuous
 62
     7
100
AcDbLine
 10
-96.79687497172549
 20
31.21805181234244
 30
0.0
 11
-89.79687497172553
 21
31.21805181234244
 31
0.0
  0
LINE
  5
114
330
A
100
AcDbEntity
  8
0
  6
Continuous
 62
     7
100
AcDbLine
 10
-103.7968749717255
 20
31.21805181234244
 30
0.0
 11
-96.79687497172549
 21
31.21805181234244
 31
0.0
  0
LINE
  5
115
330
A
100
AcDbEntity
  8
0
  6
Continuous
 62
     7
100
AcDbLine
 10
-96.79687497172549
 20
32.71805181234244
 30
0.0
 11
-103.7968749717255
 21
32.71805181234244
 31
0.0
  0
LINE
  5
116
330
A
100
AcDbEntity
  8
0
  6
Continuous
 62
     7
100
AcDbLine
 10
-89.79687497172553
 20
32.71805181234244
 30
0.0
 11
-96.79687497172549
 21
32.71805181234244
 31
0.0
  0
LINE
  5
117
330
A
100
AcDbEntity
  8
0
  6
Continuous
 62
     7
100
AcDbLine
 10
361.6631250282744
 20
563.7180518123425
 30
0.0
 11
361.6631250282745
 21
555.3180518123427
 31
0.0
  0
LINE
  5
118
330
A
100
AcDbEntity
  8
0
  6
Continuous
 62
     7
100
AcDbLine
 10
-28.33687497172555
 20
563.7180518123425
 30
0.0
 11
-28.33687497172555
 21
555.3180518123427
 31
0.0
  0
LINE
  5
119
330
A
100
AcDbEntity
  8
0
  6
Continuous
 62
     7
100
AcDbLine
 10
-91.33687497172546
 20
121.7180518123424
 30
0.0
 11
-100.9368749717255
 21
121.7180518123424
 31
0.0
  0
LINE
  5
11A
330
A
100
AcDbEntity
  8
0
  6
Continuous
 62
     7
100
AcDbLine
 10
-100.9368749717254
 20
511.7180518123425
 30
0.0
 11
-91.33687497172546
 21
511.7180518123425
 31
0.0
  0
LINE
  5
11B
330
A
100
AcDbEntity
  8
0
  6
Continuous
 62
     7
100
AcDbLine
 10
361.6631250282745
 20
555.3180518123427
 30
0.0
 11
361.6631250282745
 21
545.7180518123425
 31
0.0
  0
LINE
  5
11C
330
A
100
AcDbEntity
  8
0
  6
Continuous
 62
     7
100
AcDbLine
 10
-28.33687497172555
 20
545.7180518123425
 30
0.0
 11
-28.33687497172555
 21
555.3180518123427
 31
0.0
  0
LWPOLYLINE
  5
11D
330
A
100
AcDbEntity
  8
0
  6
Continuous
 62
     7
100
AcDbPolyline
 90
        4
 70
   128
 43
0.0
 10
-76.47195845078458
 20
546.09083779213
 10
-78.07215592869957
 20
546.2762812276886
 10
-79.68599761573777
 20
545.9312224642849
 10
-80.31867674863827
 20
545.5148776538709
  0
LWPOLYLINE
  5
123
330
A
100
AcDbEntity
  8
0
  6
Continuous
 62
     7
100
AcDbPolyline
 90
        5
 70
   128
 43
0.0
 10
-80.31867391567196
 20
567.92122896292
 10
-79.60399495040151
 20
567.4698270606728
 10
-78.2875751802036
 20
567.1731749825972
 10
-76.82152062771108
 20
567.2576867917708
 10
-76.47195767551959
 20
567.3452657180376
  0
LWPOLYLINE
  5
12A
330
A
100
AcDbEntity
  8
0
  6
Continuous
 62
     7
100
AcDbPolyline
 90
        4
 70
   128
 43
0.0
 10
-63.60546165522226
 20
562.0157878132628
 10
-62.60499211402093
 20
560.7530690251559
 10
-61.21970601690837
 20
559.855915571749
 10
-60.47815503585474
 20
559.7030168265131
  0
LWPOLYLINE
  5
130
330
A
100
AcDbEntity
  8
0
  6
Continuous
 62
     7
100
AcDbPolyline
 90
        5
 70
   128
 43
0.0
 10
-84.5400519332866
 20
549.7362527299121
 10
-84.08864551426288
 20
550.450941142441
 10
-83.79198363045444
 20
551.7674926055954
 10
-83.87652798406682
 20
553.2334922886443
 10
-83.96408768007431
 20
553.5829680048083
  0
LWPOLYLINE
  5
137
330
A
100
AcDbEntity
  8
0
  6
Continuous
 62
     7
100
AcDbPolyline
 90
        4
 70
   128
 43
0.0
 10
-83.96408787175337
 20
559.8531349609343
 10
-83.77865005475518
 20
561.4534427129146
 10
-84.12379328779742
 20
563.0673381390502
 10
-84.54005189064334
 20
563.6998509059014
  0
LWPOLYLINE
  5
13D
330
A
100
AcDbEntity
  8
0
  6
Continuous
 62
     7
100
AcDbPolyline
 90
        5
 70
   128
 43
0.0
 10
-60.47815511751095
 20
553.7330869288823
 10
-61.30344755918376
 20
553.5466096927714
 10
-62.44467387255265
 20
552.8246859132377
 10
-63.421539883483
 20
551.7273918657084
 10
-63.60546173602427
 20
551.4203167481744
  0
LINE
  5
144
330
A
100
AcDbEntity
  8
0
  6
Continuous
 62
     7
100
AcDbLine
 10
403.1631250282743
 20
562.9680518123425
 30
0.0
 11
403.1631250282743
 21
561.2180518123424
 31
0.0
  0
LINE
  5
145
330
A
100
AcDbEntity
  8
0
  6
Continuous
 62
     7
100
AcDbLine
 10
403.1631250282743
 20
552.2180518123425
 30
0.0
 11
403.1631250282743
 21
550.4680518123426
 31
0.0
  0
CIRCLE
  5
146
330
A
100
AcDbEntity
  8
0
  6
Continuous
 62
     7
100
AcDbCircle
 10
-102.3368749717254
 20
77.71805181234245
 30
0.0
 40
11.07999999999998
  0
LINE
  5
147
330
A
100
AcDbEntity
  8
0
  6
Continuous
 62
     7
100
AcDbLine
 10
-143.7911916493836
 20
124.7186845008011
 30
0.0
 11
-148.7975076601843
 21
119.7123684900003
 31
0.0
  0
LINE
  5
148
330
A
100
AcDbEntity
  8
0
  6
Continuous
 62
     7
100
AcDbLine
 10
-144.554866973065
 20
112.6413006781348
 30
0.0
 11
-140.6374954052914
 21
116.5586722459084
 31
0.0
  0
LINE
  5
149
330
A
100
AcDbEntity
  8
0
  6
Continuous
 62
     7
100
AcDbLine
 10
-136.0413013275788
 20
111.9624781681958
 30
0.0
 11
-139.9586728953524
 21
108.0451066004223
 31
0.0
  0
LWPOLYLINE
  5
14A
330
A
100
AcDbEntity
  8
0
  6
Continuous
 62
     7
100
AcDbPolyline
 90
       12
 70
   128
 43
0.0
 10
-140.6374954052914
 20
116.5586722459083
 10
-139.8350339815411
 20
117.1459823025633
 10
-138.9186019201972
 20
117.4585469460312
 10
-137.8985197702133
 20
117.4805326700309
 10
-136.8041216985333
 20
117.1250866057022
 10
-136.0700383222519
 20
116.5870543042856
 10
-135.512576640103
 20
115.8641895395949
 10
-135.1852031572067
 20
115.0438711805387
 10
-135.0972839008737
 20
114.0343147549236
 10
-135.3819751616182
 20
112.9129298577072
 10
-135.9070857877081
 20
112.1050345511222
 10
-136.0413013275788
 20
111.9624781681958
  0
LWPOLYLINE
  5
158
330
A
100
AcDbEntity
  8
0
  6
Continuous
 62
     7
100
AcDbPolyline
 90
       11
 70
   128
 43
0.0
 10
-138.4707657270912
 20
122.2266857032533
 10
-138.451333548356
 20
122.2041332773268
 10
-138.3990346034342
 20
122.1439802145171
 10
-138.28561530213
 20
122.0162525393159
 10
-138.0896033800966
 20
121.8043011225891
 10
-137.8660286365006
 20
121.5760901705782
 10
-137.6111207058179
 20
121.3333430783395
 10
-137.4675848232639
 20
121.204728180605
 10
-137.3794117120109
 20
121.1285665919481
 10
-137.3372075780057
 20
121.0928714823501
 10
-137.3356095990509
 20
121.0915295752146
  0
LINE
  5
165
330
A
100
AcDbEntity
  8
0
  6
Continuous
 62
     7
100
AcDbLine
 10
-126.7901761735776
 20
110.2534482138058
 30
0.0
 11
-134.5683507666295
 21
118.0316228068576
 31
0.0
  0
LWPOLYLINE
  5
166
330
A
100
AcDbEntity
  8
0
  6
Continuous
 62
     7
100
AcDbPolyline
 90
        5
 70
   128
 43
0.0
 10
-106.2898388033613
 20
88.06892022739726
 10
-107.2102205068517
 20
90.24210711580183
 10
-107.5067611925464
 20
90.94582650483337
 10
-107.704278028843
 20
91.41527073089788
 10
-107.7368749717255
 20
91.49279494788936
  0
LINE
  5
16D
330
A
100
AcDbEntity
  8
0
  6
Continuous
 62
     7
100
AcDbLine
 10
-114.4700163066495
 20
593.3666564079387
 30
0.0
 11
-113.8571650106659
 21
593.9795077039223
 31
0.0
  0
LWPOLYLINE
  5
16E
330
A
100
AcDbEntity
  8
0
  6
Continuous
 62
     7
100
AcDbPolyline
 90
        7
 70
   128
 43
0.0
 10
-113.857165010666
 20
593.9795077039223
 10
-113.9496072578896
 20
593.6841544920814
 10
-113.8057417991223
 20
593.2332151820918
 10
-113.6442909865192
 20
592.9546614519985
 10
-113.4361924900564
 20
592.6629168620065
 10
-113.1924461329542
 20
592.3689812353365
 10
-112.9242214665334
 20
592.0840241233086
  0
CIRCLE
  5
177
330
A
100
AcDbEntity
  8
0
  6
Continuous
 62
     7
100
AcDbCircle
 10
-138.3393983664351
 20
114.2605752070521
 30
0.0
 40
3.000000000000028
  0
CIRCLE
  5
178
330
A
100
AcDbEntity
  8
0
  6
Continuous
 62
     7
100
AcDbCircle
 10
-109.3368749717255
 20
521.2180518123424
 30
0.0
 40
5.0
  0
CIRCLE
  5
179
330
A
100
AcDbEntity
  8
0
  6
Continuous
 62
     7
100
AcDbCircle
 10
-73.33687497172554
 20
556.7180518123424
 30
0.0
 40
4.999999999999985
  0
CIRCLE
  5
17A
330
A
100
AcDbEntity
  8
0
  6
Continuous
 62
     7
100
AcDbCircle
 10
370.1631250282744
 20
561.2180518123424
 30
0.0
 40
7.500000000000056
  0
LINE
  5
17B
330
A
100
AcDbEntity
  8
0
  6
Continuous
 62
     7
100
AcDbLine
 10
-91.33687497172546
 20
121.7180518123424
 30
0.0
 11
-87.33687497172551
 21
121.7180518123424
 31
0.0
  0
LINE
  5
17C
330
A
100
AcDbEntity
  8
0
  6
Continuous
 62
     7
100
AcDbLine
 10
-91.33687497172546
 20
511.7180518123425
 30
0.0
 11
-87.33687497172546
 21
511.7180518123425
 31
0.0
  0
LINE
  5
17D
330
A
100
AcDbEntity
  8
0
  6
Continuous
 62
     7
100
AcDbLine
 10
361.6631250282745
 20
545.7180518123425
 30
0.0
 11
361.6631250282744
 21
541.7180518123423
 31
0.0
  0
LINE
  5
17E
330
A
100
AcDbEntity
  8
0
  6
Continuous
 62
     7
100
AcDbLine
 10
-28.33687497172555
 20
545.7180518123425
 30
0.0
 11
-28.33687497172555
 21
541.7180518123423
 31
0.0
  0
LINE
  5
17F
330
A
100
AcDbEntity
  8
0
  6
Continuous
 62
     7
100
AcDbLine
 10
-100.6046908704454
 20
591.3220792674446
 30
0.0
 11
-92.82651627739385
 21
583.5439046743929
 31
0.0
  0
LINE
  5
180
330
A
100
AcDbEntity
  8
0
  6
Continuous
 62
     7
100
AcDbLine
 10
-101.2531266085811
 20
588.8556776330386
 30
0.0
 11
-80.31867592702788
 21
567.9212269514858
 31
0.0
  0
LWPOLYLINE
  5
181
330
A
100
AcDbEntity
  8
0
  6
Continuous
 62
     7
100
AcDbPolyline
 90
        4
 70
   128
 43
0.0
 10
-103.0710925048523
 20
590.6736435293098
 10
-102.2790666765419
 20
590.220593990686
 10
-101.6330003368846
 20
589.5497518076391
 10
-101.2531266085811
 20
588.8556776330386
  0
LINE
  5
187
330
A
100
AcDbEntity
  8
0
  6
Continuous
 62
     7
100
AcDbLine
 10
-108.7028472826923
 20
596.30539830715
 30
0.0
 11
-103.0710925048522
 21
590.6736435293098
 31
0.0
  0
LWPOLYLINE
  5
188
330
A
100
AcDbEntity
  8
0
  6
Continuous
 62
     7
100
AcDbPolyline
 90
        7
 70
   128
 43
0.0
 10
-110.5983308633059
 20
597.2383418512824
 10
-110.302977651465
 20
597.3307840985062
 10
-109.8520383414751
 20
597.1869186397388
 10
-109.5734748571475
 20
597.0254580730145
 10
-109.2817255094434
 20
596.817354818877
 10
-108.9877928259314
 20
596.5736114048951
 10
-108.7028472826923
 20
596.30539830715
  0
LINE
  5
191
330
A
100
AcDbEntity
  8
0
  6
Continuous
 62
     7
100
AcDbLine
 10
-109.8235848809517
 20
598.0130878336368
 30
0.0
 11
-110.5983308633059
 21
597.2383418512824
 31
0.0
  0
ARC
  5
192
330
A
100
AcDbEntity
  8
0
  6
Continuous
 62
     7
100
AcDbCircle
 10
-73.33687497172554
 20
556.7180518123424
 30
0.0
 40
11.07999999999997
100
AcDbArc
 50
28.56366628540638
 51
106.4363337145945
  0
LINE
  5
193
330
A
100
AcDbEntity
  8
0
  6
Continuous
 62
     7
100
AcDbLine
 10
-60.47815505962784
 20
559.7030141236623
 30
0.0
 11
-28.33687497172555
 21
559.7030141236623
 31
0.0
  0
LINE
  5
194
330
A
100
AcDbEntity
  8
0
  6
Continuous
 62
     7
100
AcDbLine
 10
-28.33687497172555
 20
553.7330895010226
 30
0.0
 11
-60.47815505962789
 21
553.7330895010226
 31
0.0
  0
ARC
  5
195
330
A
100
AcDbEntity
  8
0
  6
Continuous
 62
     7
100
AcDbCircle
 10
-73.33687497172554
 20
556.7180518123424
 30
0.0
 40
11.07999999999992
100
AcDbArc
 50
253.5636662854067
 51
331.4363337145949
  0
LINE
  5
196
330
A
100
AcDbEntity
  8
0
  6
Continuous
 62
     7
100
AcDbLine
 10
-80.31867592702765
 20
545.5148766731992
 30
0.0
 11
-95.83278959760326
 21
530.0007630026233
 31
0.0
  0
ARC
  5
197
330
A
100
AcDbEntity
  8
0
  6
Continuous
 62
     7
100
AcDbCircle
 10
-87.33687497172549
 20
521.5048483767459
 30
0.0
 40
12.01503768868014
100
AcDbArc
 50
135.0000000000006
 51
180.0000000000004
  0
LINE
  5
198
330
A
100
AcDbEntity
  8
0
  6
Continuous
 62
     7
100
AcDbLine
 10
-99.35191266040563
 20
521.5048483767459
 30
0.0
 11
-99.35191266040563
 21
511.7180518123425
 31
0.0
  0
ARC
  5
199
330
A
100
AcDbEntity
  8
0
  6
Continuous
 62
     7
100
AcDbCircle
 10
-109.3368749717255
 20
521.2180518123424
 30
0.0
 40
6.999999999999983
100
AcDbArc
 50
94.297747056684
 51
256.4657260063466
  0
ARC
  5
19A
330
A
100
AcDbEntity
  8
0
  6
Continuous
 62
     7
100
AcDbCircle
 10
-87.33687497172549
 20
521.5048483767459
 30
0.0
 40
17.98496231131981
100
AcDbArc
 50
135.0000000000004
 51
142.386068749268
  0
LINE
  5
19B
330
A
100
AcDbEntity
  8
0
  6
Continuous
 62
     7
100
AcDbLine
 10
-100.0541637814443
 20
534.2221371864646
 30
0.0
 11
-84.54005011086882
 21
549.7362508570402
 31
0.0
  0
ARC
  5
19C
330
A
100
AcDbEntity
  8
0
  6
Continuous
 62
     7
100
AcDbCircle
 10
-73.33687497172554
 20
556.7180518123424
 30
0.0
 40
11.08
100
AcDbArc
 50
163.5636662854057
 51
196.4363337145961
  0
LINE
  5
19D
330
A
100
AcDbEntity
  8
0
  6
Continuous
 62
     7
100
AcDbLine
 10
-84.54005011086888
 20
563.6998527676446
 30
0.0
 11
-104.0853867017015
 21
583.2451893584771
 31
0.0
  0
LINE
  5
19E
330
A
100
AcDbEntity
  8
0
  6
Continuous
 62
     7
100
AcDbLine
 10
-104.0853867017015
 20
583.2451893584771
 30
0.0
 11
-101.9746996097807
 21
585.3558764503977
 31
0.0
  0
ARC
  5
19F
330
A
100
AcDbEntity
  8
0
  6
Continuous
 62
     7
100
AcDbCircle
 10
-104.2727966486369
 20
587.653973489254
 30
0.0
 40
3.250000000000076
100
AcDbArc
 50
314.9999999999982
 51
21.70051576762304
  0
LINE
  5
1A0
330
A
100
AcDbEntity
  8
0
  6
Continuous
 62
     7
100
AcDbLine
 10
-104.0853867017015
 20
583.2451893584771
 30
0.0
 11
-105.7930762281884
 21
581.5374998319902
 31
0.0
  0
LINE
  5
1A1
330
A
100
AcDbEntity
  8
0
  6
Continuous
 62
     7
100
AcDbLine
 10
-110.3892703059009
 20
586.1336939097028
 30
0.0
 11
-108.6815807794141
 21
587.8413834361895
 31
0.0
  0
LINE
  5
1A2
330
A
100
AcDbEntity
  8
0
  6
Continuous
 62
     7
100
AcDbLine
 10
-108.6815807794141
 20
587.8413834361895
 30
0.0
 11
-112.9242214665334
 21
592.0840241233086
 31
0.0
  0
LINE
  5
1A3
330
A
100
AcDbEntity
  8
0
  6
Continuous
 62
     7
100
AcDbLine
 10
-110.5983308633059
 20
597.2383418512824
 30
0.0
 11
-113.857165010666
 21
593.9795077039223
 31
0.0
  0
LINE
  5
1A4
330
A
100
AcDbEntity
  8
0
  6
Continuous
 62
     7
100
AcDbLine
 10
-106.5708936874932
 20
589.9520705281103
 30
0.0
 11
-108.6815807794141
 21
587.8413834361895
 31
0.0
  0
ARC
  5
1A5
330
A
100
AcDbEntity
  8
0
  6
Continuous
 62
     7
100
AcDbCircle
 10
-104.2727966486369
 20
587.653973489254
 30
0.0
 40
3.249999999999966
100
AcDbArc
 50
68.29948423237869
 51
135.000000000001
  0
LINE
  5
1A6
330
A
100
AcDbEntity
  8
0
  6
Continuous
 62
     7
100
AcDbLine
 10
-134.4220267986617
 20
118.1779467748254
 30
0.0
 11
-134.5683507666295
 21
118.0316228068576
 31
0.0
  0
ARC
  5
1A7
330
A
100
AcDbEntity
  8
0
  6
Continuous
 62
     7
100
AcDbCircle
 10
-130.5329395021357
 20
114.2888594782995
 30
0.0
 40
5.500000000000004
100
AcDbArc
 50
315.0000000000025
 51
134.9999999999996
  0
LINE
  5
1A8
330
A
100
AcDbEntity
  8
0
  6
Continuous
 62
     7
100
AcDbLine
 10
-126.6438522056096
 20
110.3997721817736
 30
0.0
 11
-126.7901761735776
 21
110.2534482138058
 31
0.0
  0
LINE
  5
1A9
330
A
100
AcDbEntity
  8
0
  6
Continuous
 62
     7
100
AcDbLine
 10
-92.82651627739385
 20
583.5439046743929
 30
0.0
 11
-92.67624543717799
 21
583.694175514609
 31
0.0
  0
LINE
  5
1AA
330
A
100
AcDbEntity
  8
0
  6
Continuous
 62
     7
100
AcDbLine
 10
-100.4544200302294
 20
591.4723501076617
 30
0.0
 11
-100.6046908704454
 21
591.3220792674446
 31
0.0
  0
ARC
  5
1AB
330
A
100
AcDbEntity
  8
0
  6
Continuous
 62
     7
100
AcDbCircle
 10
-96.56533273370401
 20
587.583262811135
 30
0.0
 40
5.500000000000095
100
AcDbArc
 50
315.0000000000001
 51
134.9999999999896
  0
ARC
  5
1AC
330
A
100
AcDbEntity
  8
0
  6
Continuous
 62
     7
100
AcDbCircle
 10
-73.33687497172559
 20
556.7180518123424
 30
0.0
 40
17.99999999999999
100
AcDbArc
 50
242.4576031237232
 51
342.5423968762792
  0
ARC
  5
1AD
330
A
100
AcDbEntity
  8
0
  6
Continuous
 62
     7
100
AcDbCircle
 10
-73.33687497172559
 20
556.7180518123424
 30
0.0
 40
18.00000000000009
100
AcDbArc
 50
152.4576031237219
 51
207.5423968762796
  0
ARC
  5
1AE
330
A
100
AcDbEntity
  8
0
  6
Continuous
 62
     7
100
AcDbCircle
 10
-73.33687497172559
 20
556.7180518123424
 30
0.0
 40
18.00000000000013
100
AcDbArc
 50
17.45760312372309
 51
117.5423968762782
  0
ARC
  5
1AF
330
A
100
AcDbEntity
  8
0
  6
Continuous
 62
     7
100
AcDbCircle
 10
-102.3368749717256
 20
77.71805181234245
 30
0.0
 40
18.00000000000001
100
AcDbArc
 50
307.9922990426725
 51
0.0
  0
ARC
  5
1B0
330
A
100
AcDbEntity
  8
0
  6
Continuous
 62
     7
100
AcDbCircle
 10
-102.3368749717256
 20
77.71805181234245
 30
0.0
 40
18.0
100
AcDbArc
 50
151.652393433651
 51
270.0000000000009
  0
ARC
  5
1B1
330
A
100
AcDbEntity
  8
0
  6
Continuous
 62
     7
100
AcDbCircle
 10
-102.3368749717256
 20
77.71805181234245
 30
0.0
 40
18.00000000000001
100
AcDbArc
 50
107.4576031237219
 51
115.7924563932206
  0
ARC
  5
1B2
330
A
100
AcDbEntity
  8
0
  6
Continuous
 62
     7
100
AcDbCircle
 10
-102.3368749717256
 20
77.71805181234245
 30
0.0
 40
18.00000000000001
100
AcDbArc
 50
0.0
 51
72.5423968762777
  0
CIRCLE
  5
1B3
330
A
100
AcDbEntity
  8
0
  6
Continuous
 62
     7
100
AcDbCircle
 10
-104.2727966486369
 20
587.653973489254
 30
0.0
 40
3.000000000000014
  0
LINE
  5
1B4
330
A
100
AcDbEntity
  8
0
  6
PHANTOM
 62
     7
100
AcDbLine
 10
-165.7968749717255
 20
-9.28194818765754
 30
0.0
 11
-165.7968749717255
 21
30.71805181234247
 31
0.0
  0
LINE
  5
1B5
330
A
100
AcDbEntity
  8
0
  6
PHANTOM
 62
     7
100
AcDbLine
 10
-165.7968749717255
 20
-49.28194818765755
 30
0.0
 11
-165.7968749717255
 21
-9.28194818765754
 31
0.0
  0
LINE
  5
1B6
330
A
100
AcDbEntity
  8
0
  6
PHANTOM
 62
     7
100
AcDbLine
 10
-156.2968749717255
 20
3.21805181234247
 30
0.0
 11
-156.2968749717255
 21
-39.28194818765754
 31
0.0
  0
LINE
  5
1B7
330
A
100
AcDbEntity
  8
0
  6
PHANTOM
 62
     7
100
AcDbLine
 10
-156.2968749717255
 20
3.21805181234247
 30
0.0
 11
-158.7968749717255
 21
3.21805181234247
 31
0.0
  0
LINE
  5
1B8
330
A
100
AcDbEntity
  8
0
  6
PHANTOM
 62
     7
100
AcDbLine
 10
-156.2968749717255
 20
10.71805181234245
 30
0.0
 11
-156.2968749717255
 21
3.21805181234247
 31
0.0
  0
LINE
  5
1B9
330
A
100
AcDbEntity
  8
0
  6
PHANTOM
 62
     7
100
AcDbLine
 10
-96.79687497172555
 20
-19.28194818765755
 30
0.0
 11
-86.79687497172553
 21
-19.28194818765755
 31
0.0
  0
LINE
  5
1BA
330
A
100
AcDbEntity
  8
0
  6
PHANTOM
 62
     7
100
AcDbLine
 10
-106.7968749717255
 20
-19.28194818765755
 30
0.0
 11
-96.79687497172555
 21
-19.28194818765755
 31
0.0
  0
LWPOLYLINE
  5
1BB
330
A
100
AcDbEntity
  8
0
  6
PHANTOM
 62
     7
100
AcDbPolyline
 90
        7
 70
   128
 43
0.0
 10
-106.7968749717255
 20
13.21805181234245
 10
-106.7623112530809
 20
13.16399321745792
 10
-106.3505706544606
 20
12.51128701986637
 10
-105.4036780422939
 20
10.9313782566717
 10
-103.9437103900835
 20
8.071732197031417
 10
-103.0519634240592
 20
5.428160529448305
 10
-102.7968749717256
 20
3.218051812342443
  0
LINE
  5
1C4
330
A
100
AcDbEntity
  8
0
  6
PHANTOM
 62
     7
100
AcDbLine
 10
-102.7968749717255
 20
3.21805181234247
 30
0.0
 11
-102.7968749717255
 21
-16.28194818765755
 31
0.0
  0
LWPOLYLINE
  5
1C5
330
A
100
AcDbEntity
  8
0
  6
PHANTOM
 62
     7
100
AcDbPolyline
 90
        8
 70
   128
 43
0.0
 10
-104.2968749717255
 20
3.21805181234247
 10
-104.5219377530276
 20
4.606381626712952
 10
-104.6157355371428
 20
4.875633350171853
 10
-105.7304192446731
 20
6.858312100859159
 10
-107.5553788099361
 20
9.003046645589401
 10
-108.7389945751444
 20
10.18797821798539
 10
-109.2536703234197
 20
10.67750786617907
 10
-109.2968749717255
 20
10.71805181234245
  0
LINE
  5
1CF
330
A
100
AcDbEntity
  8
0
  6
PHANTOM
 62
     7
100
AcDbLine
 10
-104.2968749717255
 20
3.21805181234247
 30
0.0
 11
-102.7968749717255
 21
3.21805181234247
 31
0.0
  0
LINE
  5
1D0
330
A
100
AcDbEntity
  8
0
  6
PHANTOM
 62
     7
100
AcDbLine
 10
-104.2968749717255
 20
-16.28194818765755
 30
0.0
 11
-104.2968749717255
 21
3.21805181234247
 31
0.0
  0
LINE
  5
1D1
330
A
100
AcDbEntity
  8
0
  6
PHANTOM
 62
     7
100
AcDbLine
 10
-104.2968749717255
 20
3.21805181234247
 30
0.0
 11
-156.2968749717255
 21
3.21805181234247
 31
0.0
  0
LINE
  5
1D2
330
A
100
AcDbEntity
  8
0
  6
PHANTOM
 62
     7
100
AcDbLine
 10
557.0728845023147
 20
619.6354791169556
 30
0.0
 11
494.833411729435
 21
591.2713172438491
 31
0.0
  0
LINE
  5
1D3
330
A
100
AcDbEntity
  8
0
  6
PHANTOM
 62
     7
100
AcDbLine
 10
418.1631250282745
 20
552.2180518123425
 30
0.0
 11
418.1631250282745
 21
561.2180518123424
 31
0.0
  0
LINE
  5
1D4
330
A
100
AcDbEntity
  8
0
  6
PHANTOM
 62
     7
100
AcDbLine
 10
422.1631250282743
 20
577.9680518123424
 30
0.0
 11
422.1631250282745
 21
561.2180518123424
 31
0.0
  0
LINE
  5
1D5
330
A
100
AcDbEntity
  8
0
  6
PHANTOM
 62
     7
100
AcDbLine
 10
422.1631250282745
 20
552.2180518123425
 30
0.0
 11
422.1631250282743
 21
535.4680518123424
 31
0.0
  0
LWPOLYLINE
  5
1D6
330
A
100
AcDbEntity
  8
0
  6
PHANTOM
 62
     7
100
AcDbPolyline
 90
        9
 70
   128
 43
0.0
 10
528.0316341812272
 20
430.8873952288262
 10
528.1216148736385
 20
430.8735091146099
 10
528.3364301759788
 20
430.9248703223959
 10
528.6433764057721
 20
431.0336595738893
 10
528.995723782007
 20
431.1833146917273
 10
529.3398306106888
 20
431.3510520408459
 10
529.6233097464867
 20
431.5113351303848
 10
529.8030040607203
 20
431.6397623129316
 10
529.8515567229805
 20
431.7167817141387
  0
LWPOLYLINE
  5
1E1
330
A
100
AcDbEntity
  8
0
  6
PHANTOM
 62
     7
100
AcDbPolyline
 90
        7
 70
   128
 43
0.0
 10
-104.9563299699629
 20
531.7859714511405
 10
-104.956836636588
 20
531.785745735341
 10
-104.8809164375813
 20
531.8195457190003
 10
-104.6513871386292
 20
531.9154879692636
 10
-103.8799568634591
 20
532.1845025358043
 10
-102.8246482547606
 20
532.4179100237671
 10
-101.5835058638962
 20
532.4817503787609
  0
LINE
  5
1EA
330
A
100
AcDbEntity
  8
0
  6
PHANTOM
 62
     7
100
AcDbLine
 10
-100.9368749717255
 20
121.7180518123424
 30
0.0
 11
-100.9368749717254
 21
511.7180518123425
 31
0.0
  0
LINE
  5
1EB
330
A
100
AcDbEntity
  8
0
  6
PHANTOM
 62
     7
100
AcDbLine
 10
-28.33687497172555
 20
555.3180518123427
 30
0.0
 11
361.6631250282745
 21
555.3180518123427
 31
0.0
  0
LINE
  5
1EC
330
A
100
AcDbEntity
  8
0
  6
PHANTOM
 62
     7
100
AcDbLine
 10
-91.33687497172546
 20
511.7180518123425
 30
0.0
 11
-91.33687497172546
 21
121.7180518123424
 31
0.0
  0
LINE
  5
1ED
330
A
100
AcDbEntity
  8
0
  6
PHANTOM
 62
     7
100
AcDbLine
 10
361.6631250282745
 20
545.7180518123425
 30
0.0
 11
-28.33687497172555
 21
545.7180518123425
 31
0.0
  0
LWPOLYLINE
  5
1EE
330
A
100
AcDbEntity
  8
0
  6
PHANTOM
 62
     7
100
AcDbPolyline
 90
        6
 70
   128
 43
0.0
 10
-77.32895288554608
 20
545.0892206617072
 10
-77.58691012483621
 20
545.086625193738
 10
-78.26869255221736
 20
545.1121151032598
 10
-78.71708427489647
 20
545.1559983035383
 10
-79.21660963207286
 20
545.2321332652927
 10
-80.31867592702765
 20
545.5148766731992
  0
LWPOLYLINE
  5
1F6
330
A
100
AcDbEntity
  8
0
  6
PHANTOM
 62
     7
100
AcDbPolyline
 90
        5
 70
   128
 43
0.0
 10
-80.31867592702788
 20
567.9212269514858
 10
-79.21408307022884
 20
568.2044317442776
 10
-78.26964593477121
 20
568.3239187707549
 10
-77.58885440875665
 20
568.3494731271113
 10
-77.32895288554622
 20
568.3468829629775
  0
LWPOLYLINE
  5
1FD
330
A
100
AcDbEntity
  8
0
  6
PHANTOM
 62
     7
100
AcDbPolyline
 90
        6
 70
   128
 43
0.0
 10
-62.29072858428843
 20
562.117566011143
 10
-62.10621326732704
 20
561.9367072216581
 10
-61.64345111444119
 20
561.4379852931747
 10
-61.35914104942172
 20
561.0920939252261
 10
-61.06065713654876
 20
560.686783012718
 10
-60.47815505962784
 20
559.7030141236623
  0
LWPOLYLINE
  5
205
330
A
100
AcDbEntity
  8
0
  6
PHANTOM
 62
     7
100
AcDbPolyline
 90
        5
 70
   128
 43
0.0
 10
-84.54005011086882
 20
549.7362508570402
 10
-84.82375635350617
 20
550.8435946279176
 10
-84.94302329526247
 20
551.7891349087271
 10
-84.96830422603682
 20
552.4690379974998
 10
-84.96571955338497
 20
552.7246548417663
  0
LWPOLYLINE
  5
20C
330
A
100
AcDbEntity
  8
0
  6
PHANTOM
 62
     7
100
AcDbPolyline
 90
        6
 70
   128
 43
0.0
 10
-84.96571993787851
 20
560.7114822153177
 10
-84.96830585507867
 20
560.9664133690038
 10
-84.94319210654557
 20
561.6446457930246
 10
-84.89950245832019
 20
562.0938616371611
 10
-84.82396067986195
 20
562.5913865926961
 10
-84.54005011086884
 20
563.6998527676446
  0
LWPOLYLINE
  5
214
330
A
100
AcDbEntity
  8
0
  6
PHANTOM
 62
     7
100
AcDbPolyline
 90
        6
 70
   128
 43
0.0
 10
-60.47815505962791
 20
553.7330895010226
 10
-61.0606954564809
 20
552.7492652301424
 10
-61.64541137769017
 20
551.9958499672372
 10
-62.10726968120924
 20
551.4983343418236
 10
-62.29122277194254
 20
551.3180532191707
 10
-62.29072858428739
 20
551.3185376135429
  0
LINE
  5
21C
330
A
100
AcDbEntity
  8
0
  6
PHANTOM
 62
     7
100
AcDbLine
 10
-140.9627645246374
 20
124.7186845008011
 30
0.0
 11
-148.7975076601844
 21
116.8839413652542
 31
0.0
  0
LINE
  5
21D
330
A
100
AcDbEntity
  8
0
  6
PHANTOM
 62
     7
100
AcDbLine
 10
-96.07686249271964
 20
68.57591618861147
 30
0.0
 11
-91.25687497172553
 21
68.5759161886115
 31
0.0
  0
LINE
  5
21E
330
A
100
AcDbEntity
  8
0
  6
PHANTOM
 62
     7
100
AcDbLine
 10
-112.9242214665334
 20
592.0840241233086
 30
0.0
 11
-114.6319109930202
 21
590.376334596822
 31
0.0
  0
LINE
  5
21F
330
A
100
AcDbEntity
  8
0
  6
PHANTOM
 62
     7
100
AcDbLine
 10
-106.9951577562056
 20
598.0130878336368
 30
0.0
 11
-108.7028472826923
 21
596.30539830715
 31
0.0
  0
LINE
  5
220
330
A
100
AcDbEntity
  8
0
  6
PHANTOM
 62
     7
100
AcDbLine
 10
-100.0541637814443
 20
534.2221371864646
 30
0.0
 11
-101.7618533079311
 21
535.9298267129513
 31
0.0
  0
LINE
  5
221
330
A
100
AcDbEntity
  8
0
  6
PHANTOM
 62
     7
100
AcDbLine
 10
-95.83278959760326
 20
530.0007630026233
 30
0.0
 11
-94.12510007111643
 21
528.2930734761366
 31
0.0
  0
LINE
  5
222
330
A
100
AcDbEntity
  8
0
  6
PHANTOM
 62
     7
100
AcDbLine
 10
-112.9242214665334
 20
592.0840241233086
 30
0.0
 11
-108.7028472826923
 21
596.30539830715
 31
0.0
  0
LINE
  5
223
330
A
100
AcDbEntity
  8
0
  6
PHANTOM
 62
     7
100
AcDbLine
 10
-99.35191266040563
 20
521.5048483767459
 30
0.0
 11
-96.93687497172552
 21
521.5048483767459
 31
0.0
  0
LINE
  5
224
330
A
100
AcDbEntity
  8
0
  6
Continuous
 62
     7
100
AcDbLine
 10
-174.7968749717255
 20
-329.7431062219963
 30
0.0
 11
-165.7968749717255
 21
-329.7431062219963
 31
0.0
  0
LINE
  5
225
330
A
100
AcDbEntity
  8
0
  6
Continuous
 62
     7
100
AcDbLine
 10
-165.7968749717255
 20
-249.7431062219963
 30
0.0
 11
-174.7968749717255
 21
-249.7431062219963
 31
0.0
  0
ARC
  5
226
330
A
100
AcDbEntity
  8
0
  6
Continuous
 62
     7
100
AcDbCircle
 10
-165.7968749717255
 20
-322.7431062219963
 30
0.0
 40
7.0
100
AcDbArc
 50
270.0000000000003
 51
0.0
  0
ARC
  5
227
330
A
100
AcDbEntity
  8
0
  6
Continuous
 62
     7
100
AcDbCircle
 10
-165.7968749717255
 20
-256.7431062219963
 30
0.0
 40
7.0
100
AcDbArc
 50
0.0
 51
90.00000000000047
  0
LINE
  5
228
330
A
100
AcDbEntity
  8
0
  6
Continuous
 62
     7
100
AcDbLine
 10
-176.7968749717255
 20
-328.2431062219963
 30
0.0
 11
-174.7968749717255
 21
-328.2431062219963
 31
0.0
  0
LINE
  5
229
330
A
100
AcDbEntity
  8
0
  6
Continuous
 62
     7
100
AcDbLine
 10
-174.7968749717255
 20
-251.2431062219963
 30
0.0
 11
-176.7968749717255
 21
-251.2431062219963
 31
0.0
  0
LINE
  5
22A
330
A
100
AcDbEntity
  8
0
  6
Continuous
 62
     7
100
AcDbLine
 10
495.3367257816342
 20
-283.5855112858981
 30
0.0
 11
495.2446551446186
 21
-284.2017001707107
 31
0.0
  0
LINE
  5
22B
330
A
100
AcDbEntity
  8
0
  6
Continuous
 62
     7
100
AcDbLine
 10
495.2446551446187
 20
-295.2845122732788
 30
0.0
 11
495.3369287185521
 21
-295.9020593269614
 31
0.0
  0
LWPOLYLINE
  5
22C
330
A
100
AcDbEntity
  8
0
  6
Continuous
 62
     7
100
AcDbPolyline
 90
        7
 70
   128
 43
0.0
 10
-115.2176974306471
 20
-289.7431062219989
 10
-115.080414679615
 20
-291.0985595267853
 10
-114.9498903252328
 20
-291.6205646972863
 10
-114.6418571932988
 20
-292.4414541645505
 10
-114.2078925932249
 20
-293.2132276038357
 10
-113.6201202168556
 20
-293.9290743236177
 10
-113.5612576952521
 20
-293.9766809807262
  0
LWPOLYLINE
  5
235
330
A
100
AcDbEntity
  8
0
  6
Continuous
 62
     7
100
AcDbPolyline
 90
        6
 70
   128
 43
0.0
 10
-113.5596452167471
 20
-285.512341285661
 10
-114.1854640604247
 20
-286.2400884332985
 10
-114.6840493858389
 20
-287.1382559571967
 10
-114.9456222495152
 20
-287.8512647552954
 10
-115.1223146624082
 20
-288.6102791017566
 10
-115.2176974306471
 20
-289.7431062219989
  0
LINE
  5
23D
330
A
100
AcDbEntity
  8
0
  6
Continuous
 62
     7
100
AcDbLine
 10
-91.06533273370407
 20
-291.2431062219986
 30
0.0
 11
-91.06533273370398
 21
-290.3431062219986
 31
0.0
  0
LINE
  5
23E
330
A
100
AcDbEntity
  8
0
  6
Continuous
 62
     7
100
AcDbLine
 10
-91.065332733704
 20
-289.1431062219987
 30
0.0
 11
-91.06533273370395
 21
-288.2431062219986
 31
0.0
  0
LINE
  5
23F
330
A
100
AcDbEntity
  8
0
  6
Continuous
 62
     7
100
AcDbLine
 10
366.7752558494608
 20
-289.1431062219954
 30
0.0
 11
-93.18025914637942
 21
-289.1431062219987
 31
0.0
  0
LINE
  5
240
330
A
100
AcDbEntity
  8
0
  6
Continuous
 62
     7
100
AcDbLine
 10
-93.17318223730225
 20
-290.3431062219986
 30
0.0
 11
366.7683356506816
 21
-290.3431062219953
 31
0.0
  0
ARC
  5
241
330
A
100
AcDbEntity
  8
0
  6
Continuous
 62
     7
100
AcDbCircle
 10
494.163125028274
 20
-263.4931062219945
 30
0.0
 40
0.8000000000000682
100
AcDbArc
 50
0.0
 51
180.0000000000004
  0
ARC
  5
242
330
A
100
AcDbEntity
  8
0
  6
Continuous
 62
     7
100
AcDbCircle
 10
494.1631250282745
 20
-315.9931062219944
 30
0.0
 40
0.8000000000000113
100
AcDbArc
 50
180.0000000000004
 51
0.0
  0
LINE
  5
243
330
A
100
AcDbEntity
  8
0
  6
Continuous
 62
     7
100
AcDbLine
 10
493.363125028274
 20
-263.4931062219945
 30
0.0
 11
493.3631250282744
 21
-315.9931062219944
 31
0.0
  0
LINE
  5
244
330
A
100
AcDbEntity
  8
0
  6
Continuous
 62
     7
100
AcDbLine
 10
501.8528310593882
 20
-263.4931062219944
 30
0.0
 11
494.9631250282741
 21
-263.4931062219945
 31
0.0
  0
LINE
  5
245
330
A
100
AcDbEntity
  8
0
  6
Continuous
 62
     7
100
AcDbLine
 10
494.9631250282745
 20
-315.9931062219944
 30
0.0
 11
501.8528310593887
 21
-315.9931062219944
 31
0.0
  0
LINE
  5
246
330
A
100
AcDbEntity
  8
0
  6
Continuous
 62
     7
100
AcDbLine
 10
456.6631250282741
 20
-265.7931062219947
 30
0.0
 11
454.163125028274
 21
-265.7931062219947
 31
0.0
  0
LINE
  5
247
330
A
100
AcDbEntity
  8
0
  6
Continuous
 62
     7
100
AcDbLine
 10
474.1631250282741
 20
-265.7931062219946
 30
0.0
 11
471.6631250282739
 21
-265.7931062219946
 31
0.0
  0
LINE
  5
248
330
A
100
AcDbEntity
  8
0
  6
Continuous
 62
     7
100
AcDbLine
 10
471.6631250282744
 20
-313.6931062219947
 30
0.0
 11
474.1631250282745
 21
-313.6931062219947
 31
0.0
  0
LINE
  5
249
330
A
100
AcDbEntity
  8
0
  6
Continuous
 62
     7
100
AcDbLine
 10
454.1631250282745
 20
-313.6931062219947
 30
0.0
 11
456.6631250282745
 21
-313.6931062219947
 31
0.0
  0
ARC
  5
24A
330
A
100
AcDbEntity
  8
0
  6
Continuous
 62
     7
100
AcDbCircle
 10
422.1631250282741
 20
-278.493106221995
 30
0.0
 40
10.00000000000005
100
AcDbArc
 50
89.99999999999934
 51
180.0000000000004
  0
ARC
  5
24B
330
A
100
AcDbEntity
  8
0
  6
Continuous
 62
     7
100
AcDbCircle
 10
422.1631250282743
 20
-300.9931062219949
 30
0.0
 40
10.0
100
AcDbArc
 50
180.0000000000004
 51
270.0000000000015
  0
LINE
  5
24C
330
A
100
AcDbEntity
  8
0
  6
Continuous
 62
     7
100
AcDbLine
 10
454.1631250282741
 20
-268.4931062219948
 30
0.0
 11
422.1631250282742
 21
-268.4931062219949
 31
0.0
  0
LINE
  5
24D
330
A
100
AcDbEntity
  8
0
  6
Continuous
 62
     7
100
AcDbLine
 10
422.1631250282745
 20
-310.993106221995
 30
0.0
 11
454.1631250282744
 21
-310.9931062219947
 31
0.0
  0
LINE
  5
24E
330
A
100
AcDbEntity
  8
0
  6
Continuous
 62
     7
100
AcDbLine
 10
493.3631250282742
 20
-268.4931062219945
 30
0.0
 11
474.1631250282742
 21
-268.4931062219946
 31
0.0
  0
LINE
  5
24F
330
A
100
AcDbEntity
  8
0
  6
Continuous
 62
     7
100
AcDbLine
 10
474.1631250282743
 20
-310.9931062219946
 30
0.0
 11
493.3631250282743
 21
-310.9931062219944
 31
0.0
  0
LINE
  5
250
330
A
100
AcDbEntity
  8
0
  6
Continuous
 62
     7
100
AcDbLine
 10
-55.33687497172557
 20
-284.7431062219983
 30
0.0
 11
-55.33687497172563
 21
-279.7431062219983
 31
0.0
  0
LINE
  5
251
330
A
100
AcDbEntity
  8
0
  6
Continuous
 62
     7
100
AcDbLine
 10
-91.33687497172566
 20
-279.7431062219986
 30
0.0
 11
-91.33687497172564
 21
-284.7431062219986
 31
0.0
  0
LINE
  5
252
330
A
100
AcDbEntity
  8
0
  6
Continuous
 62
     7
100
AcDbLine
 10
377.6631250282743
 20
-289.7431062219952
 30
0.0
 11
377.6631250282743
 21
-284.7431062219953
 31
0.0
  0
LINE
  5
253
330
A
100
AcDbEntity
  8
0
  6
Continuous
 62
     7
100
AcDbLine
 10
377.6631250282745
 20
-294.7431062219953
 30
0.0
 11
377.6631250282743
 21
-289.7431062219952
 31
0.0
  0
LINE
  5
254
330
A
100
AcDbEntity
  8
0
  6
Continuous
 62
     7
100
AcDbLine
 10
362.6631250282742
 20
-290.3431062219953
 30
0.0
 11
362.6631250282744
 21
-294.7431062219954
 31
0.0
  0
LINE
  5
255
330
A
100
AcDbEntity
  8
0
  6
Continuous
 62
     7
100
AcDbLine
 10
362.6631250282742
 20
-284.7431062219954
 30
0.0
 11
362.6631250282742
 21
-289.1431062219954
 31
0.0
  0
LINE
  5
256
330
A
100
AcDbEntity
  8
0
  6
Continuous
 62
     7
100
AcDbLine
 10
471.6631250282739
 20
-265.7931062219946
 30
0.0
 11
471.6631250282739
 21
-254.7431062219946
 31
0.0
  0
LINE
  5
257
330
A
100
AcDbEntity
  8
0
  6
Continuous
 62
     7
100
AcDbLine
 10
456.6631250282741
 20
-260.7431062219947
 30
0.0
 11
456.6631250282741
 21
-265.7931062219947
 31
0.0
  0
LINE
  5
258
330
A
100
AcDbEntity
  8
0
  6
Continuous
 62
     7
100
AcDbLine
 10
456.6631250282741
 20
-254.7431062219947
 30
0.0
 11
456.6631250282741
 21
-256.7431062219947
 31
0.0
  0
LINE
  5
259
330
A
100
AcDbEntity
  8
0
  6
Continuous
 62
     7
100
AcDbLine
 10
471.6631250282744
 20
-324.7431062219946
 30
0.0
 11
471.6631250282744
 21
-313.6931062219947
 31
0.0
  0
LINE
  5
25A
330
A
100
AcDbEntity
  8
0
  6
Continuous
 62
     7
100
AcDbLine
 10
456.6631250282745
 20
-322.7431062219947
 30
0.0
 11
456.6631250282745
 21
-324.7431062219947
 31
0.0
  0
LINE
  5
25B
330
A
100
AcDbEntity
  8
0
  6
Continuous
 62
     7
100
AcDbLine
 10
456.6631250282745
 20
-313.6931062219947
 30
0.0
 11
456.6631250282745
 21
-318.7431062219947
 31
0.0
  0
LINE
  5
25C
330
A
100
AcDbEntity
  8
0
  6
Continuous
 62
     7
100
AcDbLine
 10
-28.33687497172549
 20
-296.7431062219981
 30
0.0
 11
361.6631250282744
 21
-296.7431062219954
 31
0.0
  0
LINE
  5
25D
330
A
100
AcDbEntity
  8
0
  6
Continuous
 62
     7
100
AcDbLine
 10
361.6631250282742
 20
-282.7431062219953
 30
0.0
 11
-28.3368749717256
 21
-282.743106221998
 31
0.0
  0
LINE
  5
25E
330
A
100
AcDbEntity
  8
0
  6
Continuous
 62
     7
100
AcDbLine
 10
412.1631250282742
 20
-283.4931062219951
 30
0.0
 11
403.1631250282742
 21
-283.4931062219951
 31
0.0
  0
LINE
  5
25F
330
A
100
AcDbEntity
  8
0
  6
Continuous
 62
     7
100
AcDbLine
 10
403.1631250282744
 20
-295.9931062219951
 30
0.0
 11
412.1631250282742
 21
-295.993106221995
 31
0.0
  0
LINE
  5
260
330
A
100
AcDbEntity
  8
0
  6
Continuous
 62
     7
100
AcDbLine
 10
-68.33687497172554
 20
-294.7431062219984
 30
0.0
 11
-68.33687497172552
 21
-294.2431062219984
 31
0.0
  0
LINE
  5
261
330
A
100
AcDbEntity
  8
0
  6
Continuous
 62
     7
100
AcDbLine
 10
-78.33687497172554
 20
-294.2431062219985
 30
0.0
 11
-78.33687497172551
 21
-294.7431062219985
 31
0.0
  0
LINE
  5
262
330
A
100
AcDbEntity
  8
0
  6
Continuous
 62
     7
100
AcDbLine
 10
-68.33687497172558
 20
-285.2431062219984
 30
0.0
 11
-68.33687497172561
 21
-284.7431062219984
 31
0.0
  0
LINE
  5
263
330
A
100
AcDbEntity
  8
0
  6
Continuous
 62
     7
100
AcDbLine
 10
-78.33687497172559
 20
-284.7431062219984
 30
0.0
 11
-78.33687497172559
 21
-285.2431062219984
 31
0.0
  0
LWPOLYLINE
  5
264
330
A
100
AcDbEntity
  8
0
  6
Continuous
 62
     7
100
AcDbPolyline
 90
       94
 70
   128
 43
0.0
 10
497.1786026357953
 20
-315.9931062219945
 10
498.1351761432103
 20
-318.685481638139
 10
499.7322107566788
 20
-322.5275372983825
 10
501.5553025983912
 20
-326.3225746651186
 10
503.6023400717684
 20
-330.0434521399976
 10
505.8695907410819
 20
-333.6658301943079
 10
508.3519094945891
 20
-337.1675428667847
 10
511.042895991699
 20
-340.5281776827652
 10
513.9350172170982
 20
-343.7287910539775
 10
517.0197051281331
 20
-346.7517130864977
 10
520.2874358081179
 20
-349.5804124513898
 10
523.7277942847338
 20
-352.1994024335065
 10
527.3295277534455
 20
-354.5941759514795
 10
531.0805890692113
 20
-356.7511616981628
 10
534.9681718653473
 20
-358.6576964559256
 10
538.9787384287983
 20
-360.3020106130163
 10
543.0980414503071
 20
-361.6732252483277
 10
547.3111409406051
 20
-362.7613600299493
 10
551.6024179283533
 20
-363.5573516689175
 10
555.955586991199
 20
-364.0530828102501
 10
560.3537101573705
 20
-364.2414210262419
 10
564.7792151672957
 20
-364.1162669931591
 10
569.2138817396758
 20
-363.6726153914848
 10
573.6388985810431
 20
-362.9066250208973
 10
578.0349998905863
 20
-361.8156618646622
 10
582.3824737520379
 20
-360.398348911451
 10
586.6612459446571
 20
-358.6546014134212
 10
590.8509803359764
 20
-356.5856369861104
 10
594.931193746116
 20
-354.1939479139219
 10
598.8813813489834
 20
-351.4832195052954
 10
602.2756261605266
 20
-348.8023880188579
 10
605.5114332752673
 20
-345.8993559861573
 10
608.5761697499533
 20
-342.7860685446711
 10
611.4581853394565
 20
-339.4752168522852
 10
614.1465395221993
 20
-335.9805016180746
 10
616.6310418558598
 20
-332.3167064047324
 10
618.9022866045497
 20
-328.4998556033369
 10
620.9516802033361
 20
-324.5475366440294
 10
622.7714574811443
 20
-320.4795614973658
 10
624.3546759806622
 20
-316.3193888261246
 10
625.6951569184892
 20
-312.097447015925
 10
626.7872627282828
 20
-307.8599614088383
 10
627.6250066666509
 20
-303.6975093867434
 10
628.196540264244
 20
-299.8763947738964
 10
628.5122687825004
 20
-296.9195228477737
 10
628.7146979136009
 20
-294.051153559085
 10
628.8284804324006
 20
-289.7431062219935
 10
628.6739361225999
 20
-284.7231028972562
 10
628.5246249689828
 20
-282.707977875037
 10
628.1664116417726
 20
-279.3722261257829
 10
627.6495697294231
 20
-275.930583533895
 10
626.9320752202979
 20
-272.2712714445166
 10
626.00474123706
 20
-268.4971007173995
 10
624.8581309329777
 20
-264.6589030363059
 10
623.4873617153757
 20
-260.8007308058672
 10
621.8903271019083
 20
-256.9586751456241
 10
620.0672352601958
 20
-253.1636377788853
 10
618.020197786819
 20
-249.4427603040049
 10
615.7529471175071
 20
-245.8203822496952
 10
613.2706283640023
 20
-242.3186695772191
 10
610.5796418668953
 20
-238.9580347612408
 10
607.6875206414945
 20
-235.7574213900248
 10
604.6028327304607
 20
-232.734499357504
 10
601.3351020504758
 20
-229.9057999926099
 10
597.8947435738631
 20
-227.2868100104943
 10
594.2930101051521
 20
-224.8920364925201
 10
590.5419487893858
 20
-222.7350507458346
 10
586.6543659932521
 20
-220.8285159880714
 10
582.6437994298014
 20
-219.1842018309793
 10
578.5244964082936
 20
-217.8129871956665
 10
574.3113969179953
 20
-216.7248524140434
 10
570.0201199302453
 20
-215.9288607750731
 10
565.6669508674035
 20
-215.4331296337398
 10
561.2688277012281
 20
-215.2447914177461
 10
556.8433226913036
 20
-215.3699454508275
 10
552.4086561189243
 20
-215.8135970525001
 10
547.9836392775548
 20
-216.5795874230864
 10
543.5875379680108
 20
-217.6705505793203
 10
539.2400641065591
 20
-219.0878635325301
 10
534.9612919139391
 20
-220.8316110305588
 10
530.7715575226214
 20
-222.9005754578672
 10
526.6913441124814
 20
-225.2922645300539
 10
522.7411565096121
 20
-228.0029929386801
 10
519.3469116980677
 20
-230.6838244251167
 10
516.111104583326
 20
-233.5868564578163
 10
513.0463681086422
 20
-236.7001438992986
 10
510.1643525191404
 20
-240.0109955916805
 10
507.4759983363972
 20
-243.5057108258885
 10
504.9914960027366
 20
-247.1695060392281
 10
502.7202512540437
 20
-250.9863568406248
 10
500.6708576552565
 20
-254.9386757999296
 10
498.851080377447
 20
-259.0066509465915
 10
497.2678618779279
 20
-263.1668236178306
 10
497.1642660372251
 20
-263.4931062219942
  0
LINE
  5
2C4
330
A
100
AcDbEntity
  8
0
  6
Continuous
 62
     7
100
AcDbLine
 10
377.6631250282743
 20
-294.2431062219952
 30
0.0
 11
385.4713829517194
 21
-294.2431062219952
 31
0.0
  0
LINE
  5
2C5
330
A
100
AcDbEntity
  8
0
  6
Continuous
 62
     7
100
AcDbLine
 10
361.6631250282744
 20
-294.2431062219954
 30
0.0
 11
362.6631250282744
 21
-294.2431062219953
 31
0.0
  0
LINE
  5
2C6
330
A
100
AcDbEntity
  8
0
  6
Continuous
 62
     7
100
AcDbLine
 10
362.6631250282742
 20
-285.2431062219953
 30
0.0
 11
361.6631250282742
 21
-285.2431062219954
 31
0.0
  0
LINE
  5
2C7
330
A
100
AcDbEntity
  8
0
  6
Continuous
 62
     7
100
AcDbLine
 10
385.4713829517192
 20
-285.2431062219952
 30
0.0
 11
377.6631250282743
 21
-285.2431062219953
 31
0.0
  0
LINE
  5
2C8
330
A
100
AcDbEntity
  8
0
  6
Continuous
 62
     7
100
AcDbLine
 10
-116.3368749717256
 20
-285.2431062219986
 30
0.0
 11
-116.3368749717255
 21
-294.2431062219986
 31
0.0
  0
LINE
  5
2C9
330
A
100
AcDbEntity
  8
0
  6
Continuous
 62
     7
100
AcDbLine
 10
-114.3368749717255
 20
-294.2431062219986
 30
0.0
 11
-114.3368749717255
 21
-294.7431062219986
 31
0.0
  0
LINE
  5
2CA
330
A
100
AcDbEntity
  8
0
  6
Continuous
 62
     7
100
AcDbLine
 10
-114.3368749717256
 20
-284.7431062219986
 30
0.0
 11
-114.3368749717256
 21
-285.2431062219986
 31
0.0
  0
LINE
  5
2CB
330
A
100
AcDbEntity
  8
0
  6
Continuous
 62
     7
100
AcDbLine
 10
-116.3368749717256
 20
-289.1431062219984
 30
0.0
 11
-137.9056570386175
 21
-289.1431062219973
 31
0.0
  0
LINE
  5
2CC
330
A
100
AcDbEntity
  8
0
  6
Continuous
 62
     7
100
AcDbLine
 10
-137.9057429763182
 20
-290.3431062219974
 30
0.0
 11
-116.3368749717256
 21
-290.3431062219985
 31
0.0
  0
LINE
  5
2CD
330
A
100
AcDbEntity
  8
0
  6
Continuous
 62
     7
100
AcDbLine
 10
518.0344545455118
 20
-282.3723802048828
 30
0.0
 11
528.6390082829004
 21
-285.7390036308743
 31
0.0
  0
LINE
  5
2CE
330
A
100
AcDbEntity
  8
0
  6
Continuous
 62
     7
100
AcDbLine
 10
529.2441826213075
 20
-283.8327601993752
 30
0.0
 11
519.3702281192685
 21
-280.6980798198945
 31
0.0
  0
LINE
  5
2CF
330
A
100
AcDbEntity
  8
0
  6
Continuous
 62
     7
100
AcDbLine
 10
519.3702281192679
 20
-298.7881326240934
 30
0.0
 11
529.2441826213075
 21
-295.6534522446124
 31
0.0
  0
LINE
  5
2D0
330
A
100
AcDbEntity
  8
0
  6
Continuous
 62
     7
100
AcDbLine
 10
528.6390082829002
 20
-293.7472088131132
 30
0.0
 11
518.0344545455113
 21
-297.1138322391052
 31
0.0
  0
LWPOLYLINE
  5
2D1
330
A
100
AcDbEntity
  8
0
  6
Continuous
 62
     7
100
AcDbPolyline
 90
        9
 70
   128
 43
0.0
 10
529.2351385075855
 20
-295.6324224056195
 10
529.7664296002824
 20
-295.4021488445615
 10
530.3495110115462
 20
-294.8756701278137
 10
530.7717906178871
 20
-294.2599201641542
 10
531.1839793503622
 20
-293.3418465084504
 10
531.438593651876
 20
-292.4782405741816
 10
531.583832321253
 20
-291.7564906781482
 10
531.6825007901123
 20
-291.0064831952956
 10
531.7444200158686
 20
-289.7431062219937
  0
LWPOLYLINE
  5
2DC
330
A
100
AcDbEntity
  8
0
  6
Continuous
 62
     7
100
AcDbPolyline
 90
       10
 70
   128
 43
0.0
 10
531.7444200158686
 20
-289.7431062219937
 10
531.6727426204153
 20
-288.3852162567317
 10
531.6050370015441
 20
-287.8630996317101
 10
531.4479092704212
 20
-287.0472035234215
 10
531.2335191821128
 20
-286.2877228542412
 10
530.9495174876007
 20
-285.5721546215549
 10
530.5940962511609
 20
-284.936649013378
 10
530.1523343150879
 20
-284.3975866617407
 10
529.6121493961821
 20
-283.9910897579262
 10
529.2336317983886
 20
-283.8584419235207
  0
LWPOLYLINE
  5
2E8
330
A
100
AcDbEntity
  8
0
  6
Continuous
 62
     7
100
AcDbPolyline
 90
       19
 70
   128
 43
0.0
 10
528.64060798334
 20
-285.7389475921504
 10
528.6385628543959
 20
-285.7388635090838
 10
528.7339389058239
 20
-285.8083449300244
 10
528.9251707486173
 20
-286.038911658116
 10
529.2126987503738
 20
-286.5889607048316
 10
529.4355700696105
 20
-287.2478043552672
 10
529.5768477890804
 20
-287.864502978055
 10
529.6679777406545
 20
-288.4570888497064
 10
529.7319410777212
 20
-289.2187131275565
 10
529.7444200158683
 20
-289.7431062219937
 10
529.6827701005445
 20
-290.9004882510934
 10
529.6253346469911
 20
-291.3382451644261
 10
529.4965211328572
 20
-292.0001781543725
 10
529.3317186364589
 20
-292.5792238210296
 10
529.1370688068001
 20
-293.0684471581727
 10
528.9379502578563
 20
-293.4282221639324
 10
528.7653565013644
 20
-293.6472887180729
 10
528.6569073975974
 20
-293.7377929165844
 10
528.6521851415836
 20
-293.7416607249271
  0
LWPOLYLINE
  5
2FD
330
A
100
AcDbEntity
  8
0
  6
Continuous
 62
     7
100
AcDbPolyline
 90
       10
 70
   128
 43
0.0
 10
-149.3832940978112
 20
-289.7431062219974
 10
-149.2462560581702
 20
-291.1172024891577
 10
-149.1160963970135
 20
-291.6463379882309
 10
-148.8089835964795
 20
-292.4794604613801
 10
-148.3764794597572
 20
-293.2644691468773
 10
-147.7907903956953
 20
-293.9956800848841
 10
-147.0566043312429
 20
-294.6094454828525
 10
-146.1849587594409
 20
-295.051903799907
 10
-145.1989474687349
 20
-295.2696075359099
 10
-144.8801819302732
 20
-295.2512895812661
  0
LINE
  5
309
330
A
100
AcDbEntity
  8
0
  6
Continuous
 62
     7
100
AcDbLine
 10
-136.0413013275788
 20
-295.2831062219973
 30
0.0
 11
-109.8807980329645
 21
-295.2831062219971
 31
0.0
  0
LINE
  5
30A
330
A
100
AcDbEntity
  8
0
  6
Continuous
 62
     7
100
AcDbLine
 10
-144.8801360924108
 20
-295.2831062219974
 30
0.0
 11
-140.6374954052914
 21
-295.2831062219973
 31
0.0
  0
LINE
  5
30B
330
A
100
AcDbEntity
  8
0
  6
Continuous
 62
     7
100
AcDbLine
 10
-140.6374954052916
 20
-284.2031062219973
 30
0.0
 11
-144.8801360924109
 21
-284.2031062219974
 31
0.0
  0
LINE
  5
30C
330
A
100
AcDbEntity
  8
0
  6
Continuous
 62
     7
100
AcDbLine
 10
-109.8711604186401
 20
-284.203106221997
 30
0.0
 11
-136.0413013275789
 21
-284.2031062219973
 31
0.0
  0
LINE
  5
30D
330
A
100
AcDbEntity
  8
0
  6
Continuous
 62
     7
100
AcDbLine
 10
-125.0329395021358
 20
-291.2431062219972
 30
0.0
 11
-125.0329395021357
 21
-290.343106221998
 31
0.0
  0
LINE
  5
30E
330
A
100
AcDbEntity
  8
0
  6
Continuous
 62
     7
100
AcDbLine
 10
-125.0329395021357
 20
-289.1431062219981
 30
0.0
 11
-125.0329395021358
 21
-288.2431062219972
 31
0.0
  0
LINE
  5
30F
330
A
100
AcDbEntity
  8
0
  6
Continuous
 62
     7
100
AcDbLine
 10
-84.33687497172559
 20
-279.7431062219986
 30
0.0
 11
-84.33687497172561
 21
-275.7431062219968
 31
0.0
  0
LINE
  5
310
330
A
100
AcDbEntity
  8
0
  6
Continuous
 62
     7
100
AcDbLine
 10
-120.3368749717256
 20
-275.743106221997
 30
0.0
 11
-120.3368749717256
 21
-280.743106221997
 31
0.0
  0
LINE
  5
311
330
A
100
AcDbEntity
  8
0
  6
Continuous
 62
     7
100
AcDbLine
 10
-91.25687497172549
 20
-295.7431062219969
 30
0.0
 11
-91.25687497172549
 21
-294.625073038764
 31
0.0
  0
LINE
  5
312
330
A
100
AcDbEntity
  8
0
  6
Continuous
 62
     7
100
AcDbLine
 10
-91.25687497172554
 20
-284.8611394052328
 30
0.0
 11
-91.25687497172554
 21
-284.7431062219986
 31
0.0
  0
LINE
  5
313
330
A
100
AcDbEntity
  8
0
  6
Continuous
 62
     7
100
AcDbLine
 10
-113.4168749717255
 20
-283.743106221997
 30
0.0
 11
-113.4168749717255
 21
-284.2031062219971
 31
0.0
  0
LINE
  5
314
330
A
100
AcDbEntity
  8
0
  6
Continuous
 62
     7
100
AcDbLine
 10
-113.4168749717255
 20
-295.2831062219971
 30
0.0
 11
-113.4168749717255
 21
-295.743106221997
 31
0.0
  0
LINE
  5
315
330
A
100
AcDbEntity
  8
0
  6
Continuous
 62
     7
100
AcDbLine
 10
-96.33687497172555
 20
-283.7431062219969
 30
0.0
 11
-96.33687497172559
 21
-280.7431062219968
 31
0.0
  0
LINE
  5
316
330
A
100
AcDbEntity
  8
0
  6
Continuous
 62
     7
100
AcDbLine
 10
-108.3368749717256
 20
-280.743106221997
 30
0.0
 11
-108.3368749717255
 21
-283.743106221997
 31
0.0
  0
LINE
  5
317
330
A
100
AcDbEntity
  8
0
  6
Continuous
 62
     7
100
AcDbLine
 10
-101.2727966486369
 20
-294.7431062219987
 30
0.0
 11
-101.2727966486369
 21
-294.2350519820089
 31
0.0
  0
LINE
  5
318
330
A
100
AcDbEntity
  8
0
  6
Continuous
 62
     7
100
AcDbLine
 10
-101.272796648637
 20
-285.2504234379023
 30
0.0
 11
-101.272796648637
 21
-284.7431062219988
 31
0.0
  0
LINE
  5
319
330
A
100
AcDbEntity
  8
0
  6
Continuous
 62
     7
100
AcDbLine
 10
-107.272796648637
 20
-284.7431062219988
 30
0.0
 11
-107.272796648637
 21
-285.2431062219986
 31
0.0
  0
LINE
  5
31A
330
A
100
AcDbEntity
  8
0
  6
Continuous
 62
     7
100
AcDbLine
 10
-107.2727966486369
 20
-294.2431062219986
 30
0.0
 11
-107.2727966486369
 21
-294.7431062219987
 31
0.0
  0
LINE
  5
31B
330
A
100
AcDbEntity
  8
0
  6
Continuous
 62
     7
100
AcDbLine
 10
-174.7968749717255
 20
-329.7431062219963
 30
0.0
 11
-174.7968749717255
 21
-249.7431062219963
 31
0.0
  0
LINE
  5
31C
330
A
100
AcDbEntity
  8
0
  6
Continuous
 62
     7
100
AcDbLine
 10
-158.7968749717255
 20
-322.7431062219963
 30
0.0
 11
-158.7968749717255
 21
-256.7431063000878
 31
0.0
  0
ARC
  5
31D
330
A
100
AcDbEntity
  8
0
  6
Continuous
 62
     7
100
AcDbCircle
 10
-96.79687497172555
 20
-289.7431062219965
 30
0.0
 40
10.0
100
AcDbArc
 50
270.0000000000008
 51
333.2563160495847
  0
ARC
  5
31E
330
A
100
AcDbEntity
  8
0
  6
Continuous
 62
     7
100
AcDbCircle
 10
-96.79687497172555
 20
-289.7431062219965
 30
0.0
 40
10.00000000000002
100
AcDbArc
 50
26.74368395039028
 51
30.0000000000003
  0
ARC
  5
31F
330
A
100
AcDbEntity
  8
0
  6
Continuous
 62
     7
100
AcDbCircle
 10
-96.79687497172555
 20
-289.7431062219965
 30
0.0
 40
10.00000000000005
100
AcDbArc
 50
56.9069733479262
 51
64.15806723682935
  0
ARC
  5
320
330
A
100
AcDbEntity
  8
0
  6
Continuous
 62
     7
100
AcDbCircle
 10
-96.79687497172555
 20
-289.7431062219965
 30
0.0
 40
9.999999999999943
100
AcDbArc
 50
222.4990270804778
 51
270.0000000000008
  0
LINE
  5
321
330
A
100
AcDbEntity
  8
0
  6
Continuous
 62
     7
100
AcDbLine
 10
-176.7968749717255
 20
-328.2431062219963
 30
0.0
 11
-176.7968749717255
 21
-251.2431062219963
 31
0.0
  0
ARC
  5
322
330
A
100
AcDbEntity
  8
0
  6
Continuous
 62
     7
100
AcDbCircle
 10
-104.2968749717255
 20
-299.7431062219964
 30
0.0
 40
2.5
100
AcDbArc
 50
53.13010235415599
 51
90.0
  0
ARC
  5
323
330
A
100
AcDbEntity
  8
0
  6
Continuous
 62
     7
100
AcDbCircle
 10
-156.2968749717255
 20
-279.7431062219963
 30
0.0
 40
2.5
100
AcDbArc
 50
180.0000000000004
 51
270.0000000000008
  0
ARC
  5
324
330
A
100
AcDbEntity
  8
0
  6
Continuous
 62
     7
100
AcDbCircle
 10
-156.2968749717255
 20
-299.7431062219964
 30
0.0
 40
2.5
100
AcDbArc
 50
90.0
 51
180.0000000000004
  0
LINE
  5
325
330
A
100
AcDbEntity
  8
0
  6
Continuous
 62
     7
100
AcDbLine
 10
-156.2968749717255
 20
-282.2431062219964
 30
0.0
 11
-108.3368749717255
 21
-282.2431062219964
 31
0.0
  0
LINE
  5
326
330
A
100
AcDbEntity
  8
0
  6
Continuous
 62
     7
100
AcDbLine
 10
-104.2968749717255
 20
-297.2431062219964
 30
0.0
 11
-156.2968749717255
 21
-297.2431062219964
 31
0.0
  0
LWPOLYLINE
  5
327
330
A
100
AcDbEntity
  8
0
  6
Continuous
 62
     7
100
AcDbPolyline
 90
       18
 70
   128
 43
0.0
 10
494.833411729435
 20
-289.7431062219945
 10
494.9930770329634
 20
-286.2832540154554
 10
495.4704345614723
 20
-282.8589045744834
 10
496.2605859807514
 20
-279.5051963582283
 10
497.3554232679935
 20
-276.2565429512808
 10
498.7437119110796
 20
-273.146279933727
 10
500.4112061898771
 20
-270.2063228129851
 10
502.3407953566051
 20
-267.4668395275117
 10
504.5126792152617
 20
-264.9559408829288
 10
506.9045712984287
 20
-262.6993920971187
 10
509.4919275565855
 20
-260.7203484142222
 10
512.2481982132712
 20
-259.0391175004996
 10
515.1451002017181
 20
-257.6729510601948
 10
518.1529073873897
 20
-256.635867809704
 10
521.2407555983479
 20
-255.9385096265749
 10
524.3769593334217
 20
-255.588032349443
 10
527.5293368983279
 20
-255.588032349443
 10
528.192199385988
 20
-255.6327726407163
  0
LWPOLYLINE
  5
33B
330
A
100
AcDbEntity
  8
0
  6
Continuous
 62
     7
100
AcDbPolyline
 90
       18
 70
   128
 43
0.0
 10
528.3592762869545
 20
-323.8396979718476
 10
527.5293368983279
 20
-323.8981800945459
 10
524.3769593334217
 20
-323.8981800945459
 10
521.2407555983479
 20
-323.5477028174138
 10
518.1529073873898
 20
-322.8503446342847
 10
515.1451002017181
 20
-321.8132613837939
 10
512.2481982132714
 20
-320.4470949434892
 10
509.4919275565856
 20
-318.7658640297666
 10
506.9045712984288
 20
-316.78682034687
 10
504.5126792152617
 20
-314.5302715610599
 10
502.3407953566051
 20
-312.019372916477
 10
500.4112061898771
 20
-309.2798896310036
 10
498.7437119110796
 20
-306.3399325102617
 10
497.3554232679935
 20
-303.2296694927079
 10
496.2605859807516
 20
-299.9810160857604
 10
495.4704345614722
 20
-296.6273078695052
 10
494.9930770329632
 20
-293.2029584285333
 10
494.833411729435
 20
-289.7431062219945
  0
LWPOLYLINE
  5
34F
330
A
100
AcDbEntity
  8
0
  6
Continuous
 62
     7
100
AcDbPolyline
 90
       22
 70
   128
 43
0.0
 10
555.8493978035053
 20
-289.7431062219943
 10
555.6860029542393
 20
-293.1693613305325
 10
555.197608594603
 20
-296.5580776711116
 10
554.3895656754032
 20
-299.8721277583698
 10
553.2707272839567
 20
-303.0752021660414
 10
551.8533516478121
 20
-306.1322073406296
 10
550.1529678310439
 20
-309.009650093722
 10
548.1882055945771
 20
-311.6760045603724
 10
545.9805912846269
 20
-314.1020576030735
 10
543.5543119855465
 20
-316.2612288770051
 10
540.9359505210678
 20
-318.1298620498545
 10
538.1541942073234
 20
-319.6874839855434
 10
535.2395205486065
 20
-320.9170290521909
 10
532.2238633194565
 20
-321.8050260967481
 10
529.140262691543
 20
-322.3417460377693
 10
526.0225032386302
 20
-322.5213084592649
 10
522.9047437857176
 20
-322.3417460377693
 10
519.8211431578041
 20
-321.8050260967481
 10
516.8054859286542
 20
-320.9170290521909
 10
513.8908122699372
 20
-319.6874839855435
 10
511.1090559561928
 20
-318.1298620498546
 10
509.7646034534952
 20
-317.2239305584012
  0
LWPOLYLINE
  5
367
330
A
100
AcDbEntity
  8
0
  6
Continuous
 62
     7
100
AcDbPolyline
 90
       22
 70
   128
 43
0.0
 10
508.7666807245075
 20
-263.0072554872345
 10
511.1090559561927
 20
-261.3563503941342
 10
513.8908122699372
 20
-259.7987284584454
 10
516.8054859286541
 20
-258.5691833917979
 10
519.821143157804
 20
-257.6811863472407
 10
522.9047437857176
 20
-257.1444664062195
 10
526.0225032386302
 20
-256.9649039847239
 10
529.140262691543
 20
-257.1444664062196
 10
532.2238633194564
 20
-257.6811863472408
 10
535.2395205486065
 20
-258.5691833917979
 10
538.1541942073233
 20
-259.7987284584454
 10
540.9359505210677
 20
-261.3563503941343
 10
543.5543119855464
 20
-263.2249835669838
 10
545.9805912846268
 20
-265.3841548409154
 10
548.1882055945771
 20
-267.8102078836165
 10
550.1529678310439
 20
-270.4765623502669
 10
551.853351647812
 20
-273.3540051033593
 10
553.2707272839566
 20
-276.4110102779475
 10
554.389565675403
 20
-279.6140846856191
 10
555.197608594603
 20
-282.9281347728773
 10
555.6860029542393
 20
-286.3168511134564
 10
555.8493978035053
 20
-289.7431062219943
  0
LWPOLYLINE
  5
37F
330
A
100
AcDbEntity
  8
0
  6
Continuous
 62
     7
100
AcDbPolyline
 90
       10
 70
   128
 43
0.0
 10
495.3663254590726
 20
-295.8986538769559
 10
495.4429300384803
 20
-296.5575671982575
 10
496.2645567141299
 20
-300.4660861292884
 10
497.3193694483394
 20
-304.0380434988222
 10
498.4856920103553
 20
-307.2463717694291
 10
499.7573813132921
 20
-310.3174993316961
 10
500.8489233071877
 20
-312.8129784143508
 10
501.5976546397284
 20
-314.6244791674102
 10
501.9297716170387
 20
-315.7039953474264
 10
501.8528310593887
 20
-315.9931062219944
  0
LWPOLYLINE
  5
38B
330
A
100
AcDbEntity
  8
0
  6
Continuous
 62
     7
100
AcDbPolyline
 90
       10
 70
   128
 43
0.0
 10
501.8528310593882
 20
-263.4931062219944
 10
501.9256308818265
 20
-263.7945975266894
 10
501.6686779035358
 20
-264.6791164196902
 10
501.0873039645319
 20
-266.1175304538776
 10
500.2453784690847
 20
-268.0510457416072
 10
499.172913466296
 20
-270.5443724129319
 10
498.0182434033913
 20
-273.46333046673
 10
496.7536006845356
 20
-277.2522609009292
 10
495.7078623588309
 20
-281.461211942787
 10
495.3527538850837
 20
-283.5881924480286
  0
LWPOLYLINE
  5
397
330
A
100
AcDbEntity
  8
0
  6
Continuous
 62
     7
100
AcDbPolyline
 90
       80
 70
   128
 43
0.0
 10
499.8668151336794
 20
-263.4931062219944
 10
500.9802856783664
 20
-260.610928124625
 10
502.9966687912445
 20
-256.1258454094925
 10
505.2959163816597
 20
-251.8082421967282
 10
507.8665737137719
 20
-247.6796285683562
 10
510.695833902061
 20
-243.7605730697975
 10
513.7696017145846
 20
-240.0706002384114
 10
517.0725637947161
 20
-236.6280933332325
 10
520.5882649515165
 20
-233.4502027504991
 10
524.2991901386675
 20
-230.5527605812417
 10
528.186851713552
 20
-227.9502017366017
 10
532.2318815417593
 20
-225.6554920338305
 10
536.4141274881563
 20
-223.6800636012397
 10
540.7127538138118
 20
-222.0337579239137
 10
545.1063449785984
 20
-220.7247768139249
 10
549.5730123323376
 20
-219.7596415493198
 10
554.0905031629533
 20
-219.1431603854388
 10
558.6363115583641
 20
-218.8784046004303
 10
563.1877905298051
 20
-218.9666931942978
 10
567.7222648379872
 20
-219.4075863177075
 10
572.2171439599975
 20
-220.1988874632963
 10
576.65003463415
 20
-221.3366544085605
 10
580.9988524220866
 20
-222.8152188558102
 10
585.2419317323407
 20
-224.6272146713432
 10
589.3581337572215
 20
-226.7636145831528
 10
593.3269517852925
 20
-229.2137751543424
 10
597.1286133647754
 20
-231.9654898081932
 10
600.7441788089105
 20
-235.0050496407153
 10
604.1556355525236
 20
-238.3173117177173
 10
607.3459878897197
 20
-241.8857745161437
 10
610.2993416456343
 20
-245.6926601338317
 10
613.0009833604138
 20
-249.7190028581262
 10
615.4374535909316
 20
-253.9447436521061
 10
617.5966139650578
 20
-258.3488300876967
 10
619.4677076544173
 20
-262.9093212278083
 10
621.0414129643687
 20
-267.6034969349806
 10
622.3098897742175
 20
-272.4079710619646
 10
623.2668185963035
 20
-277.2988079603322
 10
623.9074320593699
 20
-282.251641726672
 10
624.2285386593676
 20
-287.2417975922955
 10
624.2285386593676
 20
-292.2444148516926
 10
623.9074320593698
 20
-297.234570717316
 10
623.2668185963035
 20
-302.1874044836559
 10
622.3098897742175
 20
-307.0782413820235
 10
621.0414129643686
 20
-311.8827155090075
 10
619.4677076544174
 20
-316.5768912161798
 10
617.5966139650578
 20
-321.1373823562914
 10
615.4374535909316
 20
-325.541468791882
 10
613.0009833604137
 20
-329.7672095858617
 10
610.2993416456343
 20
-333.7935523101563
 10
607.3459878897197
 20
-337.6004379278443
 10
604.1556355525235
 20
-341.1689007262706
 10
600.7441788089104
 20
-344.4811628032727
 10
597.1286133647753
 20
-347.5207226357947
 10
593.3269517852926
 20
-350.2724372896455
 10
589.3581337572215
 20
-352.7225978608351
 10
585.2419317323407
 20
-354.8589977726446
 10
580.9988524220868
 20
-356.6709935881777
 10
576.65003463415
 20
-358.1495580354273
 10
572.2171439599975
 20
-359.2873249806914
 10
567.7222648379872
 20
-360.0786261262802
 10
563.1877905298051
 20
-360.5195192496899
 10
558.6363115583641
 20
-360.6078078435573
 10
554.0905031629533
 20
-360.3430520585489
 10
549.5730123323376
 20
-359.7265708946678
 10
545.1063449785984
 20
-358.7614356300627
 10
540.7127538138118
 20
-357.4524545200739
 10
536.4141274881565
 20
-355.8061488427478
 10
532.2318815417594
 20
-353.8307204101571
 10
528.1868517135522
 20
-351.5360107073858
 10
524.2991901386676
 20
-348.9334518627458
 10
520.5882649515166
 20
-346.0360096934884
 10
517.0725637947163
 20
-342.858119110755
 10
513.7696017145847
 20
-339.4156122055762
 10
510.6958339020612
 20
-335.72563937419
 10
507.8665737137722
 20
-331.8065838756313
 10
505.2959163816597
 20
-327.6779702472592
 10
502.9966687912446
 20
-323.360367034495
 10
500.9802856783665
 20
-318.8752843193624
 10
499.8668151336799
 20
-315.9931062219944
  0
LWPOLYLINE
  5
3E9
330
A
100
AcDbEntity
  8
0
  6
Continuous
 62
     7
100
AcDbPolyline
 90
       10
 70
   128
 43
0.0
 10
538.6758274750446
 20
-319.4256256256728
 10
538.5250524782578
 20
-319.4999514234995
 10
535.6286325372523
 20
-320.7217962220593
 10
532.6318614553082
 20
-321.6042320102708
 10
529.5675724835139
 20
-322.1375906369767
 10
526.4693386130881
 20
-322.3160285134504
 10
523.3711047426623
 20
-322.1375906369767
 10
520.306815770868
 20
-321.6042320102709
 10
517.3100446889239
 20
-320.7217962220593
 10
516.7627415932072
 20
-320.5198740256832
  0
LWPOLYLINE
  5
3F5
330
A
100
AcDbEntity
  8
0
  6
Continuous
 62
     7
100
AcDbPolyline
 90
       10
 70
   128
 43
0.0
 10
515.7350473964551
 20
-259.3812948581485
 10
517.3100446889239
 20
-258.7644162219294
 10
520.3068157708679
 20
-257.881980433718
 10
523.3711047426623
 20
-257.3486218070121
 10
526.4693386130881
 20
-257.1701839305384
 10
529.5675724835137
 20
-257.3486218070121
 10
532.631861455308
 20
-257.881980433718
 10
535.6286325372523
 20
-258.7644162219295
 10
538.5250524782577
 20
-259.9862610204894
 10
538.6758274750438
 20
-260.0605868183157
  0
LWPOLYLINE
  5
401
330
A
100
AcDbEntity
  8
0
  6
Continuous
 62
     7
100
AcDbPolyline
 90
       38
 70
   128
 43
0.0
 10
538.1809389174344
 20
-289.7431062219943
 10
538.0173268611794
 20
-291.8556164760174
 10
537.531197513385
 20
-293.90735365627
 10
536.736535930294
 20
-295.8392930196648
 10
535.656203078815
 20
-297.5958561881899
 10
534.3212781681284
 20
-299.1265100376535
 10
532.7701645574222
 20
-300.3872204436608
 10
531.0474849611717
 20
-301.3417190632007
 10
529.2027977348858
 20
-301.9625467088405
 10
527.2891711714513
 20
-302.2318432995529
 10
525.3616568229672
 20
-302.1418616627304
 10
523.4757057678226
 20
-301.695190406235
 10
521.6855733841318
 20
-300.904679448864
 10
520.0427585212874
 20
-299.7930703515812
 10
518.5945219718286
 20
-298.3923420842137
 10
517.3825268644849
 20
-296.7427910487143
 10
516.4416400918212
 20
-294.8918718250443
 10
515.7989292532187
 20
-292.8928319893084
 10
515.472883969323
 20
-290.8031802779382
 10
515.4728839693232
 20
-288.6830321660505
 10
515.7989292532188
 20
-286.5933804546803
 10
516.4416400918213
 20
-284.5943406189444
 10
517.382526864485
 20
-282.7434213952744
 10
518.5945219718284
 20
-281.093870359775
 10
520.0427585212874
 20
-279.6931420924076
 10
521.6855733841316
 20
-278.5815329951248
 10
523.4757057678226
 20
-277.7910220377537
 10
525.3616568229672
 20
-277.3443507812584
 10
527.2891711714513
 20
-277.2543691444358
 10
529.2027977348857
 20
-277.5236657351483
 10
531.0474849611717
 20
-278.144493380788
 10
532.7701645574221
 20
-279.098992000328
 10
534.3212781681282
 20
-280.3597024063354
 10
535.6562030788152
 20
-281.890356255799
 10
536.7365359302941
 20
-283.6469194243241
 10
537.5311975133852
 20
-285.5788587877188
 10
538.0173268611794
 20
-287.6305959679714
 10
538.1809389174344
 20
-289.7431062219943
  0
LWPOLYLINE
  5
429
330
A
100
AcDbEntity
  8
0
  6
Continuous
 62
     7
100
AcDbPolyline
 90
       20
 70
   128
 43
0.0
 10
527.013769652672
 20
-302.2410291852287
 10
525.7763500656237
 20
-302.1418616627303
 10
523.890399010479
 20
-301.695190406235
 10
522.1002666267882
 20
-300.904679448864
 10
520.4574517639439
 20
-299.7930703515812
 10
519.009215214485
 20
-298.3923420842137
 10
517.7972201071413
 20
-296.7427910487143
 10
516.8563333344776
 20
-294.8918718250443
 10
516.2136224958751
 20
-292.8928319893084
 10
515.8875772119795
 20
-290.8031802779382
 10
515.8875772119796
 20
-288.6830321660505
 10
516.2136224958752
 20
-286.5933804546802
 10
516.8563333344777
 20
-284.5943406189444
 10
517.7972201071415
 20
-282.7434213952744
 10
519.0092152144849
 20
-281.093870359775
 10
520.4574517639439
 20
-279.6931420924076
 10
522.1002666267881
 20
-278.5815329951248
 10
523.890399010479
 20
-277.7910220377537
 10
525.7763500656237
 20
-277.3443507812584
 10
527.0137696526716
 20
-277.2451832587601
  0
LWPOLYLINE
  5
43F
330
A
100
AcDbEntity
  8
0
  6
Continuous
 62
     7
100
AcDbPolyline
 90
        7
 70
   128
 43
0.0
 10
-110.5983308633059
 20
-292.2431062219989
 10
-110.302977651465
 20
-292.9869694126802
 10
-109.8520383414751
 20
-293.6352648417243
 10
-109.5734748571475
 20
-293.896846495643
 10
-109.2817255094434
 20
-294.0883812114419
 10
-108.9877928259314
 20
-294.2044852671994
 10
-108.7028472826923
 20
-294.2431062219988
  0
LWPOLYLINE
  5
448
330
A
100
AcDbEntity
  8
0
  6
Continuous
 62
     7
100
AcDbPolyline
 90
        7
 70
   128
 43
0.0
 10
-108.7028472826924
 20
-285.2431062219988
 10
-108.9877997311884
 20
-285.2817292003648
 10
-109.2817304626516
 20
-285.3978348099831
 10
-109.5734704927558
 20
-285.5893641414547
 10
-109.8520205609471
 20
-285.850928131612
 10
-110.3029580818802
 20
-286.4992061167334
 10
-110.598330863306
 20
-287.2431062219988
  0
LWPOLYLINE
  5
451
330
A
100
AcDbEntity
  8
0
  6
Continuous
 62
     7
100
AcDbPolyline
 90
        9
 70
   128
 43
0.0
 10
-100.4544200302299
 20
-289.7431062219988
 10
-100.456783332643
 20
-289.5531463727995
 10
-100.4638703144512
 20
-289.3634216667591
 10
-100.4756722029836
 20
-289.1741669559628
 10
-100.4921743891878
 20
-288.9856165107091
 10
-100.5133564457146
 20
-288.7980037295161
 10
-100.5391921522038
 20
-288.6115608502076
 10
-100.569649527741
 20
-288.4265186624363
 10
-100.604690870446
 20
-288.2431062219987
  0
LWPOLYLINE
  5
45C
330
A
100
AcDbEntity
  8
0
  6
Continuous
 62
     7
100
AcDbPolyline
 90
        9
 70
   128
 43
0.0
 10
-100.6046908704454
 20
-291.2431062219988
 10
-100.5696495277403
 20
-291.0596937815612
 10
-100.5391921522031
 20
-290.8746515937899
 10
-100.513356445714
 20
-290.6882087144814
 10
-100.4921743891872
 20
-290.5005959332884
 10
-100.4756722029829
 20
-290.3120454880347
 10
-100.4638703144506
 20
-290.1227907772384
 10
-100.4567833326424
 20
-289.933066071198
 10
-100.4544200302299
 20
-289.7431062219988
  0
LINE
  5
467
330
A
100
AcDbEntity
  8
0
  6
Continuous
 62
     7
100
AcDbLine
 10
-101.2531266085811
 20
-294.2431062219987
 30
0.0
 11
-80.31867592702788
 21
-294.2431062219985
 31
0.0
  0
LWPOLYLINE
  5
468
330
A
100
AcDbEntity
  8
0
  6
Continuous
 62
     7
100
AcDbPolyline
 90
        4
 70
   128
 43
0.0
 10
-103.0710925048523
 20
-294.2431062219987
 10
-102.2790666765419
 20
-294.074572691833
 10
-101.6330003368846
 20
-294.0875603174202
 10
-101.2531266085811
 20
-294.2431062219987
  0
LINE
  5
46E
330
A
100
AcDbEntity
  8
0
  6
Continuous
 62
     7
100
AcDbLine
 10
-108.7028472826923
 20
-294.2431062219987
 30
0.0
 11
-103.0710925048522
 21
-294.2431062219987
 31
0.0
  0
LINE
  5
46F
330
A
100
AcDbEntity
  8
0
  6
Continuous
 62
     7
100
AcDbLine
 10
-103.0710925048524
 20
-285.2431062219988
 30
0.0
 11
-108.7028472826925
 21
-285.2431062219988
 31
0.0
  0
LWPOLYLINE
  5
470
330
A
100
AcDbEntity
  8
0
  6
Continuous
 62
     7
100
AcDbPolyline
 90
        4
 70
   128
 43
0.0
 10
-101.2531266085812
 20
-285.2431062219988
 10
-101.7061761472052
 20
-285.4116397521644
 10
-102.3770183302521
 20
-285.3986521265773
 10
-103.0710925048524
 20
-285.2431062219988
  0
LINE
  5
476
330
A
100
AcDbEntity
  8
0
  6
Continuous
 62
     7
100
AcDbLine
 10
-80.31867592702793
 20
-285.2431062219985
 30
0.0
 11
-101.2531266085812
 21
-285.2431062219988
 31
0.0
  0
LINE
  5
477
330
A
100
AcDbEntity
  8
0
  6
Continuous
 62
     7
100
AcDbLine
 10
-108.7028472826925
 20
-285.2431062219988
 30
0.0
 11
-112.9242214665334
 21
-285.2431062219986
 31
0.0
  0
LWPOLYLINE
  5
478
330
A
100
AcDbEntity
  8
0
  6
Continuous
 62
     7
100
AcDbPolyline
 90
        7
 70
   128
 43
0.0
 10
-112.9242214665334
 20
-285.2431062219988
 10
-113.1924303861663
 20
-285.2817259223771
 10
-113.4361705483954
 20
-285.3978261910762
 10
-113.6442720398301
 20
-285.5893547152558
 10
-113.8057328829797
 20
-285.8509281316121
 10
-113.9496059095373
 20
-286.4992061167333
 10
-113.857165010666
 20
-287.2431062219988
  0
LINE
  5
481
330
A
100
AcDbEntity
  8
0
  6
Continuous
 62
     7
100
AcDbLine
 10
-112.9242214665334
 20
-294.2431062219986
 30
0.0
 11
-108.7028472826923
 21
-294.2431062219987
 31
0.0
  0
LWPOLYLINE
  5
482
330
A
100
AcDbEntity
  8
0
  6
Continuous
 62
     7
100
AcDbPolyline
 90
        7
 70
   128
 43
0.0
 10
-113.857165010666
 20
-292.2431062219989
 10
-113.9496072578896
 20
-292.9869694126802
 10
-113.8057417991223
 20
-293.6352648417243
 10
-113.6442909865192
 20
-293.8968371132832
 10
-113.4361924900564
 20
-294.0883726326118
 10
-113.1924461329542
 20
-294.2044820044526
 10
-112.9242214665334
 20
-294.2431062219988
  0
LINE
  5
48B
330
A
100
AcDbEntity
  8
0
  6
Continuous
 62
     7
100
AcDbLine
 10
-91.06533273370395
 20
-288.2431062219986
 30
0.0
 11
-100.45442003023
 21
-288.2431062219987
 31
0.0
  0
LINE
  5
48C
330
A
100
AcDbEntity
  8
0
  6
Continuous
 62
     7
100
AcDbLine
 10
-100.4544200302294
 20
-291.2431062219988
 30
0.0
 11
-91.06533273370407
 21
-291.2431062219986
 31
0.0
  0
LWPOLYLINE
  5
48D
330
A
100
AcDbEntity
  8
0
  6
Continuous
 62
     7
100
AcDbPolyline
 90
       13
 70
   128
 43
0.0
 10
-93.18017753904703
 20
-289.1532678070326
 10
-93.24607714929692
 20
-289.1454122789235
 10
-93.78991971242989
 20
-289.2842562830995
 10
-93.97050645223195
 20
-289.3805719999839
 10
-94.15409964744
 20
-289.5336279454131
 10
-94.21169447637202
 20
-289.6183433452852
 10
-94.23968586907513
 20
-289.7016379773493
 10
-94.24315619852821
 20
-289.7431062219988
 10
-94.22885741598916
 20
-289.8272567842644
 10
-94.17864628475978
 20
-289.9215620398787
 10
-94.04850056731193
 20
-290.0511278141784
 10
-93.71011655546936
 20
-290.2352113224885
 10
-93.17321668721412
 20
-290.3409567691083
  0
LWPOLYLINE
  5
49C
330
A
100
AcDbEntity
  8
0
  6
Continuous
 62
     7
100
AcDbPolyline
 90
       13
 70
   128
 43
0.0
 10
366.7753607705053
 20
-289.1543428013662
 10
366.8599639067621
 20
-289.1453719534104
 10
367.6585498044473
 20
-289.3239181957376
 10
367.8432931856
 20
-289.4138436616458
 10
368.0278823190346
 20
-289.5513940393351
 10
368.0853534083746
 20
-289.6253922280177
 10
368.1150786980349
 20
-289.6990668098932
 10
368.1199062773846
 20
-289.7431062219954
 10
368.1061289948519
 20
-289.8174844323119
 10
368.0584459051679
 20
-289.8999582909832
 10
367.932321013879
 20
-290.0156430644726
 10
367.4855284521279
 20
-290.2256042863137
 10
366.7681177590957
 20
-290.328439674674
  0
LINE
  5
4AB
330
A
100
AcDbEntity
  8
0
  6
Continuous
 62
     7
100
AcDbLine
 10
-100.4544200302294
 20
-291.2431062219988
 30
0.0
 11
-100.6046908704454
 21
-291.2431062219988
 31
0.0
  0
LINE
  5
4AC
330
A
100
AcDbEntity
  8
0
  6
Continuous
 62
     7
100
AcDbLine
 10
-100.604690870446
 20
-288.2431062219987
 30
0.0
 11
-100.45442003023
 21
-288.2431062219987
 31
0.0
  0
LINE
  5
4AD
330
A
100
AcDbEntity
  8
0
  6
Continuous
 62
     7
100
AcDbLine
 10
494.9631250282743
 20
-286.6238628043232
 30
0.0
 11
494.9631250282741
 21
-263.4931062219945
 31
0.0
  0
LINE
  5
4AE
330
A
100
AcDbEntity
  8
0
  6
Continuous
 62
     7
100
AcDbLine
 10
494.9631250282745
 20
-315.9931062219944
 30
0.0
 11
494.9631250282743
 21
-292.8623496396659
 31
0.0
  0
LINE
  5
4AF
330
A
100
AcDbEntity
  8
0
  6
Continuous
 62
     7
100
AcDbLine
 10
454.163125028274
 20
-265.7931062219947
 30
0.0
 11
454.1631250282745
 21
-313.6931062219947
 31
0.0
  0
LWPOLYLINE
  5
4B0
330
A
100
AcDbEntity
  8
0
  6
Continuous
 62
     7
100
AcDbPolyline
 90
       12
 70
   128
 43
0.0
 10
471.6631250282739
 20
-265.7931062219946
 10
471.2633151553625
 20
-265.9152821534649
 10
470.1188495102847
 20
-266.230914616242
 10
468.3006039766932
 20
-266.6244723512701
 10
465.9540629893424
 20
-266.9273231151101
 10
463.460869585983
 20
-266.9868837167934
 10
461.1430074879169
 20
-266.7980934750474
 10
459.1196050525601
 20
-266.445260962284
 10
457.5655295265865
 20
-266.0601848142821
 10
456.7507121890681
 20
-265.8203897353825
 10
456.6631250282741
 20
-265.7931062219947
 10
456.6631250282741
 20
-265.7931062219947
  0
LINE
  5
4BE
330
A
100
AcDbEntity
  8
0
  6
Continuous
 62
     7
100
AcDbLine
 10
474.1631250282745
 20
-313.6931062219947
 30
0.0
 11
474.1631250282741
 21
-265.7931062219946
 31
0.0
  0
LWPOLYLINE
  5
4BF
330
A
100
AcDbEntity
  8
0
  6
Continuous
 62
     7
100
AcDbPolyline
 90
       12
 70
   128
 43
0.0
 10
456.6631250282745
 20
-313.6931062219947
 10
457.0629349011861
 20
-313.5709302905244
 10
458.2074005462636
 20
-313.2552978277473
 10
460.0256460798552
 20
-312.8617400927193
 10
462.3721870672062
 20
-312.5588893288792
 10
464.8653804705656
 20
-312.499328727196
 10
467.1832425686316
 20
-312.688118968942
 10
469.2066450039884
 20
-313.0409514817054
 10
470.7607205299621
 20
-313.4260276297072
 10
471.5755378674804
 20
-313.6658227086067
 10
471.6631250282744
 20
-313.6931062219947
 10
471.6631250282744
 20
-313.6931062219947
  0
LINE
  5
4CD
330
A
100
AcDbEntity
  8
0
  6
Continuous
 62
     7
100
AcDbLine
 10
412.1631250282741
 20
-278.493106221995
 30
0.0
 11
412.1631250282743
 21
-300.993106221995
 31
0.0
  0
LINE
  5
4CE
330
A
100
AcDbEntity
  8
0
  6
Continuous
 62
     7
100
AcDbLine
 10
-91.33687497172564
 20
-284.7431062219986
 30
0.0
 11
-55.33687497172557
 21
-284.7431062219983
 31
0.0
  0
LINE
  5
4CF
330
A
100
AcDbEntity
  8
0
  6
Continuous
 62
     7
100
AcDbLine
 10
-55.33687497172563
 20
-279.7431062219983
 30
0.0
 11
-91.33687497172566
 21
-279.7431062219986
 31
0.0
  0
LINE
  5
4D0
330
A
100
AcDbEntity
  8
0
  6
Continuous
 62
     7
100
AcDbLine
 10
377.6631250282743
 20
-284.7431062219953
 30
0.0
 11
362.6631250282742
 21
-284.7431062219954
 31
0.0
  0
LINE
  5
4D1
330
A
100
AcDbEntity
  8
0
  6
Continuous
 62
     7
100
AcDbLine
 10
362.6631250282744
 20
-294.7431062219954
 30
0.0
 11
377.6631250282745
 21
-294.7431062219953
 31
0.0
  0
LINE
  5
4D2
330
A
100
AcDbEntity
  8
0
  6
Continuous
 62
     7
100
AcDbLine
 10
-80.31867391567196
 20
-294.243106221998
 30
0.0
 11
-76.47195811557932
 21
-294.2431062219985
 31
0.0
  0
LINE
  5
4D3
330
A
100
AcDbEntity
  8
0
  6
Continuous
 62
     7
100
AcDbLine
 10
-76.47195811557939
 20
-285.2431062219985
 30
0.0
 11
-80.31867405680719
 21
-285.2431062219985
 31
0.0
  0
LINE
  5
4D4
330
A
100
AcDbEntity
  8
0
  6
Continuous
 62
     7
100
AcDbLine
 10
-76.47195811557932
 20
-294.2431062219985
 30
0.0
 11
-63.60546212575787
 21
-294.2431062219983
 31
0.0
  0
LINE
  5
4D5
330
A
100
AcDbEntity
  8
0
  6
Continuous
 62
     7
100
AcDbLine
 10
-63.60546212575787
 20
-285.2431062219984
 30
0.0
 11
-76.47195811557939
 21
-285.2431062219985
 31
0.0
  0
LINE
  5
4D6
330
A
100
AcDbEntity
  8
0
  6
Continuous
 62
     7
100
AcDbLine
 10
458.163125028274
 20
-256.7431062219947
 30
0.0
 11
458.163125028274
 21
-260.7431062219947
 31
0.0
  0
LINE
  5
4D7
330
A
100
AcDbEntity
  8
0
  6
Continuous
 62
     7
100
AcDbLine
 10
471.6631250282739
 20
-254.7431062219946
 30
0.0
 11
456.6631250282741
 21
-254.7431062219947
 31
0.0
  0
LINE
  5
4D8
330
A
100
AcDbEntity
  8
0
  6
Continuous
 62
     7
100
AcDbLine
 10
458.1631250282745
 20
-318.7431062219947
 30
0.0
 11
458.1631250282745
 21
-322.7431062219947
 31
0.0
  0
LINE
  5
4D9
330
A
100
AcDbEntity
  8
0
  6
Continuous
 62
     7
100
AcDbLine
 10
456.6631250282745
 20
-324.7431062219947
 30
0.0
 11
471.6631250282744
 21
-324.7431062219946
 31
0.0
  0
LINE
  5
4DA
330
A
100
AcDbEntity
  8
0
  6
Continuous
 62
     7
100
AcDbLine
 10
361.6631250282742
 20
-282.7431062219953
 30
0.0
 11
361.6631250282744
 21
-289.1431062219955
 31
0.0
  0
LINE
  5
4DB
330
A
100
AcDbEntity
  8
0
  6
Continuous
 62
     7
100
AcDbLine
 10
361.6631250282744
 20
-290.3431062219953
 30
0.0
 11
361.6631250282744
 21
-296.7431062219954
 31
0.0
  0
LINE
  5
4DC
330
A
100
AcDbEntity
  8
0
  6
Continuous
 62
     7
100
AcDbLine
 10
-28.3368749717256
 20
-282.743106221998
 30
0.0
 11
-28.33687497172555
 21
-289.1431062219982
 31
0.0
  0
LINE
  5
4DD
330
A
100
AcDbEntity
  8
0
  6
Continuous
 62
     7
100
AcDbLine
 10
-28.33687497172555
 20
-290.3431062219981
 30
0.0
 11
-28.33687497172549
 21
-296.7431062219981
 31
0.0
  0
LINE
  5
4DE
330
A
100
AcDbEntity
  8
0
  6
Continuous
 62
     7
100
AcDbLine
 10
-63.60546212575787
 20
-294.2431062219983
 30
0.0
 11
-60.47815503585474
 21
-294.2431062219983
 31
0.0
  0
LINE
  5
4DF
330
A
100
AcDbEntity
  8
0
  6
Continuous
 62
     7
100
AcDbLine
 10
-60.47815511751109
 20
-285.2431062219989
 30
0.0
 11
-63.60546212575787
 21
-285.2431062219984
 31
0.0
  0
LINE
  5
4E0
330
A
100
AcDbEntity
  8
0
  6
Continuous
 62
     7
100
AcDbLine
 10
403.1631250282742
 20
-283.4931062219951
 30
0.0
 11
403.1631250282744
 21
-295.9931062219951
 31
0.0
  0
LINE
  5
4E1
330
A
100
AcDbEntity
  8
0
  6
Continuous
 62
     7
100
AcDbLine
 10
-60.47815505962784
 20
-294.2431062219983
 30
0.0
 11
-28.33687497172555
 21
-294.2431062219981
 31
0.0
  0
LINE
  5
4E2
330
A
100
AcDbEntity
  8
0
  6
Continuous
 62
     7
100
AcDbLine
 10
-28.3368749717256
 20
-285.2431062219981
 30
0.0
 11
-60.47815505962797
 21
-285.2431062219983
 31
0.0
  0
LINE
  5
4E3
330
A
100
AcDbEntity
  8
0
  6
Continuous
 62
     7
100
AcDbLine
 10
-78.33687497172551
 20
-294.7431062219985
 30
0.0
 11
-68.33687497172554
 21
-294.7431062219984
 31
0.0
  0
LINE
  5
4E4
330
A
100
AcDbEntity
  8
0
  6
Continuous
 62
     7
100
AcDbLine
 10
458.163125028274
 20
-256.7431062219947
 30
0.0
 11
418.1631250282741
 21
-256.743106221995
 31
0.0
  0
LINE
  5
4E5
330
A
100
AcDbEntity
  8
0
  6
Continuous
 62
     7
100
AcDbLine
 10
418.1631250282741
 20
-260.743106221995
 30
0.0
 11
458.163125028274
 21
-260.7431062219947
 31
0.0
  0
LINE
  5
4E6
330
A
100
AcDbEntity
  8
0
  6
Continuous
 62
     7
100
AcDbLine
 10
458.1631250282745
 20
-318.7431062219947
 30
0.0
 11
418.1631250282745
 21
-318.743106221995
 31
0.0
  0
LINE
  5
4E7
330
A
100
AcDbEntity
  8
0
  6
Continuous
 62
     7
100
AcDbLine
 10
418.1631250282745
 20
-322.743106221995
 30
0.0
 11
458.1631250282745
 21
-322.7431062219947
 31
0.0
  0
ARC
  5
4E8
330
A
100
AcDbEntity
  8
0
  6
Continuous
 62
     7
100
AcDbCircle
 10
418.1631250282743
 20
-289.743106221995
 30
0.0
 40
33.00000000000006
100
AcDbArc
 50
180.0000000000004
 51
270.0000000000012
  0
ARC
  5
4E9
330
A
100
AcDbEntity
  8
0
  6
Continuous
 62
     7
100
AcDbCircle
 10
418.1631250282743
 20
-289.743106221995
 30
0.0
 40
33.00000000000006
100
AcDbArc
 50
90.0000000000004
 51
180.0000000000004
  0
ARC
  5
4EA
330
A
100
AcDbEntity
  8
0
  6
Continuous
 62
     7
100
AcDbCircle
 10
418.1631250282743
 20
-289.743106221995
 30
0.0
 40
29.0
100
AcDbArc
 50
90.00000000000046
 51
270.0000000000013
  0
LINE
  5
4EB
330
A
100
AcDbEntity
  8
0
  6
Continuous
 62
     7
100
AcDbLine
 10
-116.3368749717255
 20
-294.2431062219986
 30
0.0
 11
-112.9242214665334
 21
-294.2431062219986
 31
0.0
  0
LINE
  5
4EC
330
A
100
AcDbEntity
  8
0
  6
Continuous
 62
     7
100
AcDbLine
 10
-112.9242214665334
 20
-285.2431062219986
 30
0.0
 11
-116.3368749717256
 21
-285.2431062219986
 31
0.0
  0
LINE
  5
4ED
330
A
100
AcDbEntity
  8
0
  6
Continuous
 62
     7
100
AcDbLine
 10
-114.3368749717255
 20
-294.7431062219986
 30
0.0
 11
-107.2727966486369
 21
-294.7431062219985
 31
0.0
  0
LINE
  5
4EE
330
A
100
AcDbEntity
  8
0
  6
Continuous
 62
     7
100
AcDbLine
 10
-107.272796648637
 20
-284.7431062219986
 30
0.0
 11
-114.3368749717256
 21
-284.7431062219986
 31
0.0
  0
LWPOLYLINE
  5
4EF
330
A
100
AcDbEntity
  8
0
  6
Continuous
 62
     7
100
AcDbPolyline
 90
        6
 70
   128
 43
0.0
 10
-138.4707657270912
 20
-289.743106221998
 10
-138.451333548356
 20
-289.8994438927754
 10
-138.3990346034342
 20
-290.0362292561311
 10
-138.28561530213
 20
-290.1878130436328
 10
-138.0896033800966
 20
-290.3106588415965
 10
-137.9048478982946
 20
-290.3362572461666
  0
LWPOLYLINE
  5
4F7
330
A
100
AcDbEntity
  8
0
  6
Continuous
 62
     7
100
AcDbPolyline
 90
        7
 70
   128
 43
0.0
 10
-137.9065856715351
 20
-289.1488543768285
 10
-137.935427291581
 20
-289.1439271771249
 10
-138.1644796938998
 20
-289.209360856951
 10
-138.3293017784032
 20
-289.3454122084487
 10
-138.4190710549638
 20
-289.49189329536
 10
-138.4618105153472
 20
-289.6364694977683
 10
-138.4707657270912
 20
-289.743106221998
  0
LINE
  5
500
330
A
100
AcDbEntity
  8
0
  6
Continuous
 62
     7
100
AcDbLine
 10
-91.33687497172552
 20
-284.844126736432
 30
0.0
 11
-100.9368749717255
 21
-282.8845349422056
 31
0.0
  0
ARC
  5
501
330
A
100
AcDbEntity
  8
0
  6
Continuous
 62
     7
100
AcDbCircle
 10
-92.33687497172546
 20
-289.7431062219984
 30
0.0
 40
4.999999999999998
100
AcDbArc
 50
281.5369590328163
 51
295.8419327631649
  0
ARC
  5
502
330
A
100
AcDbEntity
  8
0
  6
Continuous
 62
     7
100
AcDbCircle
 10
-92.33687497172546
 20
-289.7431062219984
 30
0.0
 40
5.000000000000059
100
AcDbArc
 50
64.15806723683026
 51
78.46304096718532
  0
LINE
  5
503
330
A
100
AcDbEntity
  8
0
  6
Continuous
 62
     7
100
AcDbLine
 10
-100.9368749717254
 20
-296.6016775017914
 30
0.0
 11
-91.33687497172546
 21
-294.6420857075647
 31
0.0
  0
ARC
  5
504
330
A
100
AcDbEntity
  8
0
  6
Continuous
 62
     7
100
AcDbCircle
 10
-102.3368749717255
 20
-289.7431062219985
 30
0.0
 40
7.000000000000028
100
AcDbArc
 50
78.46304096718499
 51
134.8401822999913
  0
ARC
  5
505
330
A
100
AcDbEntity
  8
0
  6
Continuous
 62
     7
100
AcDbCircle
 10
-102.3368749717255
 20
-289.7431062219985
 30
0.0
 40
7.000000000000011
100
AcDbArc
 50
225.5846914028084
 51
281.5369590328168
  0
LWPOLYLINE
  5
506
330
A
100
AcDbEntity
  8
0
  6
Continuous
 62
     7
100
AcDbPolyline
 90
       12
 70
   128
 43
0.0
 10
-136.0413013275789
 20
-284.2031062219973
 10
-135.453991270924
 20
-284.2909628254856
 10
-135.141426627456
 20
-284.5217436990492
 10
-135.1194409034563
 20
-284.8450719556995
 10
-135.474886967785
 20
-285.1591633248057
 10
-136.0129192692016
 20
-285.2563778712823
 10
-136.7357840338923
 20
-285.1739467627411
 10
-137.5561023929485
 20
-284.9535674557882
 10
-138.5656588185635
 20
-284.6299944214566
 10
-139.6870437157799
 20
-284.3213069239769
 10
-140.494939022365
 20
-284.2065641015601
 10
-140.6374954052914
 20
-284.2031062219973
  0
LWPOLYLINE
  5
514
330
A
100
AcDbEntity
  8
0
  6
Continuous
 62
     7
100
AcDbPolyline
 90
        3
 70
   128
 43
0.0
 10
-136.0413013275788
 20
-295.2831062219973
 10
-137.0551916960617
 20
-295.0943352996388
 10
-137.72825123792
 20
-294.7431062219973
  0
LWPOLYLINE
  5
519
330
A
100
AcDbEntity
  8
0
  6
Continuous
 62
     7
100
AcDbPolyline
 90
        3
 70
   128
 43
0.0
 10
-137.7282512379201
 20
-284.7431062219973
 10
-137.0551916960619
 20
-284.3918771443559
 10
-136.0413013275789
 20
-284.2031062219973
  0
LWPOLYLINE
  5
51E
330
A
100
AcDbEntity
  8
0
  6
Continuous
 62
     7
100
AcDbPolyline
 90
       12
 70
   128
 43
0.0
 10
-140.6374954052914
 20
-295.2831062219973
 10
-139.8350339815411
 20
-295.195249618509
 10
-138.9186019201972
 20
-294.9644687449455
 10
-137.8985197702133
 20
-294.6411404882951
 10
-136.8041216985333
 20
-294.3270491191889
 10
-136.0700383222519
 20
-294.2298345727123
 10
-135.512576640103
 20
-294.3122656812534
 10
-135.1852031572067
 20
-294.5326449882064
 10
-135.0972839008737
 20
-294.8562180225381
 10
-135.3819751616182
 20
-295.1649055200178
 10
-135.9070857877081
 20
-295.2796483424346
 10
-136.0413013275788
 20
-295.2831062219973
  0
LWPOLYLINE
  5
52C
330
A
100
AcDbEntity
  8
0
  6
Continuous
 62
     7
100
AcDbPolyline
 90
        6
 70
   128
 43
0.0
 10
-134.4450691559035
 20
-289.1431062219975
 10
-134.4587802038096
 20
-288.9860029583662
 10
-134.4794034053359
 20
-288.7983957898669
 10
-134.5045601455836
 20
-288.6118981775634
 10
-134.5342208781267
 20
-288.426729161676
 10
-134.5683507666296
 20
-288.2431062219973
  0
LWPOLYLINE
  5
534
330
A
100
AcDbEntity
  8
0
  6
Continuous
 62
     7
100
AcDbPolyline
 90
        6
 70
   128
 43
0.0
 10
-134.5683507666295
 20
-291.2431062219972
 10
-134.5342208781266
 20
-291.0594832823186
 10
-134.5045601455836
 20
-290.8743142664312
 10
-134.4794034053359
 20
-290.6878166541277
 10
-134.4587802038096
 20
-290.5002094856284
 10
-134.4450691559035
 20
-290.3431062219976
  0
LWPOLYLINE
  5
53C
330
A
100
AcDbEntity
  8
0
  6
Continuous
 62
     7
100
AcDbPolyline
 90
        3
 70
   128
 43
0.0
 10
-108.0753705943049
 20
-284.7431062219986
 10
-109.2364924060615
 20
-284.271800011064
 10
-109.8708917446575
 20
-284.2763121527067
  0
LWPOLYLINE
  5
541
330
A
100
AcDbEntity
  8
0
  6
Continuous
 62
     7
100
AcDbPolyline
 90
        4
 70
   128
 43
0.0
 10
-109.8774998771311
 20
-295.2371302592657
 10
-109.6375970075358
 20
-295.2720874456932
 10
-108.3281188683702
 20
-294.9201395063212
 10
-108.043051088175
 20
-294.7431062219986
  0
LINE
  5
547
330
A
100
AcDbEntity
  8
0
  6
Continuous
 62
     7
100
AcDbLine
 10
-134.4220267986618
 20
-288.2431062219973
 30
0.0
 11
-125.0329395021358
 21
-288.2431062219972
 31
0.0
  0
LINE
  5
548
330
A
100
AcDbEntity
  8
0
  6
Continuous
 62
     7
100
AcDbLine
 10
-134.4220267986617
 20
-291.2431062219972
 30
0.0
 11
-125.0329395021358
 21
-291.2431062219972
 31
0.0
  0
LINE
  5
549
330
A
100
AcDbEntity
  8
0
  6
Continuous
 62
     7
100
AcDbLine
 10
-134.4220267986617
 20
-291.2431062219972
 30
0.0
 11
-134.5683507666295
 21
-291.2431062219972
 31
0.0
  0
LINE
  5
54A
330
A
100
AcDbEntity
  8
0
  6
Continuous
 62
     7
100
AcDbLine
 10
-134.5683507666296
 20
-288.2431062219973
 30
0.0
 11
-134.4220267986618
 21
-288.2431062219973
 31
0.0
  0
LINE
  5
54B
330
A
100
AcDbEntity
  8
0
  6
Continuous
 62
     7
100
AcDbLine
 10
-138.2218603653897
 20
-294.7431062219973
 30
0.0
 11
-135.3393983664351
 21
-294.7431062219973
 31
0.0
  0
LINE
  5
54C
330
A
100
AcDbEntity
  8
0
  6
Continuous
 62
     7
100
AcDbLine
 10
-135.3393983664352
 20
-284.7431062219973
 30
0.0
 11
-138.2080983871845
 21
-284.7431062219973
 31
0.0
  0
LINE
  5
54D
330
A
100
AcDbEntity
  8
0
  6
Continuous
 62
     7
100
AcDbLine
 10
-120.3368749717256
 20
-280.743106221997
 30
0.0
 11
-91.33687497172566
 21
-280.7431062219968
 31
0.0
  0
LINE
  5
54E
330
A
100
AcDbEntity
  8
0
  6
Continuous
 62
     7
100
AcDbLine
 10
-84.33687497172561
 20
-275.7431062219968
 30
0.0
 11
-120.3368749717256
 21
-275.743106221997
 31
0.0
  0
LINE
  5
54F
330
A
100
AcDbEntity
  8
0
  6
Continuous
 62
     7
100
AcDbLine
 10
-113.4168749717255
 20
-295.743106221997
 30
0.0
 11
-105.9424262471895
 21
-295.743106221997
 31
0.0
  0
LINE
  5
550
330
A
100
AcDbEntity
  8
0
  6
Continuous
 62
     7
100
AcDbLine
 10
-96.73075188511631
 20
-295.743106221997
 30
0.0
 11
-91.25687497172549
 21
-295.7431062219969
 31
0.0
  0
LINE
  5
551
330
A
100
AcDbEntity
  8
0
  6
Continuous
 62
     7
100
AcDbLine
 10
-91.33687497172564
 20
-283.7431062219969
 30
0.0
 11
-96.73075188513095
 21
-283.7431062219969
 31
0.0
  0
LINE
  5
552
330
A
100
AcDbEntity
  8
0
  6
Continuous
 62
     7
100
AcDbLine
 10
-105.9424262471895
 20
-283.743106221997
 30
0.0
 11
-113.4168749717255
 21
-283.743106221997
 31
0.0
  0
ARC
  5
553
330
A
100
AcDbEntity
  8
0
  6
Continuous
 62
     7
100
AcDbCircle
 10
-96.79687497172555
 20
-289.7431062219967
 30
0.0
 40
7.000000000000001
100
AcDbArc
 50
248.8585481843457
 51
270.0000000000013
  0
ARC
  5
554
330
A
100
AcDbEntity
  8
0
  6
Continuous
 62
     7
100
AcDbCircle
 10
-96.79687497172555
 20
-289.7431062219967
 30
0.0
 40
7.000000000000044
100
AcDbArc
 50
58.99728086612631
 51
86.2321336109035
  0
ARC
  5
555
330
A
100
AcDbEntity
  8
0
  6
Continuous
 62
     7
100
AcDbCircle
 10
-96.79687497172555
 20
-289.7431062219967
 30
0.0
 40
7.000000000000016
100
AcDbArc
 50
270.0000000000013
 51
301.002719133875
  0
LINE
  5
556
330
A
100
AcDbEntity
  8
0
  6
Continuous
 62
     7
100
AcDbLine
 10
-107.2727966486369
 20
-294.7431062219987
 30
0.0
 11
-101.2727966486369
 21
-294.7431062219987
 31
0.0
  0
LINE
  5
557
330
A
100
AcDbEntity
  8
0
  6
Continuous
 62
     7
100
AcDbLine
 10
-101.272796648637
 20
-284.7431062219988
 30
0.0
 11
-107.272796648637
 21
-284.7431062219988
 31
0.0
  0
LINE
  5
558
330
A
100
AcDbEntity
  8
0
  6
PHANTOM
 62
     7
100
AcDbLine
 10
-165.7968749717255
 20
-329.7431062219963
 30
0.0
 11
-165.7968749717255
 21
-249.7431062219963
 31
0.0
  0
LWPOLYLINE
  5
559
330
A
100
AcDbEntity
  8
0
  6
PHANTOM
 62
     7
100
AcDbPolyline
 90
        5
 70
   128
 43
0.0
 10
-104.2968749717255
 20
-297.2431062219964
 10
-104.5219377530276
 20
-297.1134888665088
 10
-104.6157355371428
 20
-297.0576413026044
 10
-105.7304192446731
 20
-296.3004307550546
 10
-106.3005130913886
 20
-295.743106221997
  0
LINE
  5
560
330
A
100
AcDbEntity
  8
0
  6
PHANTOM
 62
     7
100
AcDbLine
 10
-156.2968749717255
 20
-282.2431062219964
 30
0.0
 11
-156.2968749717255
 21
-289.7431062219963
 31
0.0
  0
LINE
  5
561
330
A
100
AcDbEntity
  8
0
  6
PHANTOM
 62
     7
100
AcDbLine
 10
-156.2968749717255
 20
-289.7431062219963
 30
0.0
 11
-158.7968749717255
 21
-289.7431062219964
 31
0.0
  0
LINE
  5
562
330
A
100
AcDbEntity
  8
0
  6
PHANTOM
 62
     7
100
AcDbLine
 10
-156.2968749717255
 20
-289.7431062219963
 30
0.0
 11
-156.2968749717255
 21
-297.2431062219964
 31
0.0
  0
LINE
  5
563
330
A
100
AcDbEntity
  8
0
  6
PHANTOM
 62
     7
100
AcDbLine
 10
-156.2968749717255
 20
-289.7431062219963
 30
0.0
 11
-149.3832940978113
 21
-289.7431062219963
 31
0.0
  0
LWPOLYLINE
  5
564
330
A
100
AcDbEntity
  8
0
  6
PHANTOM
 62
     7
100
AcDbPolyline
 90
       31
 70
   128
 43
0.0
 10
528.192199385988
 20
-255.6327726407163
 10
530.6655406334016
 20
-255.9385096265749
 10
533.7533888443597
 20
-256.635867809704
 10
536.7611960300314
 20
-257.6729510601948
 10
539.6580980184782
 20
-259.0391175004996
 10
542.4143686751639
 20
-260.7203484142221
 10
545.0017249333209
 20
-262.6993920971186
 10
547.3936170164878
 20
-264.9559408829288
 10
549.5655008751445
 20
-267.4668395275116
 10
551.4950900418726
 20
-270.206322812985
 10
553.16258432067
 20
-273.1462799337269
 10
554.5508729637561
 20
-276.2565429512807
 10
555.6457102509981
 20
-279.5051963582281
 10
556.4358616702775
 20
-282.8589045744834
 10
556.9132191987864
 20
-286.2832540154553
 10
557.0728845023147
 20
-289.7431062219944
 10
556.9132191987864
 20
-293.2029584285336
 10
556.4358616702774
 20
-296.6273078695055
 10
555.6457102509981
 20
-299.9810160857608
 10
554.5508729637561
 20
-303.2296694927082
 10
553.16258432067
 20
-306.339932510262
 10
551.4950900418726
 20
-309.2798896310039
 10
549.5655008751445
 20
-312.0193729164773
 10
547.3936170164879
 20
-314.5302715610601
 10
545.001724933321
 20
-316.7868203468702
 10
542.414368675164
 20
-318.7658640297668
 10
539.6580980184783
 20
-320.4470949434893
 10
536.7611960300314
 20
-321.813261383794
 10
533.7533888443598
 20
-322.8503446342849
 10
530.6655406334017
 20
-323.5477028174138
 10
528.3592762869545
 20
-323.8396979718476
  0
LWPOLYLINE
  5
585
330
A
100
AcDbEntity
  8
0
  6
PHANTOM
 62
     7
100
AcDbPolyline
 90
       21
 70
   128
 43
0.0
 10
509.7646034534952
 20
-317.2239305584012
 10
508.4906944917142
 20
-316.2612288770052
 10
506.0644151926337
 20
-314.1020576030736
 10
503.8568008826834
 20
-311.6760045603725
 10
501.8920386462165
 20
-309.0096500937221
 10
500.1916548294484
 20
-306.1322073406296
 10
498.7742791933039
 20
-303.0752021660414
 10
497.6554408018572
 20
-299.8721277583698
 10
496.8473978826573
 20
-296.5580776711117
 10
496.3590035230209
 20
-293.1693613305327
 10
496.1956086737551
 20
-289.7431062219943
 10
496.3590035230209
 20
-286.316851113456
 10
496.8473978826574
 20
-282.928134772877
 10
497.6554408018571
 20
-279.6140846856188
 10
498.7742791933037
 20
-276.4110102779472
 10
500.1916548294484
 20
-273.354005103359
 10
501.8920386462165
 20
-270.4765623502666
 10
503.8568008826835
 20
-267.8102078836162
 10
506.0644151926336
 20
-265.3841548409151
 10
508.4906944917141
 20
-263.2249835669835
 10
508.7666807245075
 20
-263.0072554872345
  0
LWPOLYLINE
  5
59C
330
A
100
AcDbEntity
  8
0
  6
PHANTOM
 62
     7
100
AcDbPolyline
 90
       25
 70
   128
 43
0.0
 10
516.7627415932072
 20
-320.5198740256832
 10
514.4136247479183
 20
-319.4999514234995
 10
511.64928973084
 20
-317.9520844018917
 10
509.04732627061
 20
-316.0951539122369
 10
506.6362420233948
 20
-313.9495048735672
 10
504.4424533327585
 20
-311.5386454657563
 10
502.4899958066757
 20
-308.888989568981
 10
500.8002609783799
 20
-306.0295673677224
 10
499.3917619362497
 20
-302.9917072899901
 10
498.2799304905384
 20
-299.8086927665088
 10
497.4769480992304
 20
-296.5153975704865
 10
496.9916124054401
 20
-293.1479037332569
 10
496.8292408485917
 20
-289.7431062219943
 10
496.9916124054401
 20
-286.3383087107317
 10
497.4769480992305
 20
-282.9708148735022
 10
498.2799304905383
 20
-279.6775196774798
 10
499.3917619362497
 20
-276.4945051539986
 10
500.8002609783797
 20
-273.4566450762663
 10
502.4899958066757
 20
-270.5972228750077
 10
504.4424533327585
 20
-267.9475669782324
 10
506.6362420233947
 20
-265.5367075704215
 10
509.04732627061
 20
-263.3910585317518
 10
511.6492897308399
 20
-261.534128042097
 10
514.4136247479183
 20
-259.9862610204893
 10
515.7350473964551
 20
-259.3812948581485
  0
LWPOLYLINE
  5
5B7
330
A
100
AcDbEntity
  8
0
  6
PHANTOM
 62
     7
100
AcDbPolyline
 90
       27
 70
   128
 43
0.0
 10
555.5526368892408
 20
-289.7431062219943
 10
555.3393250112738
 20
-285.9001417062759
 10
554.675667756239
 20
-281.9984542904188
 10
553.5343163762646
 20
-278.1147769956482
 10
552.3312029446337
 20
-275.2115410842752
 10
550.8668749949568
 20
-272.4564269980418
 10
547.1330657837407
 20
-267.4051854743535
 10
544.9317011040169
 20
-265.2229559881371
 10
542.5366316273407
 20
-263.3019237963928
 10
540.0300108557571
 20
-261.6929455004017
 10
537.3877522724545
 20
-260.3705447732634
 10
533.8541643717069
 20
-259.116388597088
 10
530.3035875909098
 20
-258.3869343832972
 10
526.8064230314778
 20
-258.1525157454654
 10
523.3096868334069
 20
-258.3868911328773
 10
519.7590897162476
 20
-259.1162591059829
 10
516.2250937905014
 20
-260.3705447732636
 10
513.5832615504597
 20
-261.6927037163613
 10
511.0762144356149
 20
-263.301923796393
 10
506.4797802792151
 20
-267.4051854743536
 10
504.4940359623416
 20
-269.8243704994639
 10
502.745971067999
 20
-272.4564269980421
 10
501.2818631321102
 20
-275.2110725563621
 10
500.0785296866915
 20
-278.1147769956485
 10
498.9372961385574
 20
-281.9980058921824
 10
498.2735210553063
 20
-285.8999046799418
 10
498.0602091737154
 20
-289.7431062219945
  0
LWPOLYLINE
  5
5D4
330
A
100
AcDbEntity
  8
0
  6
PHANTOM
 62
     7
100
AcDbPolyline
 90
       27
 70
   128
 43
0.0
 10
498.0602091737154
 20
-289.7431062219945
 10
498.2735210516854
 20
-293.5860707373296
 10
498.9371783068721
 20
-297.4877581549167
 10
500.0785296866917
 20
-301.3714354483405
 10
501.2816431190549
 20
-304.2746713606726
 10
502.7459710679993
 20
-307.029785445947
 10
506.4797802792154
 20
-312.0810269696353
 10
508.6811449583716
 20
-314.2632564554203
 10
511.0762144356153
 20
-316.1842886475959
 10
513.5828352070965
 20
-317.7932669435366
 10
516.2250937905016
 20
-319.1156676707253
 10
519.7586816912014
 20
-320.369823846885
 10
523.3092584719762
 20
-321.0992780606832
 10
526.8064230314783
 20
-321.3336966985234
 10
530.3031592292549
 20
-321.09932131112
 10
533.8537563458597
 20
-320.369953338233
 10
537.3877522724549
 20
-319.1156676707252
 10
540.0295845134496
 20
-317.7935087273794
 10
542.536631627341
 20
-316.1842886475958
 10
547.133065783741
 20
-312.0810269696351
 10
549.118810101154
 20
-309.6618419436132
 10
550.866874994957
 20
-307.0297854459468
 10
552.330982930202
 20
-304.2751398887135
 10
553.5343163762648
 20
-301.3714354483403
 10
554.6755499242285
 20
-297.4882065528763
 10
555.3393250076529
 20
-293.5863077639726
 10
555.5526368892408
 20
-289.7431062219943
  0
LWPOLYLINE
  5
5F1
330
A
100
AcDbEntity
  8
0
  6
PHANTOM
 62
     7
100
AcDbPolyline
 90
        9
 70
   128
 43
0.0
 10
-108.7028472826925
 20
-285.2431062219988
 10
-107.9907807846886
 20
-286.1066073094267
 10
-107.4490583202649
 20
-287.189559324165
 10
-107.1103710849973
 20
-288.4266096208312
 10
-106.9951577562056
 20
-289.7431062219988
 10
-107.1103710849973
 20
-291.0596028231662
 10
-107.4490583202648
 20
-292.2966531198325
 10
-107.9907807846885
 20
-293.3796051345707
 10
-108.7028472826923
 20
-294.2431062219987
  0
LWPOLYLINE
  5
5FC
330
A
100
AcDbEntity
  8
0
  6
PHANTOM
 62
     7
100
AcDbPolyline
 90
        5
 70
   128
 43
0.0
 10
-109.8235848809517
 20
-289.7431062219988
 10
-109.8741693359439
 20
-290.4407291190281
 10
-110.025773330932
 20
-291.1078830054279
 10
-110.2700409769718
 20
-291.7178787382712
 10
-110.5983308633059
 20
-292.2431062219989
  0
LWPOLYLINE
  5
603
330
A
100
AcDbEntity
  8
0
  6
PHANTOM
 62
     7
100
AcDbPolyline
 90
        5
 70
   128
 43
0.0
 10
-110.5983308633059
 20
-287.2431062219988
 10
-110.269898295196
 20
-287.7685197515262
 10
-110.025773330932
 20
-288.3783294385697
 10
-109.8741693071497
 20
-289.0457577867855
 10
-109.8235848809517
 20
-289.7431062219988
  0
LINE
  5
60A
330
A
100
AcDbEntity
  8
0
  6
PHANTOM
 62
     7
100
AcDbLine
 10
-110.5983308633059
 20
-292.2431062219989
 30
0.0
 11
-113.857165010666
 21
-292.2431062219989
 31
0.0
  0
LWPOLYLINE
  5
60B
330
A
100
AcDbEntity
  8
0
  6
PHANTOM
 62
     7
100
AcDbPolyline
 90
        9
 70
   128
 43
0.0
 10
-113.857165010666
 20
-287.2431062219988
 10
-114.185454896975
 20
-287.768333705678
 10
-114.4297225430399
 20
-288.3783294385697
 10
-114.5813265380283
 20
-289.0454833249379
 10
-114.6319109930202
 20
-289.7431062219989
 10
-114.5814011690354
 20
-290.4402138247628
 10
-114.4297225430399
 20
-291.1078830054279
 10
-114.1855975787368
 20
-291.7176926925353
 10
-113.8571650106659
 20
-292.2431062219989
  0
LINE
  5
616
330
A
100
AcDbEntity
  8
0
  6
PHANTOM
 62
     7
100
AcDbLine
 10
-113.857165010666
 20
-287.2431062219988
 30
0.0
 11
-110.598330863306
 21
-287.2431062219988
 31
0.0
  0
LWPOLYLINE
  5
617
330
A
100
AcDbEntity
  8
0
  6
PHANTOM
 62
     7
100
AcDbPolyline
 90
        6
 70
   128
 43
0.0
 10
-77.44079591221925
 20
-289.1431062219986
 10
-77.58724271694153
 20
-288.3574686597191
 10
-78.26570684379638
 20
-287.1226709197745
 10
-78.71458959103839
 20
-286.5753197950699
 10
-79.21159670973508
 20
-286.0808524792076
 10
-80.31867592702793
 20
-285.2431062219985
  0
LWPOLYLINE
  5
61F
330
A
100
AcDbEntity
  8
0
  6
PHANTOM
 62
     7
100
AcDbPolyline
 90
        5
 70
   128
 43
0.0
 10
-80.31867592702788
 20
-294.2431062219985
 10
-79.21408307022884
 20
-293.407611055058
 10
-78.26964593477121
 20
-292.3689194138133
 10
-77.58885440875665
 20
-291.1330410357741
 10
-77.44114585487166
 20
-290.3431062219985
  0
LINE
  5
626
330
A
100
AcDbEntity
  8
0
  6
PHANTOM
 62
     7
100
AcDbLine
 10
-100.45442003023
 20
-288.2431062219987
 30
0.0
 11
-100.4544200302299
 21
-289.7431062219988
 31
0.0
  0
LINE
  5
627
330
A
100
AcDbEntity
  8
0
  6
PHANTOM
 62
     7
100
AcDbLine
 10
-100.4544200302299
 20
-289.7431062219988
 30
0.0
 11
-100.4544200302294
 21
-291.2431062219988
 31
0.0
  0
LINE
  5
628
330
A
100
AcDbEntity
  8
0
  6
PHANTOM
 62
     7
100
AcDbLine
 10
422.1631250282742
 20
-268.4931062219949
 30
0.0
 11
422.1631250282745
 21
-310.993106221995
 31
0.0
  0
LWPOLYLINE
  5
629
330
A
100
AcDbEntity
  8
0
  6
PHANTOM
 62
     7
100
AcDbPolyline
 90
        3
 70
   128
 43
0.0
 10
-76.47195811557939
 20
-285.2431062219984
 10
-75.49915441489926
 20
-287.3981135168406
 10
-75.24064772594416
 20
-289.1431062219986
  0
LWPOLYLINE
  5
62E
330
A
100
AcDbEntity
  8
0
  6
PHANTOM
 62
     7
100
AcDbPolyline
 90
        3
 70
   128
 43
0.0
 10
-75.24045552029004
 20
-290.3431062219985
 10
-75.49835134180857
 20
-292.0854127997818
 10
-76.4719581155793
 20
-294.2431062219985
  0
LWPOLYLINE
  5
633
330
A
100
AcDbEntity
  8
0
  6
PHANTOM
 62
     7
100
AcDbPolyline
 90
        3
 70
   128
 43
0.0
 10
-63.60546212575787
 20
-294.2431062219983
 10
-64.12398254278298
 20
-292.0870641364609
 10
-64.27296469852459
 20
-290.3431062219984
  0
LWPOLYLINE
  5
638
330
A
100
AcDbEntity
  8
0
  6
PHANTOM
 62
     7
100
AcDbPolyline
 90
        3
 70
   128
 43
0.0
 10
-64.27354636997579
 20
-289.1431062219985
 10
-64.12335436813617
 20
-287.3954421982912
 10
-63.60546212575787
 20
-285.2431062219984
  0
LWPOLYLINE
  5
63D
330
A
100
AcDbEntity
  8
0
  6
PHANTOM
 62
     7
100
AcDbPolyline
 90
        5
 70
   128
 43
0.0
 10
-60.47815505962797
 20
-285.2431062219983
 10
-61.06069545648097
 20
-286.0813125269703
 10
-61.6454113776902
 20
-287.1237914768628
 10
-62.10726968120927
 20
-288.359433743426
 10
-62.21174977411759
 20
-289.1431062219984
  0
LWPOLYLINE
  5
644
330
A
100
AcDbEntity
  8
0
  6
PHANTOM
 62
     7
100
AcDbPolyline
 90
        6
 70
   128
 43
0.0
 10
-62.21093446516001
 20
-290.3431062219984
 10
-62.10621326732704
 20
-291.1307789927989
 10
-61.64345111444119
 20
-292.3665062937598
 10
-61.35914104942172
 20
-292.9097693860748
 10
-61.06065713654876
 20
-293.4049599409726
 10
-60.47815505962784
 20
-294.2431062219983
  0
LWPOLYLINE
  5
64C
330
A
100
AcDbEntity
  8
0
  6
PHANTOM
 62
     7
100
AcDbPolyline
 90
       28
 70
   128
 43
0.0
 10
498.778963869903
 20
-263.4931062219944
 10
498.8573990488229
 20
-263.2402871335393
 10
501.5766446723527
 20
-256.6738955219619
 10
504.9369238869814
 20
-250.3440039782638
 10
508.9100398311928
 20
-244.3616411212495
 10
513.4468712843654
 20
-238.8314179765626
 10
518.4791601653353
 20
-233.8456767166053
 10
523.9228786735487
 20
-229.4794294142511
 10
529.682834827163
 20
-225.7866577302518
 10
535.6579968831071
 20
-222.7983485454989
 10
543.7122769335236
 20
-219.9397140409188
 10
551.8046417062672
 20
-218.277312809245
 10
559.7745358226484
 20
-217.7431062219937
 10
565.7607206621386
 20
-218.0436339207419
 10
571.6962476132867
 20
-218.9451196960003
 10
577.8791755216361
 20
-220.5458376179509
 10
583.8910747621901
 20
-222.7983485454986
 10
589.866236818134
 20
-225.7866577302514
 10
595.6261929717481
 20
-229.4794294142507
 10
601.0699114799615
 20
-233.8456767166049
 10
606.1022003609318
 20
-238.8314179765621
 10
610.6390318141042
 20
-244.3616411212489
 10
614.6121477583157
 20
-250.3440039782633
 10
617.9724269729447
 20
-256.6738955219613
 10
620.6916725964746
 20
-263.2402871335387
 10
623.2929192834568
 20
-272.0915210379634
 10
624.8056006666057
 20
-280.9843743444326
 10
625.2917473257602
 20
-289.7431062219936
  0
LWPOLYLINE
  5
66A
330
A
100
AcDbEntity
  8
0
  6
PHANTOM
 62
     7
100
AcDbPolyline
 90
       29
 70
   128
 43
0.0
 10
625.2917473257602
 20
-289.7431062219936
 10
625.0182787588258
 20
-296.3216113038303
 10
624.1979616173426
 20
-302.844445995668
 10
622.7413703013853
 20
-309.6391614517792
 10
620.6916725964748
 20
-316.2459253104485
 10
617.972426972945
 20
-322.8123169220259
 10
614.6121477583161
 20
-329.142208465724
 10
610.639031814105
 20
-335.1245713227383
 10
606.1022003609325
 20
-340.6547944674252
 10
601.0699114799627
 20
-345.6405357273825
 10
595.6261929717489
 20
-350.0067830297368
 10
589.8662368181349
 20
-353.6995547137361
 10
583.8910747621906
 20
-356.6878638984889
 10
575.8367947118195
 20
-359.5464984031689
 10
567.7444299387141
 20
-361.2088996347044
 10
559.7745358226496
 20
-361.7431062219941
 10
553.7883509834316
 20
-361.4425785232892
 10
547.8528240320112
 20
-360.5410927479876
 10
541.6698961229764
 20
-358.9403748259105
 10
535.6579968831077
 20
-356.6878638984892
 10
529.6828348271638
 20
-353.6995547137363
 10
523.9228786735496
 20
-350.0067830297371
 10
518.4791601653365
 20
-345.6405357273829
 10
513.446871284366
 20
-340.6547944674257
 10
508.9100398311935
 20
-335.1245713227388
 10
504.9369238869818
 20
-329.1422084657245
 10
501.5766446723531
 20
-322.8123169220265
 10
498.8573990488234
 20
-316.2459253104491
 10
498.7830992592712
 20
-315.9931062219944
  0
LWPOLYLINE
  5
689
330
A
100
AcDbEntity
  8
0
  6
PHANTOM
 62
     7
100
AcDbPolyline
 90
        5
 70
   128
 43
0.0
 10
529.8515567229806
 20
-284.7858819151247
 10
529.8030040607204
 20
-284.4064723925734
 10
529.6233097464868
 20
-284.0848245304747
 10
529.3398306106889
 20
-283.8699063000879
 10
529.2441826213075
 20
-283.8327601993752
  0
LWPOLYLINE
  5
690
330
A
100
AcDbEntity
  8
0
  6
PHANTOM
 62
     7
100
AcDbPolyline
 90
        6
 70
   128
 43
0.0
 10
528.6390082829004
 20
-285.7390036308743
 10
528.8874671222007
 20
-285.7773267764986
 10
529.2398144984357
 20
-285.7018575301615
 10
529.5467607282289
 20
-285.4869392997748
 10
529.7615760305692
 20
-285.165291437676
 10
529.8515567229806
 20
-284.7858819151247
  0
LWPOLYLINE
  5
698
330
A
100
AcDbEntity
  8
0
  6
PHANTOM
 62
     7
100
AcDbPolyline
 90
        6
 70
   128
 43
0.0
 10
529.8515567229805
 20
-294.7003305288628
 10
529.7615760305689
 20
-294.3209210063114
 10
529.5467607282288
 20
-293.9992731442128
 10
529.2398144984356
 20
-293.784354913826
 10
528.8874671222006
 20
-293.7088856674889
 10
528.6390082829002
 20
-293.7472088131132
  0
LWPOLYLINE
  5
6A0
330
A
100
AcDbEntity
  8
0
  6
PHANTOM
 62
     7
100
AcDbPolyline
 90
        5
 70
   128
 43
0.0
 10
529.2441826213075
 20
-295.6534522446124
 10
529.3398306106888
 20
-295.6163061438996
 10
529.6233097464867
 20
-295.4013879135128
 10
529.8030040607203
 20
-295.0797400514141
 10
529.8515567229805
 20
-294.7003305288628
  0
LWPOLYLINE
  5
6A7
330
A
100
AcDbEntity
  8
0
  6
PHANTOM
 62
     7
100
AcDbPolyline
 90
       13
 70
   128
 43
0.0
 10
-148.7975076601843
 20
-289.7431062219974
 10
-148.621756683916
 20
-288.4400509501483
 10
-148.386887037498
 20
-287.798958694358
 10
-148.0643496547839
 20
-287.239948216597
 10
-147.6687503294689
 20
-286.7835177386644
 10
-147.2157488737693
 20
-286.4516556362364
 10
-146.2943496547839
 20
-286.2031062219974
 10
-145.3729504357987
 20
-286.4516556362364
 10
-144.9196297543626
 20
-286.7838114755883
 10
-144.524349654784
 20
-287.239948216597
 10
-144.2016045686976
 20
-287.799410147726
 10
-143.9669426256519
 20
-288.4400509501483
 10
-143.7911916493836
 20
-289.7431062219974
  0
LWPOLYLINE
  5
6B6
330
A
100
AcDbEntity
  8
0
  6
PHANTOM
 62
     7
100
AcDbPolyline
 90
       13
 70
   128
 43
0.0
 10
-143.7911916493836
 20
-289.7431062219974
 10
-143.9669426256519
 20
-291.0461614938465
 10
-144.201812272071
 20
-291.6872537496367
 10
-144.5243496547839
 20
-292.2462642273978
 10
-144.9199489800923
 20
-292.7026947053228
 10
-145.3729504357986
 20
-293.0345568077584
 10
-146.2943496547839
 20
-293.2831062219974
 10
-147.2157488737692
 20
-293.0345568077584
 10
-147.6690695552063
 20
-292.7024009684026
 10
-148.0643496547839
 20
-292.2462642273978
 10
-148.3870947408782
 20
-291.6868022962601
 10
-148.6217566839159
 20
-291.0461614938465
 10
-148.7975076601843
 20
-289.7431062219974
  0
LWPOLYLINE
  5
6C5
330
A
100
AcDbEntity
  8
0
  6
PHANTOM
 62
     7
100
AcDbPolyline
 90
        7
 70
   128
 43
0.0
 10
-140.9627645246374
 20
-289.7431062219974
 10
-141.0962457239279
 20
-291.1769637318654
 10
-141.4875927986561
 20
-292.5131062219973
 10
-142.1101360924108
 20
-293.6604777897708
 10
-142.9214503085241
 20
-294.5408869589632
 10
-143.866245723928
 20
-295.0943352996388
 10
-144.8774467747442
 20
-295.2831049165046
  0
LWPOLYLINE
  5
6CE
330
A
100
AcDbEntity
  8
0
  6
PHANTOM
 62
     7
100
AcDbPolyline
 90
        7
 70
   128
 43
0.0
 10
-144.8801360924109
 20
-284.2031062219974
 10
-143.866245723928
 20
-284.391877144356
 10
-142.9214503085241
 20
-284.9453254850317
 10
-142.1101360924108
 20
-285.8257346542239
 10
-141.4875927986561
 20
-286.9731062219975
 10
-141.0962457239279
 20
-288.3092487121295
 10
-140.9627645246374
 20
-289.7431062219974
  0
LINE
  5
6D7
330
A
100
AcDbEntity
  8
0
  6
PHANTOM
 62
     7
100
AcDbLine
 10
-134.4220267986617
 20
-290.3431062219976
 30
0.0
 11
-134.4220267986617
 21
-291.2431062219972
 31
0.0
  0
LINE
  5
6D8
330
A
100
AcDbEntity
  8
0
  6
PHANTOM
 62
     7
100
AcDbLine
 10
-134.4220267986618
 20
-288.2431062219973
 30
0.0
 11
-134.4220267986617
 21
-289.1431062219975
 31
0.0
  0
LINE
  5
6D9
330
A
100
AcDbEntity
  8
0
  6
PHANTOM
 62
     7
100
AcDbLine
 10
-136.0413013275789
 20
-284.2031062219973
 30
0.0
 11
-136.0413013275789
 21
-284.7431062219973
 31
0.0
  0
LINE
  5
6DA
330
A
100
AcDbEntity
  8
0
  6
PHANTOM
 62
     7
100
AcDbLine
 10
-136.0413013275788
 20
-294.7431062219973
 30
0.0
 11
-136.0413013275788
 21
-295.2831062219973
 31
0.0
  0
LINE
  5
6DB
330
A
100
AcDbEntity
  8
0
  6
Continuous
 62
     7
100
AcDbLine
 10
912.8723051233231
 20
30.71805181234247
 30
0.0
 11
912.8723051233231
 21
29.44788527441656
 31
0.0
  0
LINE
  5
6DC
330
A
100
AcDbEntity
  8
0
  6
Continuous
 62
     7
100
AcDbLine
 10
932.8723051233231
 20
29.44788527441672
 30
0.0
 11
932.8723051233231
 21
30.71805181234247
 31
0.0
  0
LWPOLYLINE
  5
6DD
330
A
100
AcDbEntity
  8
0
  6
Continuous
 62
     7
100
AcDbPolyline
 90
       10
 70
   128
 43
0.0
 10
922.872305123324
 20
125.304470938428
 10
921.4982088561637
 20
125.167432898787
 10
920.9690733570905
 20
125.0372732376304
 10
920.1359508839411
 20
124.7301604370962
 10
919.3509421984439
 20
124.2976563003739
 10
918.6197312604374
 20
123.711967236312
 10
918.0059658624688
 20
122.9777811718596
 10
917.5635075454142
 20
122.1061356000575
 10
917.3458038094114
 20
121.1201243093516
 10
917.3631555388375
 20
120.8181728370778
  0
LWPOLYLINE
  5
6E9
330
A
100
AcDbEntity
  8
0
  6
Continuous
 62
     7
100
AcDbPolyline
 90
        9
 70
   128
 43
0.0
 10
928.3804884824828
 20
120.8012670952375
 10
928.3374890293501
 20
121.5495353504383
 10
927.9958978158781
 20
122.5357267500821
 10
927.3998513666512
 20
123.4215818726621
 10
926.6038643393944
 20
124.1512262922914
 10
925.7352615223522
 20
124.6709576503554
 10
924.9606504009587
 20
124.9804643511176
 10
924.2213357129175
 20
125.1724692258736
 10
922.872305123324
 20
125.304470938428
  0
LINE
  5
6F4
330
A
100
AcDbEntity
  8
0
  6
Continuous
 62
     7
100
AcDbLine
 10
917.3323051233239
 20
111.9624781681958
 30
0.0
 11
917.3323051233236
 21
85.792337259257
 31
0.0
  0
LINE
  5
6F5
330
A
100
AcDbEntity
  8
0
  6
Continuous
 62
     7
100
AcDbLine
 10
917.3323051233239
 20
120.8013129330277
 30
0.0
 11
917.3323051233239
 21
116.5586722459083
 31
0.0
  0
LINE
  5
6F6
330
A
100
AcDbEntity
  8
0
  6
Continuous
 62
     7
100
AcDbLine
 10
928.4123051233239
 20
116.5586722459084
 30
0.0
 11
928.412305123324
 21
120.8013129330276
 31
0.0
  0
LINE
  5
6F7
330
A
100
AcDbEntity
  8
0
  6
Continuous
 62
     7
100
AcDbLine
 10
928.4123051233237
 20
85.80197487358141
 30
0.0
 11
928.4123051233239
 21
111.9624781681958
 31
0.0
  0
LINE
  5
6F8
330
A
100
AcDbEntity
  8
0
  6
Continuous
 62
     7
100
AcDbLine
 10
917.8723051233239
 20
111.2605752070521
 30
0.0
 11
927.8723051233239
 21
111.2605752070521
 31
0.0
  0
LINE
  5
6F9
330
A
100
AcDbEntity
  8
0
  6
Continuous
 62
     7
100
AcDbLine
 10
922.2723051233236
 20
516.6236964588008
 30
0.0
 11
922.272305123324
 21
125.2446331921582
 31
0.0
  0
LINE
  5
6FA
330
A
100
AcDbEntity
  8
0
  6
Continuous
 62
     7
100
AcDbLine
 10
923.4723051233238
 20
125.2457613523418
 30
0.0
 11
923.4723051233237
 21
516.622692467584
 31
0.0
  0
LINE
  5
6FB
330
A
100
AcDbEntity
  8
0
  6
Continuous
 62
     7
100
AcDbLine
 10
913.8723051233235
 20
95.71805181234244
 30
0.0
 11
908.8723051233236
 21
95.71805181234244
 31
0.0
  0
LINE
  5
6FC
330
A
100
AcDbEntity
  8
0
  6
Continuous
 62
     7
100
AcDbLine
 10
908.8723051233236
 20
59.71805181234245
 30
0.0
 11
913.8723051233235
 21
59.71805181234245
 31
0.0
  0
LINE
  5
6FD
330
A
100
AcDbEntity
  8
0
  6
Continuous
 62
     7
100
AcDbLine
 10
918.3723051233236
 20
526.2180518123425
 30
0.0
 11
917.8723051233236
 21
526.2180518123425
 31
0.0
  0
LINE
  5
6FE
330
A
100
AcDbEntity
  8
0
  6
Continuous
 62
     7
100
AcDbLine
 10
917.8723051233236
 20
516.2180518123425
 30
0.0
 11
918.3723051233236
 21
516.2180518123425
 31
0.0
  0
LINE
  5
6FF
330
A
100
AcDbEntity
  8
0
  6
Continuous
 62
     7
100
AcDbLine
 10
927.8723051233235
 20
526.2180518123425
 30
0.0
 11
927.3723051233236
 21
526.2180518123425
 31
0.0
  0
LINE
  5
700
330
A
100
AcDbEntity
  8
0
  6
Continuous
 62
     7
100
AcDbLine
 10
927.3723051233236
 20
516.2180518123425
 30
0.0
 11
927.8723051233235
 21
516.2180518123425
 31
0.0
  0
LINE
  5
701
330
A
100
AcDbEntity
  8
0
  6
Continuous
 62
     7
100
AcDbLine
 10
917.3323051233236
 20
88.79805181234244
 30
0.0
 11
916.8723051233236
 21
88.79805181234244
 31
0.0
  0
LINE
  5
702
330
A
100
AcDbEntity
  8
0
  6
Continuous
 62
     7
100
AcDbLine
 10
928.8723051233235
 20
88.79805181234244
 30
0.0
 11
928.4123051233237
 21
88.79805181234244
 31
0.0
  0
LINE
  5
703
330
A
100
AcDbEntity
  8
0
  6
Continuous
 62
     7
100
AcDbLine
 10
922.8486556654742
 20
66.63805181234247
 30
0.0
 11
928.8723051233235
 21
66.63805181234247
 31
0.0
  0
LINE
  5
704
330
A
100
AcDbEntity
  8
0
  6
Continuous
 62
     7
100
AcDbLine
 10
916.8723051233236
 20
66.63805181234247
 30
0.0
 11
922.8486556654742
 21
66.63805181234247
 31
0.0
  0
LINE
  5
705
330
A
100
AcDbEntity
  8
0
  6
Continuous
 62
     7
100
AcDbLine
 10
929.8723051233235
 20
121.7180518123424
 30
0.0
 11
929.8723051233235
 21
511.7180518123425
 31
0.0
  0
LINE
  5
706
330
A
100
AcDbEntity
  8
0
  6
Continuous
 62
     7
100
AcDbLine
 10
915.8723051233234
 20
511.7180518123425
 30
0.0
 11
915.8723051233234
 21
121.7180518123424
 31
0.0
  0
LINE
  5
707
330
A
100
AcDbEntity
  8
0
  6
Continuous
 62
     7
100
AcDbLine
 10
916.8723051233236
 20
83.71805181234245
 30
0.0
 11
913.8723051233235
 21
83.71805181234245
 31
0.0
  0
LINE
  5
708
330
A
100
AcDbEntity
  8
0
  6
Continuous
 62
     7
100
AcDbLine
 10
913.8723051233235
 20
71.71805181234245
 30
0.0
 11
916.8723051233236
 21
71.71805181234245
 31
0.0
  0
LINE
  5
709
330
A
100
AcDbEntity
  8
0
  6
Continuous
 62
     7
100
AcDbLine
 10
917.4723051233234
 20
121.7180518123424
 30
0.0
 11
917.4723051233234
 21
121.6930668141365
 31
0.0
  0
LINE
  5
70A
330
A
100
AcDbEntity
  8
0
  6
Continuous
 62
     7
100
AcDbLine
 10
917.4723051233234
 20
115.6835722516232
 30
0.0
 11
917.4723051233234
 21
112.9720012934315
 31
0.0
  0
LINE
  5
70B
330
A
100
AcDbEntity
  8
0
  6
Continuous
 62
     7
100
AcDbLine
 10
928.2723051233235
 20
112.9921212851868
 30
0.0
 11
928.2723051233235
 21
115.6835722516206
 31
0.0
  0
LINE
  5
70C
330
A
100
AcDbEntity
  8
0
  6
Continuous
 62
     7
100
AcDbLine
 10
929.8723051233235
 20
31.21805181234244
 30
0.0
 11
929.8723051233235
 21
32.71805181234244
 31
0.0
  0
LINE
  5
70D
330
A
100
AcDbEntity
  8
0
  6
Continuous
 62
     7
100
AcDbLine
 10
915.8723051233234
 20
32.71805181234244
 30
0.0
 11
915.8723051233234
 21
31.21805181234244
 31
0.0
  0
LINE
  5
70E
330
A
100
AcDbEntity
  8
0
  6
Continuous
 62
     7
100
AcDbLine
 10
928.4123051233235
 20
30.71805181234247
 30
0.0
 11
928.4123051233235
 21
31.21805181234244
 31
0.0
  0
LINE
  5
70F
330
A
100
AcDbEntity
  8
0
  6
Continuous
 62
     7
100
AcDbLine
 10
917.3323051233236
 20
31.21805181234244
 30
0.0
 11
917.3323051233236
 21
30.71805181234247
 31
0.0
  0
LINE
  5
710
330
A
100
AcDbEntity
  8
0
  6
Continuous
 62
     7
100
AcDbLine
 10
928.4123051233235
 20
32.71805181234244
 30
0.0
 11
928.4123051233235
 21
66.63805181234247
 31
0.0
  0
LINE
  5
711
330
A
100
AcDbEntity
  8
0
  6
Continuous
 62
     7
100
AcDbLine
 10
917.3323051233236
 20
66.63805181234247
 30
0.0
 11
917.3323051233236
 21
32.71805181234244
 31
0.0
  0
LINE
  5
712
330
A
100
AcDbEntity
  8
0
  6
Continuous
 62
     7
100
AcDbLine
 10
917.8723051233232
 20
574.7180518123424
 30
0.0
 11
912.8723051233233
 21
574.7180518123424
 31
0.0
  0
LINE
  5
713
330
A
100
AcDbEntity
  8
0
  6
Continuous
 62
     7
100
AcDbLine
 10
912.8723051233233
 20
538.7180518123424
 30
0.0
 11
917.8723051233232
 21
538.7180518123424
 31
0.0
  0
LINE
  5
714
330
A
100
AcDbEntity
  8
0
  6
Continuous
 62
     7
100
AcDbLine
 10
918.3723051233233
 20
561.7180518123425
 30
0.0
 11
917.8723051233232
 21
561.7180518123425
 31
0.0
  0
LINE
  5
715
330
A
100
AcDbEntity
  8
0
  6
Continuous
 62
     7
100
AcDbLine
 10
917.8723051233232
 20
551.7180518123425
 30
0.0
 11
918.3723051233233
 21
551.7180518123425
 31
0.0
  0
LINE
  5
716
330
A
100
AcDbEntity
  8
0
  6
Continuous
 62
     7
100
AcDbLine
 10
927.8723051233232
 20
561.7180518123425
 30
0.0
 11
927.3723051233233
 21
561.7180518123425
 31
0.0
  0
LINE
  5
717
330
A
100
AcDbEntity
  8
0
  6
Continuous
 62
     7
100
AcDbLine
 10
927.3723051233233
 20
551.7180518123425
 30
0.0
 11
927.8723051233232
 21
551.7180518123425
 31
0.0
  0
LINE
  5
718
330
A
100
AcDbEntity
  8
0
  6
Continuous
 62
     7
100
AcDbLine
 10
927.8723051233185
 20
568.7180518123424
 30
0.0
 11
927.3723051233234
 21
568.7180518123424
 31
0.0
  0
LINE
  5
719
330
A
100
AcDbEntity
  8
0
  6
Continuous
 62
     7
100
AcDbLine
 10
918.3723051233235
 20
568.7180518123424
 30
0.0
 11
917.8723051233186
 21
568.7180518123424
 31
0.0
  0
LINE
  5
71A
330
A
100
AcDbEntity
  8
0
  6
Continuous
 62
     7
100
AcDbLine
 10
900.0994549206108
 20
564.2180518123425
 30
0.0
 11
887.8723051233176
 21
564.2180518123425
 31
0.0
  0
LINE
  5
71B
330
A
100
AcDbEntity
  8
0
  6
Continuous
 62
     7
100
AcDbLine
 10
887.8723051233176
 20
549.2180518123426
 30
0.0
 11
900.0994549206108
 21
549.2180518123426
 31
0.0
  0
LINE
  5
71C
330
A
100
AcDbEntity
  8
0
  6
Continuous
 62
     7
100
AcDbLine
 10
957.8723051233177
 20
564.2180518123425
 30
0.0
 11
945.6451553260244
 21
564.2180518123425
 31
0.0
  0
LINE
  5
71D
330
A
100
AcDbEntity
  8
0
  6
Continuous
 62
     7
100
AcDbLine
 10
945.6451553260244
 20
549.2180518123426
 30
0.0
 11
957.8723051233177
 21
549.2180518123426
 31
0.0
  0
LWPOLYLINE
  5
71E
330
A
100
AcDbEntity
  8
0
  6
Continuous
 62
     7
100
AcDbPolyline
 90
       34
 70
   128
 43
0.0
 10
857.1135587548999
 20
544.4175346529018
 10
855.5241862148664
 20
543.0593395931147
 10
853.7864625486522
 20
541.3264558964164
 10
852.2716701325688
 20
539.5305651959822
 10
850.988647486093
 20
537.6730998597803
 10
849.9471877784808
 20
535.7558556875887
 10
849.1580784355475
 20
533.7807146934494
 10
848.6335481035887
 20
531.7489150951895
 10
848.3885864434432
 20
529.6603010854883
 10
848.443100093973
 20
527.5131758450803
 10
848.8239354471676
 20
525.3064546784378
 10
849.5637451067015
 20
523.0455839385517
 10
850.52680492588
 20
521.043375686457
 10
851.7708617625451
 20
519.0760714594815
 10
853.2892844163859
 20
517.1559010277766
 10
855.0722986908965
 20
515.293505262247
 10
857.1085851380393
 20
513.4970670818022
 10
859.3866833345284
 20
511.7724327122037
 10
861.8945051750863
 20
510.1245293423715
 10
864.6212161938139
 20
508.5566993642352
 10
867.5563106642568
 20
507.0719073140033
 10
870.6887259979779
 20
505.6732887678423
 10
874.0066680402728
 20
504.3641037354928
 10
877.4974212287935
 20
503.1476810749378
 10
881.1471679869079
 20
502.0273437393895
 10
884.9407520416399
 20
501.0063345902337
 10
888.8612818913175
 20
500.087751178933
 10
892.889367396485
 20
499.2744938249073
 10
897.0015042287311
 20
498.5692324591859
 10
901.1662937904493
 20
497.9744079239523
 10
905.3343074579601
 20
497.4923265221039
 10
909.4046880312992
 20
497.1256355076778
 10
913.2958335386808
 20
496.8677902896746
 10
915.8723051233229
 20
496.7473019577536
  0
LWPOLYLINE
  5
742
330
A
100
AcDbEntity
  8
0
  6
Continuous
 62
     7
100
AcDbPolyline
 90
       37
 70
   128
 43
0.0
 10
929.8723051233235
 20
496.7458584371688
 10
929.8923240971488
 20
496.7465450196374
 10
933.200870839018
 20
496.9106864031571
 10
936.6019487309046
 20
497.1462225715629
 10
940.2059624725003
 20
497.471502486462
 10
943.9091587733082
 20
497.8895410855701
 10
947.6609655696638
 20
498.4034398730677
 10
951.4181703003451
 20
499.0141824255336
 10
955.1462289531404
 20
499.7215230501189
 10
958.8164040845438
 20
500.5242403027276
 10
962.4043092738553
 20
501.420372376141
 10
965.888928633517
 20
502.4073953321679
 10
969.2519734374904
 20
503.4823739255864
 10
972.477447452408
 20
504.6420989400766
 10
975.5513407731646
 20
505.883221150186
 10
978.4613965837152
 20
507.2023885073289
 10
981.1969087599324
 20
508.596389676577
 10
983.7485143217461
 20
510.0623021500219
 10
986.1079466234727
 20
511.5976351279794
 10
988.2677166708665
 20
513.2004444187974
 10
990.2204240317674
 20
514.8691265081015
 10
991.9581476979816
 20
516.6020102047998
 10
993.4729401140646
 20
518.3979009052332
 10
994.7559627605407
 20
520.2553662414358
 10
995.7974224681519
 20
522.1726104136262
 10
996.5865318110861
 20
524.1477514077677
 10
997.1110621430447
 20
526.1795510060267
 10
997.35602380319
 20
528.2681650157281
 10
997.3015101526602
 20
530.4152902561359
 10
996.9206747994654
 20
532.6220114227789
 10
996.1808651399314
 20
534.8828821626649
 10
995.2178053207523
 20
536.8850904147601
 10
993.9737484840874
 20
538.8523946417349
 10
992.4553258302468
 20
540.7725650734394
 10
990.6723115557353
 20
542.6349608389699
 10
988.6360251085925
 20
544.4313990194147
 10
988.6166419224444
 20
544.4460730615936
  0
LINE
  5
769
330
A
100
AcDbEntity
  8
0
  6
Continuous
 62
     7
100
AcDbLine
 10
992.2436473207163
 20
537.2627242529768
 30
0.0
 11
956.3453708426628
 21
608.3599003677075
 31
0.0
  0
LINE
  5
76A
330
A
100
AcDbEntity
  8
0
  6
Continuous
 62
     7
100
AcDbLine
 10
889.399239403971
 20
608.3599003677078
 30
0.0
 11
853.5009629259169
 21
537.2627242529772
 31
0.0
  0
ARC
  5
76B
330
A
100
AcDbEntity
  8
0
  6
Continuous
 62
     7
100
AcDbCircle
 10
922.8723051233172
 20
556.7180518123424
 30
0.0
 40
27.05000000000005
100
AcDbArc
 50
16.09699872861265
 51
80.42383287996697
  0
ARC
  5
76C
330
A
100
AcDbEntity
  8
0
  6
Continuous
 62
     7
100
AcDbCircle
 10
922.8723051233172
 20
556.7180518123424
 30
0.0
 40
27.05000000000016
100
AcDbArc
 50
99.57616712000612
 51
163.9030012713874
  0
ARC
  5
76D
330
A
100
AcDbEntity
  8
0
  6
Continuous
 62
     7
100
AcDbCircle
 10
922.8723051233172
 20
556.7180518123424
 30
0.0
 40
27.05000000000006
100
AcDbArc
 50
196.0969987286127
 51
260.4126927715147
  0
ARC
  5
76E
330
A
100
AcDbEntity
  8
0
  6
Continuous
 62
     7
100
AcDbCircle
 10
922.8723051233172
 20
556.7180518123424
 30
0.0
 40
27.04999999999996
100
AcDbArc
 50
279.6415011107943
 51
343.9030012713887
  0
LWPOLYLINE
  5
76F
330
A
100
AcDbEntity
  8
0
  6
Continuous
 62
     7
100
AcDbPolyline
 90
       12
 70
   128
 43
0.0
 10
922.8723051233167
 20
619.8219132350067
 10
919.4621328059056
 20
619.7504473825448
 10
918.112107561606
 20
619.6823258366269
 10
915.8933801770118
 20
619.5201377153041
 10
913.6385145844164
 20
619.2892337549111
 10
911.2834575587966
 20
618.9732024006464
 10
908.9086339697873
 20
618.5714174850653
 10
906.5575012804709
 20
618.0835196086514
 10
904.2674451812422
 20
617.5115465534945
 10
902.0686283585085
 20
616.8589142692824
 10
899.9858082295533
 20
616.1300323133418
 10
898.8189535343654
 20
615.6504026462561
  0
LWPOLYLINE
  5
77D
330
A
100
AcDbEntity
  8
0
  6
Continuous
 62
     7
100
AcDbPolyline
 90
       11
 70
   128
 43
0.0
 10
946.731050731806
 20
615.7347669474167
 10
944.9358024798598
 20
616.4322653720479
 10
942.5743942180488
 20
617.1995773724095
 10
940.0757527792771
 20
617.8736023290767
 10
937.4705516706262
 20
618.4489641417217
 10
934.8025005374923
 20
618.9207463323819
 10
932.1492497005761
 20
619.2841445559271
 10
929.5152776983153
 20
619.5487718030793
 10
927.5997350075927
 20
619.6842503893302
 10
925.6568228940263
 20
619.7743053763265
 10
922.8723051233167
 20
619.8219132350067
  0
LWPOLYLINE
  5
78A
330
A
100
AcDbEntity
  8
0
  6
Continuous
 62
     7
100
AcDbPolyline
 90
       15
 70
   128
 43
0.0
 10
953.9942762703683
 20
601.1776810624557
 10
953.6354263712464
 20
600.7288935826189
 10
952.5328912667184
 20
599.6721154367636
 10
951.1970981929289
 20
598.6483542876335
 10
949.6350518195017
 20
597.6672035017127
 10
947.8563625079607
 20
596.7383930988412
 10
945.8748978235474
 20
595.872035319797
 10
943.7083744852094
 20
595.0777242349558
 10
941.3785623710831
 20
594.3642223704415
 10
938.9122814444844
 20
593.739325907229
 10
936.344395478436
 20
593.2098484564733
 10
933.7267635814551
 20
592.7817659982609
 10
931.1603886501911
 20
592.4609797184327
 10
928.7956719969134
 20
592.245952561486
 10
927.3723051233236
 20
592.155295708574
  0
LWPOLYLINE
  5
79B
330
A
100
AcDbEntity
  8
0
  6
Continuous
 62
     7
100
AcDbPolyline
 90
       20
 70
   128
 43
0.0
 10
918.3723051233236
 20
592.1534234211809
 10
918.1935318583418
 20
592.1624574738395
 10
916.0141903177148
 20
592.322001511838
 10
913.8012860726647
 20
592.5489415113736
 10
911.4931307768799
 20
592.8591239474658
 10
909.1699593656949
 20
593.2527087944863
 10
906.8757799763409
 20
593.7293883210279
 10
904.6486256691363
 20
594.2862583551893
 10
902.5194027324554
 20
594.9187663948477
 10
900.5136288123818
 20
595.6210214931614
 10
898.6522393437676
 20
596.3861024657693
 10
896.952095485069
 20
597.2063360521233
 10
895.4262809402237
 20
598.0736041696941
 10
894.0842867099597
 20
598.9797475326185
 10
892.9321803274969
 20
599.9171765534498
 10
891.9730572643572
 20
600.8797218167445
 10
891.2079435946546
 20
601.8639408718611
 10
890.6368949200125
 20
602.8727850026479
 10
890.2641124821059
 20
603.9202640801102
 10
890.2100675708984
 20
604.310243446656
  0
LINE
  5
7B1
330
A
100
AcDbEntity
  8
0
  6
Continuous
 62
     7
100
AcDbLine
 10
907.3546489400461
 20
497.3103187087791
 30
0.0
 11
915.8723051233234
 21
438.4376244001917
 31
0.0
  0
LINE
  5
7B2
330
A
100
AcDbEntity
  8
0
  6
Continuous
 62
     7
100
AcDbLine
 10
915.8723051233234
 20
452.4052384757493
 30
0.0
 11
909.4021594807973
 21
497.1258632988468
 31
0.0
  0
LINE
  5
7B3
330
A
100
AcDbEntity
  8
0
  6
Continuous
 62
     7
100
AcDbLine
 10
936.3427997798508
 20
497.1282756285884
 30
0.0
 11
929.8723051233235
 21
452.4052384758395
 31
0.0
  0
LINE
  5
7B4
330
A
100
AcDbEntity
  8
0
  6
Continuous
 62
     7
100
AcDbLine
 10
929.8723051233235
 20
438.4376244002829
 30
0.0
 11
938.3895626847623
 21
497.3075634976732
 31
0.0
  0
LINE
  5
7B5
330
A
100
AcDbEntity
  8
0
  6
Continuous
 62
     7
100
AcDbLine
 10
927.8723051233235
 20
590.653973489254
 30
0.0
 11
927.3723051233236
 21
590.653973489254
 31
0.0
  0
LINE
  5
7B6
330
A
100
AcDbEntity
  8
0
  6
Continuous
 62
     7
100
AcDbLine
 10
918.3723051233236
 20
590.653973489254
 30
0.0
 11
917.8723051233236
 21
590.653973489254
 31
0.0
  0
LINE
  5
7B7
330
A
100
AcDbEntity
  8
0
  6
Continuous
 62
     7
100
AcDbLine
 10
917.8723051233236
 20
584.6539734892539
 30
0.0
 11
927.8723051233235
 21
584.6539734892539
 31
0.0
  0
CIRCLE
  5
7B8
330
A
100
AcDbEntity
  8
0
  6
Continuous
 62
     7
100
AcDbCircle
 10
922.8723051233234
 20
-9.28194818765754
 30
0.0
 40
38.5
  0
CIRCLE
  5
7B9
330
A
100
AcDbEntity
  8
0
  6
Continuous
 62
     7
100
AcDbCircle
 10
922.8723051233234
 20
-9.28194818765754
 30
0.0
 40
40.0
  0
LINE
  5
7BA
330
A
100
AcDbEntity
  8
0
  6
Continuous
 62
     7
100
AcDbLine
 10
912.8723051233231
 20
30.71805181234247
 30
0.0
 11
932.8723051233231
 21
30.71805181234247
 31
0.0
  0
LWPOLYLINE
  5
7BB
330
A
100
AcDbEntity
  8
0
  6
Continuous
 62
     7
100
AcDbPolyline
 90
       13
 70
   128
 43
0.0
 10
917.3323051233239
 20
116.5586722459083
 10
917.5210760456826
 20
115.5447818774254
 10
918.0745243863581
 20
114.5999864620216
 10
918.9549335555504
 20
113.7886722459083
 10
920.1023051233239
 20
113.1661289521536
 10
921.438447613456
 20
112.7747818774254
 10
922.872305123324
 20
112.6413006781348
 10
924.3061626331918
 20
112.7747818774254
 10
925.6423051233239
 20
113.1661289521536
 10
926.7896766910975
 20
113.7886722459083
 10
927.6700858602897
 20
114.5999864620216
 10
928.2235342009654
 20
115.5447818774254
 10
928.4123051233239
 20
116.5586722459084
  0
LWPOLYLINE
  5
7CA
330
A
100
AcDbEntity
  8
0
  6
Continuous
 62
     7
100
AcDbPolyline
 90
        4
 70
   128
 43
0.0
 10
917.3323051233239
 20
111.9624781681958
 10
917.4201617268121
 20
112.764939591946
 10
917.6509426003759
 20
113.68137165329
 10
917.8723051233239
 20
114.3797577475776
  0
LWPOLYLINE
  5
7D0
330
A
100
AcDbEntity
  8
0
  6
Continuous
 62
     7
100
AcDbPolyline
 90
       13
 70
   128
 43
0.0
 10
928.4123051233239
 20
111.9624781681958
 10
928.2235342009654
 20
110.9485877997129
 10
927.6700858602897
 20
110.003792384309
 10
926.7896766910975
 20
109.1924781681958
 10
925.6423051233239
 20
108.5699348744411
 10
924.306162633192
 20
108.1785877997129
 10
922.872305123324
 20
108.0451066004223
 10
921.4384476134561
 20
108.1785877997128
 10
920.102305123324
 20
108.569934874441
 10
918.9549335555504
 20
109.1924781681957
 10
918.0745243863581
 20
110.003792384309
 10
917.5210760456826
 20
110.9485877997128
 10
917.3323051233239
 20
111.9624781681958
  0
LWPOLYLINE
  5
7DF
330
A
100
AcDbEntity
  8
0
  6
Continuous
 62
     7
100
AcDbPolyline
 90
        5
 70
   128
 43
0.0
 10
927.8723051233239
 20
114.3872265644156
 10
927.9854169238646
 20
114.0343147549236
 10
928.2941044213444
 20
112.9129298577072
 10
928.4088472437613
 20
112.1050345511222
 10
928.4123051233239
 20
111.9624781681958
  0
LWPOLYLINE
  5
7E6
330
A
100
AcDbEntity
  8
0
  6
Continuous
 62
     7
100
AcDbPolyline
 90
       12
 70
   128
 43
0.0
 10
917.4055110540333
 20
85.79260593323962
 10
917.4103216767163
 20
85.15821490859165
 10
917.9306729554417
 20
83.90683861476817
 10
918.9226750398429
 20
82.67392900879775
 10
920.4243620699216
 20
81.60535995529212
 10
922.2772077649089
 20
81.03918778348528
 10
922.8723051233236
 20
81.00464596748668
 10
924.5923224646407
 20
81.29666199437442
 10
926.1146321658175
 20
82.08738057874686
 10
927.3945019691812
 20
83.30220631792332
 10
928.2184955065385
 20
84.75903392850637
 10
928.3663291605922
 20
85.80527302941481
  0
LINE
  5
7F4
330
A
100
AcDbEntity
  8
0
  6
Continuous
 62
     7
100
AcDbLine
 10
927.8723051233239
 20
111.2605752070521
 30
0.0
 11
927.8723051233239
 21
114.8717223355671
 31
0.0
  0
LINE
  5
7F5
330
A
100
AcDbEntity
  8
0
  6
Continuous
 62
     7
100
AcDbLine
 10
917.8723051233239
 20
114.8717223355671
 30
0.0
 11
917.8723051233239
 21
111.2605752070521
 31
0.0
  0
LWPOLYLINE
  5
7F6
330
A
100
AcDbEntity
  8
0
  6
Continuous
 62
     7
100
AcDbPolyline
 90
        6
 70
   128
 43
0.0
 10
922.8723051233236
 20
517.3549313029346
 10
923.017386077443
 20
517.3302891668383
 10
923.1427006140066
 20
517.2667888116262
 10
923.2958202940414
 20
517.1213055118262
 10
923.4344280011272
 20
516.85754205301
 10
923.4644304173944
 20
516.6226265409666
  0
LWPOLYLINE
  5
7FE
330
A
100
AcDbEntity
  8
0
  6
Continuous
 62
     7
100
AcDbPolyline
 90
        7
 70
   128
 43
0.0
 10
922.2767420627041
 20
516.6237439586209
 10
922.2727390438164
 20
516.6465459421456
 10
922.335671893663
 20
516.926975576445
 10
922.4802422601454
 20
517.1589834913354
 10
922.6169917541444
 20
517.2767195582346
 10
922.748771401037
 20
517.3371189397122
 10
922.8723051233236
 20
517.3549313029346
  0
LINE
  5
807
330
A
100
AcDbEntity
  8
0
  6
Continuous
 62
     7
100
AcDbLine
 10
913.8723051233235
 20
59.71805181234245
 30
0.0
 11
913.8723051233235
 21
95.71805181234244
 31
0.0
  0
LINE
  5
808
330
A
100
AcDbEntity
  8
0
  6
Continuous
 62
     7
100
AcDbLine
 10
908.8723051233236
 20
95.71805181234244
 30
0.0
 11
908.8723051233236
 21
59.71805181234245
 31
0.0
  0
LINE
  5
809
330
A
100
AcDbEntity
  8
0
  6
Continuous
 62
     7
100
AcDbLine
 10
927.3723051233236
 20
514.4124411066946
 30
0.0
 11
927.3723051233236
 21
528.1983683794377
 31
0.0
  0
LINE
  5
80A
330
A
100
AcDbEntity
  8
0
  6
Continuous
 62
     7
100
AcDbLine
 10
918.3723051233236
 20
528.1983683794377
 30
0.0
 11
918.3723051233236
 21
514.4124411066946
 31
0.0
  0
LWPOLYLINE
  5
80B
330
A
100
AcDbEntity
  8
0
  6
Continuous
 62
     7
100
AcDbPolyline
 90
        7
 70
   128
 43
0.0
 10
918.3723051233236
 20
592.0840241233086
 10
918.4109248237019
 20
592.3689649487824
 10
918.5270250924011
 20
592.66289272326
 10
918.7185536165808
 20
592.9546375333505
 10
918.9801270329368
 20
593.2331974015638
 10
919.6284050180581
 20
593.6841349224965
 10
920.3723051233238
 20
593.9795077039223
  0
LWPOLYLINE
  5
814
330
A
100
AcDbEntity
  8
0
  6
Continuous
 62
     7
100
AcDbPolyline
 90
        7
 70
   128
 43
0.0
 10
925.3723051233237
 20
593.9795077039223
 10
926.116168314005
 20
593.6841544920814
 10
926.7644637430491
 20
593.2332151820918
 10
927.026036014608
 20
592.9546614519985
 10
927.2175715339367
 20
592.6629168620065
 10
927.3336809057774
 20
592.3689812353365
 10
927.3723051233236
 20
592.0840241233086
  0
LWPOLYLINE
  5
81D
330
A
100
AcDbEntity
  8
0
  6
Continuous
 62
     7
100
AcDbPolyline
 90
        9
 70
   128
 43
0.0
 10
918.3723051233236
 20
587.8413834361895
 10
919.2358062107516
 20
587.1293169381857
 10
920.3187582254898
 20
586.587594473762
 10
921.5558085221561
 20
586.2489072384944
 10
922.8723051233236
 20
586.1336939097028
 10
924.1888017244912
 20
586.2489072384944
 10
925.4258520211573
 20
586.587594473762
 10
926.5088040358957
 20
587.1293169381857
 10
927.3723051233236
 20
587.8413834361895
  0
LINE
  5
828
330
A
100
AcDbEntity
  8
0
  6
Continuous
 62
     7
100
AcDbLine
 10
918.3723051233236
 20
592.0840241233086
 30
0.0
 11
918.3723051233236
 21
587.8413834361895
 31
0.0
  0
LINE
  5
829
330
A
100
AcDbEntity
  8
0
  6
Continuous
 62
     7
100
AcDbLine
 10
927.3723051233236
 20
587.8413834361895
 30
0.0
 11
927.3723051233236
 21
592.0840241233086
 31
0.0
  0
LINE
  5
82A
330
A
100
AcDbEntity
  8
0
  6
Continuous
 62
     7
100
AcDbLine
 10
918.3723051233236
 20
596.30539830715
 30
0.0
 11
918.3723051233236
 21
592.0840241233086
 31
0.0
  0
LWPOLYLINE
  5
82B
330
A
100
AcDbEntity
  8
0
  6
Continuous
 62
     7
100
AcDbPolyline
 90
        7
 70
   128
 43
0.0
 10
918.3723051233236
 20
596.30539830715
 10
918.4109281016898
 20
596.5736188496902
 10
918.5270337113079
 20
596.8173619688668
 10
918.7185630427796
 20
597.0254586803533
 10
918.9801270329368
 20
597.1869097235963
 10
919.6284050180581
 20
597.3307827501537
 10
920.3723051233238
 20
597.2383418512824
  0
LWPOLYLINE
  5
834
330
A
100
AcDbEntity
  8
0
  6
Continuous
 62
     7
100
AcDbPolyline
 90
        7
 70
   128
 43
0.0
 10
925.3723051233237
 20
597.2383418512824
 10
926.116168314005
 20
597.3307840985062
 10
926.7644637430491
 20
597.1869186397388
 10
927.026045396968
 20
597.0254580730145
 10
927.2175801127668
 20
596.817354818877
 10
927.3336841685242
 20
596.5736114048951
 10
927.3723051233236
 20
596.30539830715
  0
LINE
  5
83D
330
A
100
AcDbEntity
  8
0
  6
Continuous
 62
     7
100
AcDbLine
 10
927.3723051233236
 20
592.0840241233086
 30
0.0
 11
927.3723051233236
 21
596.30539830715
 31
0.0
  0
LINE
  5
83E
330
A
100
AcDbEntity
  8
0
  6
Continuous
 62
     7
100
AcDbLine
 10
917.8723051233236
 20
526.2180518123425
 30
0.0
 11
917.8723051233236
 21
516.2180518123425
 31
0.0
  0
LINE
  5
83F
330
A
100
AcDbEntity
  8
0
  6
Continuous
 62
     7
100
AcDbLine
 10
927.8723051233235
 20
516.2180518123425
 30
0.0
 11
927.8723051233235
 21
526.2180518123425
 31
0.0
  0
LINE
  5
840
330
A
100
AcDbEntity
  8
0
  6
Continuous
 62
     7
100
AcDbLine
 10
916.8723051233236
 20
88.79805181234244
 30
0.0
 11
916.8723051233236
 21
66.63805181234247
 31
0.0
  0
LINE
  5
841
330
A
100
AcDbEntity
  8
0
  6
Continuous
 62
     7
100
AcDbLine
 10
928.8723051233235
 20
66.63805181234247
 30
0.0
 11
928.8723051233235
 21
88.79805181234244
 31
0.0
  0
LINE
  5
842
330
A
100
AcDbEntity
  8
0
  6
Continuous
 62
     7
100
AcDbLine
 10
927.3723051233236
 20
511.7180526196636
 30
0.0
 11
927.3723051233236
 21
514.4124411066946
 31
0.0
  0
LINE
  5
843
330
A
100
AcDbEntity
  8
0
  6
Continuous
 62
     7
100
AcDbLine
 10
918.3723051233236
 20
514.4124411066946
 30
0.0
 11
918.3723051233236
 21
511.7180526174056
 31
0.0
  0
LINE
  5
844
330
A
100
AcDbEntity
  8
0
  6
Continuous
 62
     7
100
AcDbLine
 10
927.3723051233236
 20
528.1983683794377
 30
0.0
 11
927.3723051233236
 21
532.481750492448
 31
0.0
  0
LINE
  5
845
330
A
100
AcDbEntity
  8
0
  6
Continuous
 62
     7
100
AcDbLine
 10
918.3723051233236
 20
532.4817503213863
 30
0.0
 11
918.3723051233236
 21
528.1983683794377
 31
0.0
  0
LINE
  5
846
330
A
100
AcDbEntity
  8
0
  6
Continuous
 62
     7
100
AcDbLine
 10
915.8723051233234
 20
511.7180518123425
 30
0.0
 11
922.2723051233236
 21
511.7180518123425
 31
0.0
  0
LINE
  5
847
330
A
100
AcDbEntity
  8
0
  6
Continuous
 62
     7
100
AcDbLine
 10
923.4723051233237
 20
511.7180518123425
 30
0.0
 11
929.8723051233235
 21
511.7180518123425
 31
0.0
  0
LINE
  5
848
330
A
100
AcDbEntity
  8
0
  6
Continuous
 62
     7
100
AcDbLine
 10
915.8723051233234
 20
121.7180518123424
 30
0.0
 11
917.4723051233234
 21
121.7180518123424
 31
0.0
  0
LINE
  5
849
330
A
100
AcDbEntity
  8
0
  6
Continuous
 62
     7
100
AcDbLine
 10
928.3713955338935
 20
121.7180518123424
 30
0.0
 11
929.8723051233235
 21
121.7180518123424
 31
0.0
  0
LWPOLYLINE
  5
84A
330
A
100
AcDbEntity
  8
0
  6
Continuous
 62
     7
100
AcDbPolyline
 90
        9
 70
   128
 43
0.0
 10
927.3723051233236
 20
583.2451893584771
 10
926.5088040358957
 20
582.5331228604733
 10
925.4258520211573
 20
581.9914003960495
 10
924.188801724491
 20
581.652713160782
 10
922.8723051233236
 20
581.5374998319902
 10
921.5558085221559
 20
581.652713160782
 10
920.3187582254898
 20
581.9914003960495
 10
919.2358062107516
 20
582.5331228604733
 10
918.3723051233236
 20
583.2451893584771
  0
LINE
  5
855
330
A
100
AcDbEntity
  8
0
  6
Continuous
 62
     7
100
AcDbLine
 10
927.3723051233233
 20
563.6998527676446
 30
0.0
 11
927.3723051233236
 21
583.2451893584771
 31
0.0
  0
LINE
  5
856
330
A
100
AcDbEntity
  8
0
  6
Continuous
 62
     7
100
AcDbLine
 10
918.3723051233236
 20
583.2451893584771
 30
0.0
 11
918.3723051233233
 21
563.6998527676446
 31
0.0
  0
LINE
  5
857
330
A
100
AcDbEntity
  8
0
  6
Continuous
 62
     7
100
AcDbLine
 10
927.3723051233236
 20
583.2451893584771
 30
0.0
 11
927.3723051233236
 21
584.6539734892539
 31
0.0
  0
LINE
  5
858
330
A
100
AcDbEntity
  8
0
  6
Continuous
 62
     7
100
AcDbLine
 10
918.3723051233236
 20
584.6539734892539
 30
0.0
 11
918.3723051233236
 21
583.2451893584771
 31
0.0
  0
LINE
  5
859
330
A
100
AcDbEntity
  8
0
  6
Continuous
 62
     7
100
AcDbLine
 10
927.3723051233236
 20
532.481750492448
 30
0.0
 11
927.3723051233236
 21
534.2221371864646
 31
0.0
  0
LINE
  5
85A
330
A
100
AcDbEntity
  8
0
  6
Continuous
 62
     7
100
AcDbLine
 10
918.3723051233236
 20
534.2221371864646
 30
0.0
 11
918.3723051233236
 21
532.4817503213863
 31
0.0
  0
LINE
  5
85B
330
A
100
AcDbEntity
  8
0
  6
Continuous
 62
     7
100
AcDbLine
 10
929.8723051233235
 20
32.71805181234244
 30
0.0
 11
915.8723051233234
 21
32.71805181234244
 31
0.0
  0
LINE
  5
85C
330
A
100
AcDbEntity
  8
0
  6
Continuous
 62
     7
100
AcDbLine
 10
915.8723051233234
 20
31.21805181234244
 30
0.0
 11
929.8723051233235
 21
31.21805181234244
 31
0.0
  0
LINE
  5
85D
330
A
100
AcDbEntity
  8
0
  6
Continuous
 62
     7
100
AcDbLine
 10
927.3723051233236
 20
534.2221371864646
 30
0.0
 11
927.3723051233233
 21
549.7362508570402
 31
0.0
  0
LINE
  5
85E
330
A
100
AcDbEntity
  8
0
  6
Continuous
 62
     7
100
AcDbLine
 10
918.3723051233233
 20
549.7362508570404
 30
0.0
 11
918.3723051233236
 21
534.2221371864646
 31
0.0
  0
LINE
  5
85F
330
A
100
AcDbEntity
  8
0
  6
Continuous
 62
     7
100
AcDbLine
 10
917.8723051233232
 20
538.7180518123424
 30
0.0
 11
917.8723051233232
 21
574.7180518123424
 31
0.0
  0
LINE
  5
860
330
A
100
AcDbEntity
  8
0
  6
Continuous
 62
     7
100
AcDbLine
 10
912.8723051233233
 20
574.7180518123424
 30
0.0
 11
912.8723051233233
 21
538.7180518123424
 31
0.0
  0
LINE
  5
861
330
A
100
AcDbEntity
  8
0
  6
Continuous
 62
     7
100
AcDbLine
 10
927.3723051233233
 20
559.8531349561961
 30
0.0
 11
927.3723051233233
 21
563.6998509059014
 31
0.0
  0
LINE
  5
862
330
A
100
AcDbEntity
  8
0
  6
Continuous
 62
     7
100
AcDbLine
 10
918.3723051233233
 20
563.699852712014
 30
0.0
 11
918.3723051233233
 21
559.8531349561961
 31
0.0
  0
LINE
  5
863
330
A
100
AcDbEntity
  8
0
  6
Continuous
 62
     7
100
AcDbLine
 10
927.3723051233227
 20
549.7362527299121
 30
0.0
 11
927.3723051233233
 21
553.5829686684888
 31
0.0
  0
LINE
  5
864
330
A
100
AcDbEntity
  8
0
  6
Continuous
 62
     7
100
AcDbLine
 10
918.3723051233233
 20
553.5829686684888
 30
0.0
 11
918.3723051233233
 21
549.736250035467
 31
0.0
  0
LINE
  5
865
330
A
100
AcDbEntity
  8
0
  6
Continuous
 62
     7
100
AcDbLine
 10
927.3723051233233
 20
553.5829686684888
 30
0.0
 11
927.3723051233233
 21
559.8531349561961
 31
0.0
  0
LINE
  5
866
330
A
100
AcDbEntity
  8
0
  6
Continuous
 62
     7
100
AcDbLine
 10
918.3723051233233
 20
559.8531349561961
 30
0.0
 11
918.3723051233233
 21
553.5829686684888
 31
0.0
  0
LINE
  5
867
330
A
100
AcDbEntity
  8
0
  6
Continuous
 62
     7
100
AcDbLine
 10
927.8723051233232
 20
551.7180518123425
 30
0.0
 11
927.8723051233232
 21
561.7180518123425
 31
0.0
  0
ARC
  5
868
330
A
100
AcDbEntity
  8
0
  6
Continuous
 62
     7
100
AcDbCircle
 10
922.8723051233227
 20
556.7180518123424
 30
0.0
 40
6.999999999999972
100
AcDbArc
 50
130.9546145654919
 51
134.4153085971914
  0
ARC
  5
869
330
A
100
AcDbEntity
  8
0
  6
Continuous
 62
     7
100
AcDbCircle
 10
922.8723051233227
 20
556.7180518123424
 30
0.0
 40
7.000000000000195
100
AcDbArc
 50
45.58469140280776
 51
49.32400216113385
  0
ARC
  5
86A
330
A
100
AcDbEntity
  8
0
  6
Continuous
 62
     7
100
AcDbCircle
 10
922.8723051233227
 20
556.7180518123424
 30
0.0
 40
7.000000000000211
100
AcDbArc
 50
348.4630409671792
 51
44.41530859719342
  0
LINE
  5
86B
330
A
100
AcDbEntity
  8
0
  6
Continuous
 62
     7
100
AcDbLine
 10
927.7712846088892
 20
545.7180518123425
 30
0.0
 11
929.7308764031155
 21
555.3180518123427
 31
0.0
  0
ARC
  5
86C
330
A
100
AcDbEntity
  8
0
  6
Continuous
 62
     7
100
AcDbCircle
 10
922.8723051233227
 20
546.7180518123424
 30
0.0
 40
5.000000000000172
100
AcDbArc
 50
334.1580672368505
 51
348.4630409671863
  0
ARC
  5
86D
330
A
100
AcDbEntity
  8
0
  6
Continuous
 62
     7
100
AcDbCircle
 10
922.8723051233227
 20
546.7180518123424
 30
0.0
 40
4.999999999999936
100
AcDbArc
 50
191.5369590328151
 51
205.8419327631873
  0
LINE
  5
86E
330
A
100
AcDbEntity
  8
0
  6
Continuous
 62
     7
100
AcDbLine
 10
917.8723051233234
 20
546.2129492401707
 30
0.0
 11
917.9733256377563
 21
545.7180518123425
 31
0.0
  0
LINE
  5
86F
330
A
100
AcDbEntity
  8
0
  6
Continuous
 62
     7
100
AcDbLine
 10
927.8723051233187
 20
561.617031297909
 30
0.0
 11
927.8723051233185
 21
568.7180518123424
 31
0.0
  0
LINE
  5
870
330
A
100
AcDbEntity
  8
0
  6
Continuous
 62
     7
100
AcDbLine
 10
889.8723051233181
 20
561.2180518123424
 30
0.0
 11
889.8723051233181
 21
552.2180518123425
 31
0.0
  0
LINE
  5
871
330
A
100
AcDbEntity
  8
0
  6
Continuous
 62
     7
100
AcDbLine
 10
889.8723051233181
 20
561.2180518123424
 30
0.0
 11
912.8723051233233
 21
561.2180518123424
 31
0.0
  0
LINE
  5
872
330
A
100
AcDbEntity
  8
0
  6
Continuous
 62
     7
100
AcDbLine
 10
889.8723051233181
 20
552.2180518123425
 30
0.0
 11
912.8723051233233
 21
552.2180518123425
 31
0.0
  0
LINE
  5
873
330
A
100
AcDbEntity
  8
0
  6
Continuous
 62
     7
100
AcDbLine
 10
955.8723051233181
 20
552.2180518123425
 30
0.0
 11
955.8723051233181
 21
561.2180518123424
 31
0.0
  0
LINE
  5
874
330
A
100
AcDbEntity
  8
0
  6
Continuous
 62
     7
100
AcDbLine
 10
928.2342077707046
 20
561.2180518123424
 30
0.0
 11
955.8723051233181
 21
561.2180518123424
 31
0.0
  0
LINE
  5
875
330
A
100
AcDbEntity
  8
0
  6
Continuous
 62
     7
100
AcDbLine
 10
929.0980915528967
 20
552.2180518123425
 30
0.0
 11
955.8723051233181
 21
552.2180518123425
 31
0.0
  0
ARC
  5
876
330
A
100
AcDbEntity
  8
0
  6
Continuous
 62
     7
100
AcDbCircle
 10
922.8723051233179
 20
556.7180518123424
 30
0.0
 40
21.25000000000002
100
AcDbArc
 50
102.2257885931421
 51
167.774211406842
  0
ARC
  5
877
330
A
100
AcDbEntity
  8
0
  6
Continuous
 62
     7
100
AcDbCircle
 10
922.8723051233179
 20
556.7180518123424
 30
0.0
 40
21.25000000000009
100
AcDbArc
 50
12.22578859315746
 51
77.7742114068272
  0
ARC
  5
878
330
A
100
AcDbEntity
  8
0
  6
Continuous
 62
     7
100
AcDbCircle
 10
922.8723051233179
 20
556.7180518123424
 30
0.0
 40
21.25000000000007
100
AcDbArc
 50
282.2257885931737
 51
347.7742114068437
  0
ARC
  5
879
330
A
100
AcDbEntity
  8
0
  6
Continuous
 62
     7
100
AcDbCircle
 10
922.8723051233179
 20
556.7180518123424
 30
0.0
 40
21.24999999999996
100
AcDbArc
 50
192.225788593158
 51
257.7742114068587
  0
ARC
  5
87A
330
A
100
AcDbEntity
  8
0
  6
Continuous
 62
     7
100
AcDbCircle
 10
922.8723051233178
 20
556.7180518123424
 30
0.0
 40
23.95000000000015
100
AcDbArc
 50
100.829756582049
 51
169.1702434179369
  0
ARC
  5
87B
330
A
100
AcDbEntity
  8
0
  6
Continuous
 62
     7
100
AcDbCircle
 10
922.8723051233178
 20
556.7180518123424
 30
0.0
 40
23.95000000000012
100
AcDbArc
 50
10.82975658206423
 51
79.17024341792276
  0
ARC
  5
87C
330
A
100
AcDbEntity
  8
0
  6
Continuous
 62
     7
100
AcDbCircle
 10
922.8723051233178
 20
556.7180518123424
 30
0.0
 40
23.95000000000004
100
AcDbArc
 50
280.829756582064
 51
349.1702434179377
  0
ARC
  5
87D
330
A
100
AcDbEntity
  8
0
  6
Continuous
 62
     7
100
AcDbCircle
 10
922.8723051233178
 20
556.7180518123424
 30
0.0
 40
23.95000000000013
100
AcDbArc
 50
190.8297565820636
 51
259.1702434179377
  0
LINE
  5
87E
330
A
100
AcDbEntity
  8
0
  6
Continuous
 62
     7
100
AcDbLine
 10
887.8723051233176
 20
564.2180518123425
 30
0.0
 11
887.8723051233176
 21
549.2180518123426
 31
0.0
  0
LINE
  5
87F
330
A
100
AcDbEntity
  8
0
  6
Continuous
 62
     7
100
AcDbLine
 10
957.8723051233177
 20
549.2180518123426
 30
0.0
 11
957.8723051233177
 21
564.2180518123425
 31
0.0
  0
LWPOLYLINE
  5
880
330
A
100
AcDbEntity
  8
0
  6
Continuous
 62
     7
100
AcDbPolyline
 90
       10
 70
   128
 43
0.0
 10
888.6733372727722
 20
605.4520602011084
 10
888.7172312507654
 20
606.1717087922422
 10
889.0677085278975
 20
607.6009591770145
 10
889.7650667110266
 20
609.0081726798477
 10
890.8021499615173
 20
610.3789093859377
 10
892.1683164018221
 20
611.6991036817776
 10
893.8495473155445
 20
612.9552085873832
 10
895.8285909984411
 20
614.1343347666419
 10
898.0851397842512
 20
615.2243827893415
 10
898.6000278894213
 20
615.4442007466528
  0
LWPOLYLINE
  5
88C
330
A
100
AcDbEntity
  8
0
  6
Continuous
 62
     7
100
AcDbPolyline
 90
       10
 70
   128
 43
0.0
 10
946.9454638634402
 20
615.526709686793
 10
947.6594704623826
 20
615.2243827893415
 10
949.9160192481928
 20
614.1343347666417
 10
951.8950629310891
 20
612.955208587383
 10
953.5762938448117
 20
611.6991036817774
 10
954.9424602851166
 20
610.3789093859375
 10
955.9795435356075
 20
609.0081726798476
 10
956.6769017187365
 20
607.6009591770145
 10
957.0273789958683
 20
606.171708792242
 10
957.0711477961916
 20
605.4917932400314
  0
LWPOLYLINE
  5
898
330
A
100
AcDbEntity
  8
0
  6
Continuous
 62
     7
100
AcDbPolyline
 90
       26
 70
   128
 43
0.0
 10
915.8723051233234
 20
501.9911462081263
 10
912.8982105048848
 20
502.1399367672716
 10
907.9733072644465
 20
502.5041846528592
 10
903.1226300818987
 20
503.0115886217814
 10
898.3703447869686
 20
503.6596208129878
 10
893.740127025948
 20
504.4450527626991
 10
889.2550443108154
 20
505.3639714884501
 10
884.9374410980512
 20
506.4117989833722
 10
880.8088274696793
 20
507.5833150235933
 10
876.8897719711205
 20
508.8726831751298
 10
873.1997991397342
 20
510.2734798707076
 10
869.7572922345553
 20
511.7787264116522
 10
866.5794016518219
 20
513.3809237354123
 10
863.6819594825647
 20
515.0720897755142
 10
861.0794006379247
 20
516.8437992278143
 10
858.7846909351533
 20
518.6872255249408
 10
856.8092625025625
 20
520.5931848098087
 10
855.1629568252364
 20
522.5521816891334
 10
853.8539757152477
 20
524.5544565390026
 10
852.8888404506426
 20
526.5900341268319
 10
852.2723592867615
 20
528.6487733074712
 10
852.0076035017531
 20
530.7204175458801
 10
852.0958920956205
 20
532.7946460146704
 10
852.5367852190301
 20
534.8611250119468
 10
853.328086364619
 20
536.9095594432922
 10
853.5009629259169
 20
537.2627242529772
  0
LWPOLYLINE
  5
8B4
330
A
100
AcDbEntity
  8
0
  6
Continuous
 62
     7
100
AcDbPolyline
 90
       26
 70
   128
 43
0.0
 10
992.2436473207163
 20
537.2627242529768
 10
992.4165238820142
 20
536.9095594432917
 10
993.2078250276029
 20
534.8611250119463
 10
993.6487181510127
 20
532.79464601467
 10
993.7370067448801
 20
530.7204175458799
 10
993.4722509598715
 20
528.6487733074706
 10
992.8557697959906
 20
526.5900341268315
 10
991.8906345313855
 20
524.554456539002
 10
990.5816534213968
 20
522.552181689133
 10
988.9353477440707
 20
520.5931848098084
 10
986.9599193114799
 20
518.6872255249403
 10
984.6652096087087
 20
516.8437992278138
 10
982.0626507640687
 20
515.0720897755138
 10
979.1652085948113
 20
513.3809237354121
 10
975.9873180120779
 20
511.778726411652
 10
972.544811106899
 20
510.2734798707073
 10
968.8548382755127
 20
508.8726831751295
 10
964.9357827769543
 20
507.5833150235931
 10
960.8071691485822
 20
506.4117989833722
 10
956.489565935818
 20
505.3639714884501
 10
952.0044832206854
 20
504.4450527626989
 10
947.3742654596648
 20
503.6596208129878
 10
942.6219801647347
 20
503.0115886217812
 10
937.7713029821869
 20
502.5041846528592
 10
932.8463997417486
 20
502.1399367672716
 10
929.8723051233235
 20
501.9911462081267
  0
ARC
  5
8D0
330
A
100
AcDbEntity
  8
0
  6
Continuous
 62
     7
100
AcDbCircle
 10
922.8723051233172
 20
556.7180518123424
 30
0.0
 40
25.45000000000006
100
AcDbArc
 50
100.184430464153
 51
162.8607219965774
  0
ARC
  5
8D1
330
A
100
AcDbEntity
  8
0
  6
Continuous
 62
     7
100
AcDbCircle
 10
922.8723051233172
 20
556.7180518123424
 30
0.0
 40
25.45000000000003
100
AcDbArc
 50
17.1392780034224
 51
79.81556953581836
  0
ARC
  5
8D2
330
A
100
AcDbEntity
  8
0
  6
Continuous
 62
     7
100
AcDbCircle
 10
922.8723051233172
 20
556.7180518123424
 30
0.0
 40
25.44999999999997
100
AcDbArc
 50
280.2365410167679
 51
342.8607219965789
  0
ARC
  5
8D3
330
A
100
AcDbEntity
  8
0
  6
Continuous
 62
     7
100
AcDbCircle
 10
922.8723051233172
 20
556.7180518123424
 30
0.0
 40
25.44999999999992
100
AcDbArc
 50
197.1392780034223
 51
259.7887030910266
  0
LWPOLYLINE
  5
8D4
330
A
100
AcDbEntity
  8
0
  6
Continuous
 62
     7
100
AcDbPolyline
 90
        7
 70
   128
 43
0.0
 10
955.3562828296652
 20
607.1183890653912
 10
955.4709449390918
 20
606.722057094313
 10
955.6505073605874
 20
605.3012122531858
 10
955.4709449390918
 20
603.8803674120584
 10
954.9342249980707
 20
602.4750896443415
 10
954.0462279535136
 20
601.1007754673315
 10
953.9092688669892
 20
600.9298374964152
  0
LINE
  5
8DD
330
A
100
AcDbEntity
  8
0
  6
Continuous
 62
     7
100
AcDbLine
 10
890.2178787210193
 20
604.1210490353348
 30
0.0
 11
890.1773913084563
 21
604.3328211695278
 31
0.0
  0
LWPOLYLINE
  5
8DE
330
A
100
AcDbEntity
  8
0
  6
Continuous
 62
     7
100
AcDbPolyline
 90
       38
 70
   128
 43
0.0
 10
922.8723051233169
 20
608.7647227956883
 10
924.9848153773401
 20
608.6901604859312
 10
927.0365525575927
 20
608.4686185785564
 10
928.9684919209873
 20
608.1064704308787
 10
930.7250550895124
 20
607.6141343857452
 10
932.2557089389759
 20
607.0057740547808
 10
933.5164193449832
 20
606.2988908570681
 10
934.4709179645233
 20
605.5138205351864
 10
935.0917456101631
 20
604.6731481329223
 10
935.3610422008754
 20
603.8010582646809
 10
935.2710605640529
 20
602.9226393681608
 10
934.8243893075576
 20
602.0631619556819
 10
934.0338783501865
 20
601.2473516275549
 10
932.9222692529038
 20
600.4986777615776
 10
931.5215409855362
 20
599.8386783417672
 10
929.8719899500369
 20
599.2863403497739
 10
928.021070726367
 20
598.8575535439877
 10
926.022030890631
 20
598.5646533401212
 10
923.9323791792608
 20
598.4160659437574
 10
921.8122310673731
 20
598.4160659437574
 10
919.7225793560027
 20
598.5646533401212
 10
917.723539520267
 20
598.8575535439877
 10
915.872620296597
 20
599.2863403497739
 10
914.2230692610976
 20
599.8386783417674
 10
912.8223409937302
 20
600.4986777615776
 10
911.7107318964473
 20
601.2473516275552
 10
910.9202209390764
 20
602.0631619556821
 10
910.4735496825808
 20
602.9226393681608
 10
910.3835680457585
 20
603.8010582646809
 10
910.6528646364708
 20
604.6731481329226
 10
911.2736922821106
 20
605.5138205351866
 10
912.2281909016507
 20
606.2988908570681
 10
913.4889013076579
 20
607.0057740547809
 10
915.0195551571215
 20
607.6141343857452
 10
916.7761183256466
 20
608.1064704308787
 10
918.7080576890412
 20
608.4686185785564
 10
920.7597948692939
 20
608.6901604859312
 10
922.8723051233169
 20
608.7647227956883
  0
LWPOLYLINE
  5
906
330
A
100
AcDbEntity
  8
0
  6
Continuous
 62
     7
100
AcDbPolyline
 90
       10
 70
   128
 43
0.0
 10
922.8723051233169
 20
607.8547615248111
 10
924.9848153773401
 20
607.780199215054
 10
927.0365525575927
 20
607.5586573076792
 10
928.9684919209873
 20
607.1965091600016
 10
930.7250550895124
 20
606.7041731148683
 10
932.2557089389759
 20
606.0958127839037
 10
933.5164193449832
 20
605.3889295861911
 10
934.4709179645233
 20
604.6038592643094
 10
935.0917456101631
 20
603.7631868620454
 10
935.3240625162541
 20
603.1260766270256
  0
LWPOLYLINE
  5
912
330
A
100
AcDbEntity
  8
0
  6
Continuous
 62
     7
100
AcDbPolyline
 90
       10
 70
   128
 43
0.0
 10
910.4205477303798
 20
603.1260766270259
 10
910.6528646364708
 20
603.7631868620454
 10
911.2736922821106
 20
604.6038592643094
 10
912.2281909016507
 20
605.3889295861911
 10
913.4889013076579
 20
606.0958127839037
 10
915.0195551571215
 20
606.7041731148683
 10
916.7761183256466
 20
607.1965091600016
 10
918.7080576890412
 20
607.5586573076792
 10
920.7597948692939
 20
607.780199215054
 10
922.8723051233169
 20
607.8547615248111
  0
LINE
  5
91E
330
A
100
AcDbEntity
  8
0
  6
Continuous
 62
     7
100
AcDbLine
 10
927.8723051233235
 20
584.6539734892539
 30
0.0
 11
927.8723051233235
 21
590.653973489254
 31
0.0
  0
LINE
  5
91F
330
A
100
AcDbEntity
  8
0
  6
Continuous
 62
     7
100
AcDbLine
 10
917.8723051233236
 20
590.653973489254
 30
0.0
 11
917.8723051233236
 21
584.6539734892539
 31
0.0
  0
LWPOLYLINE
  5
920
330
A
100
AcDbEntity
  8
0
  6
PHANTOM
 62
     7
100
AcDbPolyline
 90
       13
 70
   128
 43
0.0
 10
922.872305123324
 20
119.7123684900003
 10
921.5692498514751
 20
119.8881194662686
 10
920.9281575956847
 20
120.1229891126866
 10
920.3691471179237
 20
120.4455264954007
 10
919.9127166399911
 20
120.8411258207157
 10
919.580854537563
 20
121.2941272764153
 10
919.3323051233239
 20
122.2155264954007
 10
919.580854537563
 20
123.136925714386
 10
919.9130103769149
 20
123.5902463958221
 10
920.3691471179237
 20
123.9855264954007
 10
920.9286090490525
 20
124.308271581487
 10
921.569249851475
 20
124.5429335245328
 10
922.872305123324
 20
124.7186845008011
  0
LWPOLYLINE
  5
92F
330
A
100
AcDbEntity
  8
0
  6
PHANTOM
 62
     7
100
AcDbPolyline
 90
       13
 70
   128
 43
0.0
 10
922.872305123324
 20
124.7186845008011
 10
924.175360395173
 20
124.5429335245328
 10
924.8164526509633
 20
124.3080638781136
 10
925.3754631287243
 20
123.9855264954007
 10
925.8318936066492
 20
123.5899271700923
 10
926.163755709085
 20
123.136925714386
 10
926.4123051233239
 20
122.2155264954007
 10
926.163755709085
 20
121.2941272764153
 10
925.8315998697291
 20
120.8408065949783
 10
925.3754631287243
 20
120.4455264954007
 10
924.8160011975867
 20
120.1227814093064
 10
924.1753603951732
 20
119.8881194662686
 10
922.872305123324
 20
119.7123684900003
  0
LWPOLYLINE
  5
93E
330
A
100
AcDbEntity
  8
0
  6
PHANTOM
 62
     7
100
AcDbPolyline
 90
       15
 70
   128
 43
0.0
 10
928.4123038178311
 20
120.8040022507588
 10
928.412305123324
 20
120.8013129330276
 10
928.2235342009654
 20
119.7874225645447
 10
927.6700858602897
 20
118.8426271491409
 10
926.7896766910975
 20
118.0313129330277
 10
925.6423051233239
 20
117.408769639273
 10
924.306162633192
 20
117.0174225645448
 10
922.872305123324
 20
116.8839413652542
 10
921.4384476134561
 20
117.0174225645448
 10
920.102305123324
 20
117.408769639273
 10
918.9549335555506
 20
118.0313129330277
 10
918.0745243863581
 20
118.842627149141
 10
917.5210760456826
 20
119.7874225645448
 10
917.3323051233239
 20
120.8013129330277
 10
917.3323306890907
 20
120.8132139422518
  0
LINE
  5
94F
330
A
100
AcDbEntity
  8
0
  6
PHANTOM
 62
     7
100
AcDbLine
 10
917.3323051233239
 20
111.9624781681958
 30
0.0
 11
917.8723051233239
 21
111.9624781681958
 31
0.0
  0
LINE
  5
950
330
A
100
AcDbEntity
  8
0
  6
PHANTOM
 62
     7
100
AcDbLine
 10
927.8723051233239
 20
111.9624781681958
 30
0.0
 11
928.4123051233239
 21
111.9624781681958
 31
0.0
  0
LINE
  5
951
330
A
100
AcDbEntity
  8
0
  6
PHANTOM
 62
     7
100
AcDbLine
 10
918.3723051233236
 20
514.4124411066946
 30
0.0
 11
922.2723051233236
 21
514.5535042807312
 31
0.0
  0
LINE
  5
952
330
A
100
AcDbEntity
  8
0
  6
PHANTOM
 62
     7
100
AcDbLine
 10
923.4723051233237
 20
514.553548930984
 30
0.0
 11
927.3723051233236
 21
514.4124411066946
 31
0.0
  0
LWPOLYLINE
  5
953
330
A
100
AcDbEntity
  8
0
  6
PHANTOM
 62
     7
100
AcDbPolyline
 90
        3
 70
   128
 43
0.0
 10
927.3723051233236
 20
528.1983683794377
 10
922.8717622077633
 20
528.1443988965419
 10
918.3723051233236
 20
528.1983683794377
  0
LWPOLYLINE
  5
958
330
A
100
AcDbEntity
  8
0
  6
PHANTOM
 62
     7
100
AcDbPolyline
 90
        9
 70
   128
 43
0.0
 10
927.3723051233236
 20
592.0840241233086
 10
926.5088040358957
 20
591.371957625305
 10
925.4258520211575
 20
590.8302351608812
 10
924.1888017244912
 20
590.4915479256136
 10
922.8723051233236
 20
590.376334596822
 10
921.5558085221561
 20
590.4915479256136
 10
920.3187582254898
 20
590.8302351608812
 10
919.2358062107516
 20
591.371957625305
 10
918.3723051233236
 20
592.0840241233086
  0
LWPOLYLINE
  5
963
330
A
100
AcDbEntity
  8
0
  6
PHANTOM
 62
     7
100
AcDbPolyline
 90
        9
 70
   128
 43
0.0
 10
920.3723051233238
 20
593.9795077039223
 10
920.8975326070028
 20
593.6512178176134
 10
921.5075283398945
 20
593.4069501715485
 10
922.1746822262629
 20
593.2553461765599
 10
922.8723051233236
 20
593.2047617215681
 10
923.5694127260877
 20
593.2552715455527
 10
924.2370819067527
 20
593.4069501715485
 10
924.8468915938602
 20
593.6510751358514
 10
925.3723051233237
 20
593.9795077039223
  0
LINE
  5
96E
330
A
100
AcDbEntity
  8
0
  6
PHANTOM
 62
     7
100
AcDbLine
 10
925.3723051233237
 20
597.2383418512824
 30
0.0
 11
925.3723051233237
 21
593.9795077039223
 31
0.0
  0
LINE
  5
96F
330
A
100
AcDbEntity
  8
0
  6
PHANTOM
 62
     7
100
AcDbLine
 10
920.3723051233238
 20
593.9795077039223
 30
0.0
 11
920.3723051233238
 21
597.2383418512824
 31
0.0
  0
LWPOLYLINE
  5
970
330
A
100
AcDbEntity
  8
0
  6
PHANTOM
 62
     7
100
AcDbPolyline
 90
        5
 70
   128
 43
0.0
 10
920.3723051233238
 20
597.2383418512824
 10
920.897718652851
 20
597.5667744193924
 10
921.5075283398945
 20
597.8108993836563
 10
922.1749566881102
 20
597.9625034074384
 10
922.8723051233236
 20
598.0130878336368
  0
LWPOLYLINE
  5
977
330
A
100
AcDbEntity
  8
0
  6
PHANTOM
 62
     7
100
AcDbPolyline
 90
        5
 70
   128
 43
0.0
 10
922.8723051233236
 20
598.0130878336368
 10
923.569928020353
 20
597.9625033786444
 10
924.2370819067527
 20
597.8108993836563
 10
924.847077639596
 20
597.5666317376164
 10
925.3723051233237
 20
597.2383418512824
  0
LWPOLYLINE
  5
97E
330
A
100
AcDbEntity
  8
0
  6
PHANTOM
 62
     7
100
AcDbPolyline
 90
       11
 70
   128
 43
0.0
 10
918.3723051233236
 20
532.4817503787609
 10
919.1849516589565
 20
532.4181788635923
 10
920.1966929288998
 20
532.1846289655034
 10
921.4327007466515
 20
531.9147066668527
 10
922.1579910336018
 20
531.8188910300903
 10
922.8774611509667
 20
531.785745735341
 10
923.5939048917249
 20
531.8195457190003
 10
924.3164524864416
 20
531.9154879692636
 10
925.5474060648053
 20
532.1845025358043
 10
926.5582154294305
 20
532.4179100237671
 10
927.3723051233236
 20
532.4817503787609
  0
LWPOLYLINE
  5
98B
330
A
100
AcDbEntity
  8
0
  6
PHANTOM
 62
     7
100
AcDbPolyline
 90
       10
 70
   128
 43
0.0
 10
918.3723051233235
 20
563.6998527676446
 10
919.2064545796423
 20
562.59674730797
 10
920.246620570376
 20
561.6507284473086
 10
921.4771351949941
 20
560.9720015615898
 10
922.8647164896703
 20
560.7101374416685
 10
924.2525745385576
 20
560.9664133690038
 10
925.4896796269123
 20
561.6446457930246
 10
926.0380030890125
 20
562.0938616371611
 10
926.5333022908189
 20
562.5913865926961
 10
927.3723051233233
 20
563.6998527676446
  0
LWPOLYLINE
  5
997
330
A
100
AcDbEntity
  8
0
  6
PHANTOM
 62
     7
100
AcDbPolyline
 90
        9
 70
   128
 43
0.0
 10
927.3723051233236
 20
534.2221371864646
 10
926.5088040358957
 20
534.9342036844684
 10
925.4258520211573
 20
535.4759261488921
 10
924.188801724491
 20
535.8146133841596
 10
922.8723051233236
 20
535.9298267129513
 10
921.5558085221559
 20
535.8146133841596
 10
920.3187582254898
 20
535.4759261488921
 10
919.2358062107516
 20
534.9342036844684
 10
918.3723051233236
 20
534.2221371864646
  0
LWPOLYLINE
  5
9A2
330
A
100
AcDbEntity
  8
0
  6
PHANTOM
 62
     7
100
AcDbPolyline
 90
       10
 70
   128
 43
0.0
 10
927.3723051233233
 20
549.7362508570402
 10
926.5343192295864
 20
550.8435946279176
 10
925.4928566458863
 20
551.7891349087271
 10
924.2543221780469
 20
552.4690379974998
 10
922.8648472295686
 20
552.725966446578
 10
921.4823668046792
 20
552.4660710587284
 10
920.2448303948543
 20
551.7840620170418
 10
919.6997204523267
 20
551.3359850878849
 10
919.2042927941377
 20
550.8369652898306
 10
918.3723051233235
 20
549.7362508570404
  0
LWPOLYLINE
  5
9AE
330
A
100
AcDbEntity
  8
0
  6
PHANTOM
 62
     7
100
AcDbPolyline
 90
        5
 70
   128
 43
0.0
 10
927.3723051233233
 20
559.8531349561961
 10
925.217808067652
 20
558.8804839102744
 10
922.8729705255521
 20
558.5328799288993
 10
920.5206380857124
 20
558.8823308318864
 10
918.3723051233233
 20
559.8531349561961
  0
LWPOLYLINE
  5
9B5
330
A
100
AcDbEntity
  8
0
  6
PHANTOM
 62
     7
100
AcDbPolyline
 90
        5
 70
   128
 43
0.0
 10
918.3723051233233
 20
553.5829686684888
 10
920.5297689933768
 20
554.5565068503408
 10
922.8749579340894
 20
554.9032232827595
 10
925.2234165220505
 20
554.5539394834683
 10
927.3723051233233
 20
553.5829686684888
  0
LINE
  5
9BC
330
A
100
AcDbEntity
  8
0
  6
PHANTOM
 62
     7
100
AcDbLine
 10
912.5981372547173
 20
561.2180518123424
 30
0.0
 11
912.8723051233233
 21
561.7472695444852
 31
0.0
  0
LWPOLYLINE
  5
9BD
330
A
100
AcDbEntity
  8
0
  6
PHANTOM
 62
     7
100
AcDbPolyline
 90
        5
 70
   128
 43
0.0
 10
927.8723051233185
 20
566.7331884240954
 10
929.0284148489009
 20
566.1342513135523
 10
930.8272564116668
 20
564.673003100691
 10
932.2885046245279
 20
562.8741615379253
 10
933.1464729919192
 20
561.2180518123424
  0
LWPOLYLINE
  5
9C4
330
A
100
AcDbEntity
  8
0
  6
PHANTOM
 62
     7
100
AcDbPolyline
 90
        5
 70
   128
 43
0.0
 10
933.1464729919192
 20
552.2180518123425
 10
932.2885046245279
 20
550.5619420867596
 10
930.8272564116668
 20
548.7631005239939
 10
929.0284148489009
 20
547.3018523111326
 10
927.9841460834605
 20
546.7608558095349
  0
LINE
  5
9CB
330
A
100
AcDbEntity
  8
0
  6
PHANTOM
 62
     7
100
AcDbLine
 10
912.8723051233233
 20
551.6888340801997
 30
0.0
 11
912.5981372547173
 21
552.2180518123425
 31
0.0
  0
LWPOLYLINE
  5
9CC
330
A
100
AcDbEntity
  8
0
  6
PHANTOM
 62
     7
100
AcDbPolyline
 90
       20
 70
   128
 43
0.0
 10
915.8723051233234
 20
501.5300064964876
 10
909.7709653496428
 20
501.8796896218023
 10
902.9762499005951
 20
502.5434965271144
 10
896.3694860348622
 20
503.4775975880974
 10
889.8030944232848
 20
504.7168292139818
 10
883.4732028795869
 20
506.2481966780086
 10
877.4908400225724
 20
508.0588499300609
 10
871.9606168778856
 20
510.1264031401977
 10
866.9748756179282
 20
512.4197493086803
 10
862.6086283155739
 20
514.9005947606018
 10
858.9158566315747
 20
517.5255580105205
 10
855.9275474468218
 20
520.2485962404761
 10
853.0689129422416
 20
523.9191431288632
 10
851.4065117105678
 20
527.6070462251494
 10
850.8723051233165
 20
531.239136227799
 10
851.1728328220646
 20
533.9671978296259
 10
852.0743185973229
 20
536.6721733016852
 10
853.6750365192736
 20
539.4898958855852
 10
855.9275474468213
 20
542.229676215122
 10
856.0781693356364
 20
542.3669274619489
  0
LWPOLYLINE
  5
9E2
330
A
100
AcDbEntity
  8
0
  6
PHANTOM
 62
     7
100
AcDbPolyline
 90
       20
 70
   128
 43
0.0
 10
989.666440910997
 20
542.3669274619483
 10
989.8170627998116
 20
542.229676215122
 10
992.6756973044915
 20
538.5591293267554
 10
994.3380985360271
 20
534.8712262303044
 10
994.8723051233168
 20
531.239136227799
 10
994.5717774246119
 20
528.5110746260963
 10
993.6702916493103
 20
525.8060991539129
 10
992.0695737272332
 20
522.9883765697005
 10
989.8170627998119
 20
520.2485962404761
 10
986.8287536150592
 20
517.5255580105205
 10
983.13598193106
 20
514.9005947606018
 10
978.7697346287059
 20
512.4197493086803
 10
973.7839933687485
 20
510.1264031401977
 10
968.2537702240619
 20
508.0588499300609
 10
962.2714073670476
 20
506.2481966780086
 10
955.9415158233495
 20
504.7168292139818
 10
949.3751242117721
 20
503.4775975880974
 10
940.5238903105043
 20
502.2921411759142
 10
931.6310370018301
 20
501.6027725532866
 10
929.8723051233237
 20
501.5582858975009
  0
LWPOLYLINE
  5
9F8
330
A
100
AcDbEntity
  8
0
  6
PHANTOM
 62
     7
100
AcDbPolyline
 90
       16
 70
   128
 43
0.0
 10
918.3723051233236
 20
591.3946280578247
 10
915.9881034758063
 20
591.5616252737822
 10
912.634395259551
 20
591.9217180213942
 10
909.3857418526036
 20
592.4206641187264
 10
906.2754788350497
 20
593.0533437036384
 10
903.3355217143078
 20
593.8132646274367
 10
900.5960384288343
 20
594.692629073106
 10
898.0851397842515
 20
595.6824135714633
 10
895.8285909984413
 20
596.772461594163
 10
893.8495473155448
 20
597.9515877734216
 10
892.1683164018222
 20
599.2076926790273
 10
890.8021499615175
 20
600.527886974867
 10
889.7650667110267
 20
601.8986236809571
 10
889.0677085278976
 20
603.30583718379
 10
888.7172312507656
 20
604.7350875685626
 10
888.6733372727722
 20
605.4520602011084
  0
LWPOLYLINE
  5
A0A
330
A
100
AcDbEntity
  8
0
  6
PHANTOM
 62
     7
100
AcDbPolyline
 90
       16
 70
   128
 43
0.0
 10
957.0711477961916
 20
605.4917932400314
 10
957.0273789958683
 20
604.7350875685624
 10
956.6769017187365
 20
603.30583718379
 10
955.9795435356074
 20
601.8986236809569
 10
954.9424602851166
 20
600.5278869748669
 10
953.5762938448117
 20
599.2076926790271
 10
951.8950629310891
 20
597.9515877734213
 10
949.9160192481927
 20
596.7724615941627
 10
947.6594704623826
 20
595.6824135714631
 10
945.1485718177996
 20
594.6926290731059
 10
942.4090885323263
 20
593.8132646274367
 10
939.4691314115844
 20
593.0533437036382
 10
936.3588683940307
 20
592.4206641187264
 10
933.1102149870831
 20
591.921718021394
 10
929.756506770828
 20
591.561625273782
 10
927.3723051233236
 20
591.3946280578252
  0
LWPOLYLINE
  5
A1C
330
A
100
AcDbEntity
  8
0
  6
PHANTOM
 62
     7
100
AcDbPolyline
 90
       15
 70
   128
 43
0.0
 10
922.8723051233167
 20
618.8941112274015
 10
926.2985602318549
 20
618.8196479045721
 10
929.6872765724341
 20
618.5970737718317
 10
933.0013266596923
 20
618.2288273979552
 10
936.2044010673638
 20
617.7189433672753
 10
939.261406241952
 20
617.073008075932
 10
942.1388489950444
 20
616.2980985261481
 10
944.8052034616949
 20
615.4027047891111
 10
947.231256504396
 20
614.3966369859774
 10
949.3904277783276
 20
613.2909178061312
 10
951.259060951177
 20
612.0976617402935
 10
952.8166828868659
 20
610.8299423516267
 10
954.0462279535134
 20
609.5016490390401
 10
954.9342249980705
 20
608.12733486203
 10
955.3562828296652
 20
607.1183890653912
  0
LWPOLYLINE
  5
A2D
330
A
100
AcDbEntity
  8
0
  6
PHANTOM
 62
     7
100
AcDbPolyline
 90
       17
 70
   128
 43
0.0
 10
890.1773913084563
 20
604.3328211695278
 10
890.0941028860465
 20
605.301212253186
 10
890.2736653075422
 20
606.7220570943133
 10
890.8103852485634
 20
608.1273348620302
 10
891.6983822931205
 20
609.5016490390403
 10
892.927927359768
 20
610.8299423516269
 10
894.4855492954568
 20
612.0976617402938
 10
896.3541824683062
 20
613.2909178061314
 10
898.5133537422379
 20
614.3966369859777
 10
900.939406784939
 20
615.4027047891113
 10
903.6057612515893
 20
616.2980985261481
 10
906.4832040046818
 20
617.073008075932
 10
909.5402091792701
 20
617.7189433672753
 10
912.7432835869415
 20
618.2288273979554
 10
916.0573336741997
 20
618.5970737718317
 10
919.4460500147789
 20
618.8196479045721
 10
922.8723051233167
 20
618.8941112274015
  0
LWPOLYLINE
  5
A40
330
A
100
AcDbEntity
  8
0
  6
PHANTOM
 62
     7
100
AcDbPolyline
 90
       17
 70
   128
 43
0.0
 10
922.8723051233167
 20
617.8284922789714
 10
926.2771026345792
 20
617.7544952973637
 10
929.6445964718088
 20
617.5333150789563
 10
932.9378916678312
 20
617.167374920507
 10
936.1209061913125
 20
616.6606841389697
 10
939.1587662690447
 20
616.0187941445784
 10
942.0181884703033
 20
615.2487376184364
 10
944.6678443670787
 20
614.3589514609881
 10
947.0787037748896
 20
613.3591843555748
 10
949.2243528135594
 20
612.2603899598177
 10
951.0812833032142
 20
611.0746068950545
 10
952.629150324822
 20
609.8148268486839
 10
953.850995123382
 20
608.4948522345195
 10
954.7334309115933
 20
607.1291449706568
 10
955.2667895382993
 20
605.7326680316712
 10
955.4452274147731
 20
604.3207215111379
 10
955.4031673867234
 20
603.6344991665526
  0
LWPOLYLINE
  5
A53
330
A
100
AcDbEntity
  8
0
  6
PHANTOM
 62
     7
100
AcDbPolyline
 90
       17
 70
   128
 43
0.0
 10
890.4223834962946
 20
603.1479492978227
 10
890.299382831861
 20
604.3207215111379
 10
890.4778207083346
 20
605.7326680316714
 10
891.0111793350406
 20
607.1291449706571
 10
891.893615123252
 20
608.4948522345197
 10
893.1154599218119
 20
609.8148268486839
 10
894.6633269434196
 20
611.0746068950548
 10
896.5202574330746
 20
612.2603899598177
 10
898.6659064717443
 20
613.3591843555748
 10
901.076765879555
 20
614.3589514609881
 10
903.7264217763304
 20
615.2487376184364
 10
906.585843977589
 20
616.0187941445784
 10
909.6237040553214
 20
616.6606841389697
 10
912.8067185788026
 20
617.167374920507
 10
916.1000137748249
 20
617.5333150789563
 10
919.4675076120544
 20
617.7544952973637
 10
922.8723051233167
 20
617.8284922789714
  0
LWPOLYLINE
  5
A66
330
A
100
AcDbEntity
  8
0
  6
PHANTOM
 62
     7
100
AcDbPolyline
 90
       16
 70
   128
 43
0.0
 10
922.8723051233167
 20
616.6814616646214
 10
919.0293406075983
 20
616.5842498412148
 10
915.1276531917412
 20
616.281803805421
 10
911.2439758969706
 20
615.7616600147783
 10
908.3407399855977
 20
615.2133696356001
 10
905.5856258993642
 20
614.5460369422222
 10
900.534384375676
 20
612.8444420515218
 10
898.3521548894596
 20
611.8412223689695
 10
896.4311226977153
 20
610.7497263246235
 10
894.8221444017242
 20
609.6073934263495
 10
893.4997436745859
 20
608.4032468160322
 10
892.2455874984105
 20
606.7928980334292
 10
891.5161332846198
 20
605.1748069721356
 10
891.281714646788
 20
603.5810572624844
 10
891.5160900341998
 20
601.9875027683523
 10
892.0504286736708
 20
600.8020743422846
  0
LWPOLYLINE
  5
A78
330
A
100
AcDbEntity
  8
0
  6
PHANTOM
 62
     7
100
AcDbPolyline
 90
       16
 70
   128
 43
0.0
 10
953.6944424657233
 20
600.8027007214111
 10
954.2284769620057
 20
601.9873075528015
 10
954.462895599846
 20
603.5810572624844
 10
954.2285202124425
 20
605.1746117564825
 10
953.4991522395555
 20
606.7927120853376
 10
952.2448665720476
 20
608.403246816032
 10
950.9227076287018
 20
609.6071991309659
 10
949.3134875489182
 20
610.7497263246235
 10
945.2102258709576
 20
612.8444420515218
 10
942.7910408449355
 20
613.7493978737413
 10
940.1589843472692
 20
614.5460369422222
 10
937.4043387900361
 20
615.2132693692469
 10
934.5006343496628
 20
615.7616600147782
 10
930.6174054541987
 20
616.28175010628
 10
926.715506665295
 20
616.5842498395647
 10
922.8723051233167
 20
616.6814616646214
  0
ENDSEC
  0
SECTION
  2
OBJECTS
  0
DICTIONARY
  5
19
330
0
100
AcDbDictionary
281
     1
  3
ACAD_COLOR
350
A8E
  3
ACAD_GROUP
350
1A
  3
ACAD_LAYOUT
350
A8F
  3
ACAD_MATERIAL
350
A8D
  3
ACAD_MLINESTYLE
350
1B
  3
ACAD_PLOTSETTINGS
350
A90
  3
ACAD_PLOTSTYLENAME
350
A8B
  3
ACDBHEADERROUNDTRIPXREC
350
AA8
  3
AcDbVariableDictionary
350
AA1
  3
ASE_INDEX_DICTIONARY
350
A96
  0
DICTIONARY
  5
A8E
102
{ACAD_REACTORS
330
19
102
}
330
19
100
AcDbDictionary
281
     1
  0
DICTIONARY
  5
1A
102
{ACAD_REACTORS
330
19
102
}
330
19
100
AcDbDictionary
281
     1
  0
DICTIONARY
  5
A8F
102
{ACAD_REACTORS
330
19
102
}
330
19
100
AcDbDictionary
281
     1
  3
Layout1
350
A92
  3
Model
350
A91
  0
DICTIONARY
  5
A8D
102
{ACAD_REACTORS
330
19
102
}
330
19
100
AcDbDictionary
281
     1
  0
DICTIONARY
  5
1B
102
{ACAD_REACTORS
330
19
102
}
330
19
100
AcDbDictionary
281
     1
  3
STANDARD
350
1C
  0
DICTIONARY
  5
A90
102
{ACAD_REACTORS
330
19
102
}
330
19
100
AcDbDictionary
281
     1
  0
ACDBDICTIONARYWDFLT
  5
A8B
102
{ACAD_REACTORS
330
19
102
}
330
19
100
AcDbDictionary
281
     1
  3
Normal
350
A8C
100
AcDbDictionaryWithDefault
340
A8C
  0
DICTIONARY
  5
AA8
102
{ACAD_REACTORS
330
19
102
}
330
19
100
AcDbDictionary
281
     1
  3
COLORDICT
350
AAA
  3
MATERIALDICT
350
AA9
  0
DICTIONARY
  5
AA1
102
{ACAD_REACTORS
330
19
102
}
330
19
100
AcDbDictionary
281
     1
  3
DIMASSOC
350
AA2
  3
PROJECTNAME
350
AA3
  0
DICTIONARY
  5
A96
102
{ACAD_REACTORS
330
19
102
}
330
19
100
AcDbDictionary
281
     1
  3
ASEBlockHierarchyIndexRecord
350
A98
1001
DCO15
1040
1552229229.984
  0
LAYOUT
  5
A92
102
{ACAD_XDICTIONARY
360
AAD
102
}
102
{ACAD_REACTORS
330
A8F
102
}
330
A8F
100
AcDbPlotSettings
  1

  2
ProgeSOFT PDF Wizard
  4

  6

 40
0.0
 41
0.0
 42
0.0
 43
0.0
 44
0.0
 45
0.0
 46
0.0
 47
0.0
 48
0.0
 49
0.0
140
0.0
141
0.0
142
1.0
143
1.0
 70
   688
 72
     0
 73
     0
 74
     5
  7

 75
    16
147
1.0
148
0.0
149
0.0
100
AcDbLayout
  1
Layout1
 70
     1
 71
     1
 10
0.0
 20
0.0
 11
12.0
 21
9.0
 12
0.0
 22
0.0
 32
0.0
 14
1.000000000000000E+20
 24
1.000000000000000E+20
 34
1.000000000000000E+20
 15
-1.000000000000000E+20
 25
-1.000000000000000E+20
 35
-1.000000000000000E+20
146
0.0
 13
0.0
 23
0.0
 33
0.0
 16
1.0
 26
0.0
 36
0.0
 17
0.0
 27
1.0
 37
0.0
 76
     0
330
B
  0
LAYOUT
  5
A91
102
{ACAD_XDICTIONARY
360
AAB
102
}
102
{ACAD_REACTORS
330
A8F
102
}
330
A8F
100
AcDbPlotSettings
  1

  2
ProgeSOFT PDF Wizard
  4

  6

 40
0.0
 41
0.0
 42
0.0
 43
0.0
 44
0.0
 45
0.0
 46
0.0
 47
0.0
 48
0.0
 49
0.0
140
0.0
141
0.0
142
1.0
143
1.0
 70
  1712
 72
     0
 73
     0
 74
     0
  7

 75
     0
147
1.0
148
0.0
149
0.0
100
AcDbLayout
  1
Model
 70
     1
 71
     0
 10
0.0
 20
0.0
 11
12.0
 21
9.0
 12
0.0
 22
0.0
 32
0.0
 14
0.0
 24
0.0
 34
0.0
 15
0.0
 25
0.0
 35
0.0
146
0.0
 13
0.0
 23
0.0
 33
0.0
 16
1.0
 26
0.0
 36
0.0
 17
0.0
 27
1.0
 37
0.0
 76
     0
330
A
  0
MLINESTYLE
  5
1C
102
{ACAD_REACTORS
330
1B
102
}
330
1B
100
AcDbMlineStyle
  2
STANDARD
 70
     0
  3

 62
     0
 51
90.0
 52
90.0
 71
     2
 49
0.5
 62
   256
  6
BYLAYER
 49
-0.5
 62
   256
  6
BYLAYER
  0
ACDBPLACEHOLDER
  5
A8C
102
{ACAD_REACTORS
330
A8B
102
}
330
A8B
  0
XRECORD
  5
AAA
102
{ACAD_REACTORS
330
AA8
102
}
330
AA8
100
AcDbXrecord
280
     1
340
A8E
  0
XRECORD
  5
AA9
102
{ACAD_REACTORS
330
AA8
102
}
330
AA8
100
AcDbXrecord
280
     1
340
A8D
  0
DICTIONARYVAR
  5
AA2
102
{ACAD_REACTORS
330
AA1
102
}
330
AA1
100
DictionaryVariables
280
     0
  1
1
  0
DICTIONARYVAR
  5
AA3
102
{ACAD_REACTORS
330
AA1
102
}
330
AA1
100
DictionaryVariables
280
     0
  1

  0
XRECORD
  5
A98
102
{ACAD_REACTORS
330
A96
102
}
330
A96
100
AcDbXrecord
280
     1
  0
DICTIONARY
  5
AAD
330
A92
100
AcDbDictionary
280
     1
281
     1
  3
ACAD_XREC_ROUNDTRIP
360
AAE
  0
DICTIONARY
  5
AAB
330
A91
100
AcDbDictionary
280
     1
281
     1
  3
ACAD_XREC_ROUNDTRIP
360
AAC
  0
XRECORD
  5
AAE
102
{ACAD_REACTORS
330
AAD
102
}
330
AAD
100
AcDbXrecord
280
     1
102
SHADEPLOT
 70
     0
102
SHADEPLOTRESLEVEL
 70
     2
102
SHADEPLOTCUSTOMDPI
 70
   300
  0
XRECORD
  5
AAC
102
{ACAD_REACTORS
330
AAB
102
}
330
AAB
100
AcDbXrecord
280
     1
102
SHADEPLOT
 70
     0
102
SHADEPLOTRESLEVEL
 70
     2
102
SHADEPLOTCUSTOMDPI
 70
   300
  0
ENDSEC
  0
EOF
