  0
SECTION
  2
HEADER
  9
$ACADVER
  1
AC1018
  9
$ACADMAINTVER
 70
     0
  9
$DWGCODEPAGE
  3
ANSI_1252
  9
$INSBASE
 10
0.0
 20
0.0
 30
0.0
  9
$EXTMIN
 10
379.8284226402399
 20
-311.407460135366
 30
-0.0000000000000002
  9
$EXTMAX
 10
1549.915099188878
 20
1031.857628360804
 30
0.0000000000000043
  9
$LIMMIN
 10
0.0
 20
0.0
  9
$LIMMAX
 10
12.0
 20
9.0
  9
$ORTHOMODE
 70
     0
  9
$REGENMODE
 70
     1
  9
$FILLMODE
 70
     1
  9
$QTEXTMODE
 70
     0
  9
$MIRRTEXT
 70
     1
  9
$LTSCALE
 40
1.0
  9
$ATTMODE
 70
     1
  9
$TEXTSIZE
 40
0.2
  9
$TRACEWID
 40
0.05
  9
$TEXTSTYLE
  7
Standard
  9
$CLAYER
  8
Default
  9
$CELTYPE
  6
ByLayer
  9
$CECOLOR
 62
   256
  9
$CELTSCALE
 40
1.0
  9
$DISPSILH
 70
     0
  9
$DIMSCALE
 40
1.0
  9
$DIMASZ
 40
0.18
  9
$DIMEXO
 40
0.0625
  9
$DIMDLI
 40
0.38
  9
$DIMRND
 40
0.0
  9
$DIMDLE
 40
0.0
  9
$DIMEXE
 40
0.18
  9
$DIMTP
 40
0.0
  9
$DIMTM
 40
0.0
  9
$DIMTXT
 40
0.18
  9
$DIMCEN
 40
0.09
  9
$DIMTSZ
 40
0.0
  9
$DIMTOL
 70
     0
  9
$DIMLIM
 70
     0
  9
$DIMTIH
 70
     1
  9
$DIMTOH
 70
     1
  9
$DIMSE1
 70
     0
  9
$DIMSE2
 70
     0
  9
$DIMTAD
 70
     0
  9
$DIMZIN
 70
     0
  9
$DIMBLK
  1

  9
$DIMASO
 70
     1
  9
$DIMSHO
 70
     1
  9
$DIMPOST
  1

  9
$DIMAPOST
  1

  9
$DIMALT
 70
     0
  9
$DIMALTD
 70
     2
  9
$DIMALTF
 40
25.4
  9
$DIMLFAC
 40
1.0
  9
$DIMTOFL
 70
     0
  9
$DIMTVP
 40
0.0
  9
$DIMTIX
 70
     0
  9
$DIMSOXD
 70
     0
  9
$DIMSAH
 70
     0
  9
$DIMBLK1
  1

  9
$DIMBLK2
  1

  9
$DIMSTYLE
  2
Standard
  9
$DIMCLRD
 70
     0
  9
$DIMCLRE
 70
     0
  9
$DIMCLRT
 70
     0
  9
$DIMTFAC
 40
1.0
  9
$DIMGAP
 40
0.09
  9
$DIMJUST
 70
     0
  9
$DIMSD1
 70
     0
  9
$DIMSD2
 70
     0
  9
$DIMTOLJ
 70
     1
  9
$DIMTZIN
 70
     0
  9
$DIMALTZ
 70
     0
  9
$DIMALTTZ
 70
     0
  9
$DIMUPT
 70
     0
  9
$DIMDEC
 70
     4
  9
$DIMTDEC
 70
     4
  9
$DIMALTU
 70
     2
  9
$DIMALTTD
 70
     2
  9
$DIMTXSTY
  7
Standard
  9
$DIMAUNIT
 70
     0
  9
$DIMADEC
 70
     0
  9
$DIMALTRND
 40
0.0
  9
$DIMAZIN
 70
     0
  9
$DIMDSEP
 70
    46
  9
$DIMATFIT
 70
     3
  9
$DIMFRAC
 70
     0
  9
$DIMLDRBLK
  1

  9
$DIMLUNIT
 70
     2
  9
$DIMLWD
 70
    -2
  9
$DIMLWE
 70
    -2
  9
$DIMTMOVE
 70
     2
  9
$LUNITS
 70
     2
  9
$LUPREC
 70
     2
  9
$SKETCHINC
 40
0.1
  9
$FILLETRAD
 40
0.5
  9
$AUNITS
 70
     0
  9
$AUPREC
 70
     0
  9
$MENU
  1
.
  9
$ELEVATION
 40
0.0
  9
$PELEVATION
 40
0.0
  9
$THICKNESS
 40
0.0
  9
$LIMCHECK
 70
     0
  9
$CHAMFERA
 40
0.5
  9
$CHAMFERB
 40
0.5
  9
$CHAMFERC
 40
1.0
  9
$CHAMFERD
 40
0.0
  9
$SKPOLY
 70
     0
  9
$TDCREATE
 40
2457945.661520243
  9
$TDUCREATE
 40
2457945.57818691
  9
$TDUPDATE
 40
2457945.661520255
  9
$TDUUPDATE
 40
2457945.578186921
  9
$TDINDWG
 40
0.0000000116
  9
$TDUSRTIMER
 40
0.0000000116
  9
$USRTIMER
 70
     1
  9
$ANGBASE
 50
0.0
  9
$ANGDIR
 70
     0
  9
$PDMODE
 70
     0
  9
$PDSIZE
 40
0.0
  9
$PLINEWID
 40
0.0
  9
$SPLFRAME
 70
     0
  9
$SPLINETYPE
 70
     6
  9
$SPLINESEGS
 70
     8
  9
$HANDSEED
  5
39A
  9
$SURFTAB1
 70
     6
  9
$SURFTAB2
 70
     6
  9
$SURFTYPE
 70
     6
  9
$SURFU
 70
     6
  9
$SURFV
 70
     6
  9
$UCSBASE
  2

  9
$UCSNAME
  2

  9
$UCSORG
 10
0.0
 20
0.0
 30
0.0
  9
$UCSXDIR
 10
1.0
 20
0.0
 30
0.0
  9
$UCSYDIR
 10
0.0
 20
1.0
 30
0.0
  9
$UCSORTHOREF
  2

  9
$UCSORTHOVIEW
 70
     0
  9
$UCSORGTOP
 10
0.0
 20
0.0
 30
0.0
  9
$UCSORGBOTTOM
 10
0.0
 20
0.0
 30
0.0
  9
$UCSORGLEFT
 10
0.0
 20
0.0
 30
0.0
  9
$UCSORGRIGHT
 10
0.0
 20
0.0
 30
0.0
  9
$UCSORGFRONT
 10
0.0
 20
0.0
 30
0.0
  9
$UCSORGBACK
 10
0.0
 20
0.0
 30
0.0
  9
$PUCSBASE
  2

  9
$PUCSNAME
  2

  9
$PUCSORG
 10
0.0
 20
0.0
 30
0.0
  9
$PUCSXDIR
 10
1.0
 20
0.0
 30
0.0
  9
$PUCSYDIR
 10
0.0
 20
1.0
 30
0.0
  9
$PUCSORTHOREF
  2

  9
$PUCSORTHOVIEW
 70
     0
  9
$PUCSORGTOP
 10
0.0
 20
0.0
 30
0.0
  9
$PUCSORGBOTTOM
 10
0.0
 20
0.0
 30
0.0
  9
$PUCSORGLEFT
 10
0.0
 20
0.0
 30
0.0
  9
$PUCSORGRIGHT
 10
0.0
 20
0.0
 30
0.0
  9
$PUCSORGFRONT
 10
0.0
 20
0.0
 30
0.0
  9
$PUCSORGBACK
 10
0.0
 20
0.0
 30
0.0
  9
$USERI1
 70
     0
  9
$USERI2
 70
     0
  9
$USERI3
 70
     0
  9
$USERI4
 70
     0
  9
$USERI5
 70
     0
  9
$USERR1
 40
0.0
  9
$USERR2
 40
0.0
  9
$USERR3
 40
0.0
  9
$USERR4
 40
0.0
  9
$USERR5
 40
0.0
  9
$WORLDVIEW
 70
     1
  9
$SHADEDGE
 70
     3
  9
$SHADEDIF
 70
    70
  9
$TILEMODE
 70
     1
  9
$MAXACTVP
 70
    64
  9
$PINSBASE
 10
0.0
 20
0.0
 30
0.0
  9
$PLIMCHECK
 70
     0
  9
$PEXTMIN
 10
1.000000000000000E+20
 20
1.000000000000000E+20
 30
1.000000000000000E+20
  9
$PEXTMAX
 10
-1.000000000000000E+20
 20
-1.000000000000000E+20
 30
-1.000000000000000E+20
  9
$PLIMMIN
 10
0.0
 20
0.0
  9
$PLIMMAX
 10
12.0
 20
9.0
  9
$UNITMODE
 70
     0
  9
$VISRETAIN
 70
     1
  9
$PLINEGEN
 70
     0
  9
$PSLTSCALE
 70
     1
  9
$TREEDEPTH
 70
  3020
  9
$CMLSTYLE
  2
Standard
  9
$CMLJUST
 70
     0
  9
$CMLSCALE
 40
1.0
  9
$PROXYGRAPHICS
 70
     1
  9
$MEASUREMENT
 70
     0
  9
$CELWEIGHT
370
    -1
  9
$ENDCAPS
280
     0
  9
$JOINSTYLE
280
     0
  9
$LWDISPLAY
290
     0
  9
$INSUNITS
 70
     4
  9
$HYPERLINKBASE
  1

  9
$STYLESHEET
  1

  9
$XEDIT
290
     1
  9
$CEPSNTYPE
380
     0
  9
$PSTYLEMODE
290
     1
  9
$FINGERPRINTGUID
  2
{0623DC5E-4540-4467-8007-361F5A94E9C7}
  9
$VERSIONGUID
  2
{FAEB1C32-E019-11D5-929B-00C0DF256EC4}
  9
$EXTNAMES
290
     1
  9
$PSVPSCALE
 40
0.0
  9
$OLESTARTUP
290
     0
  9
$SORTENTS
280
   127
  9
$INDEXCTL
280
     0
  9
$HIDETEXT
280
     1
  9
$XCLIPFRAME
290
     0
  9
$HALOGAP
280
     0
  9
$OBSCOLOR
 70
   257
  9
$OBSLTYPE
280
     0
  9
$INTERSECTIONDISPLAY
280
     0
  9
$INTERSECTIONCOLOR
 70
   257
  9
$DIMASSOC
280
     2
  9
$PROJECTNAME
  1

  0
ENDSEC
  0
SECTION
  2
CLASSES
  0
CLASS
  1
ACDBDICTIONARYWDFLT
  2
AcDbDictionaryWithDefault
  3
ObjectDBX Classes
 90
        0
 91
        4
280
     0
281
     0
  0
CLASS
  1
VISUALSTYLE
  2
AcDbVisualStyle
  3
ObjectDBX Classes
 90
     4095
 91
        4
280
     0
281
     0
  0
CLASS
  1
SCALE
  2
AcDbScale
  3
ObjectDBX Classes
 90
     1153
 91
        4
280
     0
281
     0
  0
CLASS
  1
DICTIONARYVAR
  2
AcDbDictionaryVar
  3
ObjectDBX Classes
 90
        0
 91
        4
280
     0
281
     0
  0
ENDSEC
  0
SECTION
  2
TABLES
  0
TABLE
  2
VPORT
  5
8
330
0
100
AcDbSymbolTable
 70
     1
  0
VPORT
  5
29
330
8
100
AcDbSymbolTableRecord
100
AcDbViewportTableRecord
  2
*Active
 70
     0
 10
0.0
 20
0.0
 11
1.0
 21
1.0
 12
964.8717609145591
 22
362.7779639848569
 13
0.0
 23
0.0
 14
0.5
 24
0.5
 15
0.5
 25
0.5
 16
0.0
 26
0.0
 36
1.0
 17
0.0
 27
0.0
 37
0.0
 40
1364.922515326931
 41
0.8744001191845987
 42
50.0
 43
0.0
 44
0.0
 50
0.0
 51
0.0
 71
     0
 72
   100
 73
     1
 74
     3
 75
     0
 76
     0
 77
     0
 78
     0
281
     0
 65
     1
110
0.0
120
0.0
130
0.0
111
1.0
121
0.0
131
0.0
112
0.0
122
1.0
132
0.0
 79
     0
146
0.0
  0
ENDTAB
  0
TABLE
  2
LTYPE
  5
5
330
0
100
AcDbSymbolTable
 70
     6
  0
LTYPE
  5
14
330
5
100
AcDbSymbolTableRecord
100
AcDbLinetypeTableRecord
  2
ByBlock
 70
     0
  3

 72
    65
 73
     0
 40
0.0
  0
LTYPE
  5
15
330
5
100
AcDbSymbolTableRecord
100
AcDbLinetypeTableRecord
  2
ByLayer
 70
     0
  3

 72
    65
 73
     0
 40
0.0
  0
LTYPE
  5
16
330
5
100
AcDbSymbolTableRecord
100
AcDbLinetypeTableRecord
  2
Continuous
 70
     0
  3
Solid line
 72
    65
 73
     0
 40
0.0
  0
LTYPE
  5
9C
330
5
100
AcDbSymbolTableRecord
100
AcDbLinetypeTableRecord
  2
AI-Linetype-1
 70
     0
  3

 72
    65
 73
     2
 40
15.70984400250497
 49
7.854922001252484
 74
     0
 49
-7.854922001252484
 74
     0
  0
LTYPE
  5
9E
330
5
100
AcDbSymbolTableRecord
100
AcDbLinetypeTableRecord
  2
AI-Linetype-2
 70
     0
  3

 72
    65
 73
     2
 40
15.70984400250497
 49
7.854922001252484
 74
     0
 49
-7.854922001252484
 74
     0
  0
LTYPE
  5
A4
330
5
100
AcDbSymbolTableRecord
100
AcDbLinetypeTableRecord
  2
AI-Linetype-3
 70
     0
  3

 72
    65
 73
     2
 40
15.70984400250497
 49
7.854922001252484
 74
     0
 49
-7.854922001252484
 74
     0
  0
LTYPE
  5
A6
330
5
100
AcDbSymbolTableRecord
100
AcDbLinetypeTableRecord
  2
AI-Linetype-4
 70
     0
  3

 72
    65
 73
     2
 40
15.70984400250497
 49
7.854922001252484
 74
     0
 49
-7.854922001252484
 74
     0
  0
LTYPE
  5
AB
330
5
100
AcDbSymbolTableRecord
100
AcDbLinetypeTableRecord
  2
AI-Linetype-5
 70
     0
  3

 72
    65
 73
     2
 40
15.70984400250497
 49
7.854922001252484
 74
     0
 49
-7.854922001252484
 74
     0
  0
ENDTAB
  0
TABLE
  2
LAYER
  5
2
330
0
100
AcDbSymbolTable
 70
     2
  0
LAYER
  5
10
330
2
100
AcDbSymbolTableRecord
100
AcDbLayerTableRecord
  2
0
 70
     0
 62
     7
  6
Continuous
370
    -3
390
F
  0
LAYER
  5
3B
330
2
100
AcDbSymbolTableRecord
100
AcDbLayerTableRecord
  2
Default
 70
     0
 62
     7
  6
Continuous
370
    -3
390
F
  0
ENDTAB
  0
TABLE
  2
STYLE
  5
3
330
0
100
AcDbSymbolTable
 70
     1
  0
STYLE
  5
11
330
3
100
AcDbSymbolTableRecord
100
AcDbTextStyleTableRecord
  2
Standard
 70
     0
 40
0.0
 41
1.0
 50
0.0
 71
     0
 42
0.2
  3
txt
  4

  0
ENDTAB
  0
TABLE
  2
VIEW
  5
6
330
0
100
AcDbSymbolTable
 70
     0
  0
ENDTAB
  0
TABLE
  2
UCS
  5
7
330
0
100
AcDbSymbolTable
 70
     0
  0
ENDTAB
  0
TABLE
  2
APPID
  5
9
330
0
100
AcDbSymbolTable
 70
     1
  0
APPID
  5
12
330
9
100
AcDbSymbolTableRecord
100
AcDbRegAppTableRecord
  2
ACAD
 70
     0
  0
ENDTAB
  0
TABLE
  2
DIMSTYLE
  5
A
330
0
100
AcDbSymbolTable
 70
     1
100
AcDbDimStyleTable
  0
DIMSTYLE
105
27
330
A
100
AcDbSymbolTableRecord
100
AcDbDimStyleTableRecord
  2
Standard
 70
     0
340
11
  0
ENDTAB
  0
TABLE
  2
BLOCK_RECORD
  5
1
330
0
100
AcDbSymbolTable
 70
     1
  0
BLOCK_RECORD
  5
1F
330
1
100
AcDbSymbolTableRecord
100
AcDbBlockTableRecord
  2
*Model_Space
340
22
  0
BLOCK_RECORD
  5
1B
330
1
100
AcDbSymbolTableRecord
100
AcDbBlockTableRecord
  2
*Paper_Space
340
1E
  0
BLOCK_RECORD
  5
23
330
1
100
AcDbSymbolTableRecord
100
AcDbBlockTableRecord
  2
*Paper_Space0
340
26
  0
ENDTAB
  0
ENDSEC
  0
SECTION
  2
BLOCKS
  0
BLOCK
  5
20
330
1F
100
AcDbEntity
  8
0
100
AcDbBlockBegin
  2
*Model_Space
 70
     0
 10
0.0
 20
0.0
 30
0.0
  3
*Model_Space
  1

  0
ENDBLK
  5
21
330
1F
100
AcDbEntity
  8
0
100
AcDbBlockEnd
  0
BLOCK
  5
1C
330
1B
100
AcDbEntity
 67
     1
  8
0
100
AcDbBlockBegin
  2
*Paper_Space
 70
     0
 10
0.0
 20
0.0
 30
0.0
  3
*Paper_Space
  1

  0
ENDBLK
  5
1D
330
1B
100
AcDbEntity
 67
     1
  8
0
100
AcDbBlockEnd
  0
BLOCK
  5
24
330
23
100
AcDbEntity
  8
0
100
AcDbBlockBegin
  2
*Paper_Space0
 70
     0
 10
0.0
 20
0.0
 30
0.0
  3
*Paper_Space0
  1

  0
ENDBLK
  5
25
330
23
100
AcDbEntity
  8
0
100
AcDbBlockEnd
  0
ENDSEC
  0
SECTION
  2
ENTITIES
  0
LINE
  5
3C
330
1F
100
AcDbEntity
  8
Default
  6
Continuous
370
    18
100
AcDbLine
 10
426.6742996372251
 20
323.2356622454699
 30
0.0
 11
424.6742996372251
 21
323.2356622454699
 31
0.0
  0
LINE
  5
3D
330
1F
100
AcDbEntity
  8
Default
  6
Continuous
370
    18
100
AcDbLine
 10
500.1742996372251
 20
278.13955524547
 30
0.0
 11
500.1742996372251
 21
277.1356622454699
 31
0.0
  0
LINE
  5
3E
330
1F
100
AcDbEntity
  8
Default
  6
Continuous
370
    18
100
AcDbLine
 10
498.1916016372251
 20
307.2356622454699
 30
0.0
 11
449.1742996372251
 21
307.2356622454699
 31
0.0
  0
LINE
  5
3F
330
1F
100
AcDbEntity
  8
Default
  6
Continuous
370
    18
100
AcDbLine
 10
424.6742996372251
 20
227.2356622454699
 30
0.0
 11
426.6742996372251
 21
227.2356622454699
 31
0.0
  0
LINE
  5
40
330
1F
100
AcDbEntity
  8
Default
  6
Continuous
370
    13
100
AcDbLine
 10
427.7516076372251
 20
226.2820322454699
 30
0.0
 11
427.7518516372251
 21
226.2816102454699
 31
0.0
  0
LINE
  5
41
330
1F
100
AcDbEntity
  8
Default
  6
Continuous
370
    18
100
AcDbLine
 10
500.1742996372251
 20
318.2356622454699
 30
0.0
 11
500.1742996372251
 21
309.19636724547
 31
0.0
  0
LINE
  5
42
330
1F
100
AcDbEntity
  8
Default
  6
Continuous
370
    18
100
AcDbLine
 10
520.1742996372251
 20
277.1356622454699
 30
0.0
 11
520.1742996372251
 21
318.2356622454699
 31
0.0
  0
LINE
  5
43
330
1F
100
AcDbEntity
  8
Default
  6
Continuous
370
    13
100
AcDbLine
 10
442.2790146372251
 20
323.2936692454699
 30
0.0
 11
442.2790146372251
 21
226.5342262454699
 31
0.0
  0
LINE
  5
44
330
1F
100
AcDbEntity
  8
Default
  6
Continuous
370
    18
100
AcDbLine
 10
448.1742996372251
 20
317.93801224547
 30
0.0
 11
448.1742996372251
 21
232.5333122454699
 31
0.0
  0
LINE
  5
45
330
1F
100
AcDbEntity
  8
Default
  6
Continuous
370
    18
100
AcDbLine
 10
426.6742996372251
 20
323.56645924547
 30
0.0
 11
426.6742996372251
 21
226.2618452454699
 31
0.0
  0
LINE
  5
46
330
1F
100
AcDbEntity
  8
Default
  6
Continuous
370
    13
100
AcDbLine
 10
500.9040516372251
 20
304.7356622454699
 30
0.0
 11
499.0500026372251
 21
304.7356622454699
 31
0.0
  0
LINE
  5
47
330
1F
100
AcDbEntity
  8
Default
  6
Continuous
370
    13
100
AcDbLine
 10
500.9040516372251
 20
281.22975024547
 30
0.0
 11
499.0500026372251
 21
281.22975024547
 31
0.0
  0
LINE
  5
48
330
1F
100
AcDbEntity
  8
Default
  6
Continuous
370
    13
100
AcDbLine
 10
448.1742996372251
 20
304.7356622454699
 30
0.0
 11
449.1742996372251
 21
304.7356622454699
 31
0.0
  0
LINE
  5
49
330
1F
100
AcDbEntity
  8
Default
  6
Continuous
370
    18
100
AcDbLine
 10
447.6550086372251
 20
320.37974924547
 30
0.0
 11
447.6553346372251
 21
320.3789672454699
 31
0.0
  0
LINE
  5
4A
330
1F
100
AcDbEntity
  8
Default
  6
Continuous
370
    18
100
AcDbLine
 10
494.8707106372251
 20
279.14572824547
 30
0.0
 11
457.9341246372251
 21
260.3255972454699
 31
0.0
  0
LINE
  5
4B
330
1F
100
AcDbEntity
  8
Default
  6
Continuous
370
    13
100
AcDbLine
 10
500.1742996372251
 20
277.1356622454699
 30
0.0
 11
520.1742996372251
 21
277.1356622454699
 31
0.0
  0
LINE
  5
4C
330
1F
100
AcDbEntity
  8
Default
  6
Continuous
370
    18
100
AcDbLine
 10
453.3942196372251
 20
259.2356622454699
 30
0.0
 11
449.1742996372251
 21
259.2356622454699
 31
0.0
  0
LINE
  5
4D
330
1F
100
AcDbEntity
  8
Default
  6
Continuous
370
    18
100
AcDbLine
 10
424.6742996372251
 20
275.2356622454699
 30
0.0
 11
424.6742996372251
 21
323.2356622454699
 31
0.0
  0
LINE
  5
4E
330
1F
100
AcDbEntity
  8
Default
  6
Continuous
370
    18
100
AcDbLine
 10
424.6742996372251
 20
227.2356622454699
 30
0.0
 11
424.6742996372251
 21
275.2356622454699
 31
0.0
  0
LINE
  5
4F
330
1F
100
AcDbEntity
  8
Default
  6
Continuous
370
    13
100
AcDbLine
 10
457.4801346372251
 20
261.21660424547
 30
0.0
 11
494.4167206372251
 21
280.0367342454699
 31
0.0
  0
LINE
  5
50
330
1F
100
AcDbEntity
  8
Default
  6
Continuous
370
    13
100
AcDbLine
 10
449.1742996372251
 20
260.2356622454699
 30
0.0
 11
449.1742996372251
 21
259.2356622454699
 31
0.0
  0
LINE
  5
51
330
1F
100
AcDbEntity
  8
Default
  6
Continuous
370
    13
100
AcDbLine
 10
457.9341246372251
 20
260.3255972454699
 30
0.0
 11
457.4801346372251
 21
261.21660424547
 31
0.0
  0
LINE
  5
52
330
1F
100
AcDbEntity
  8
Default
  6
Continuous
370
    13
100
AcDbLine
 10
499.0500026372251
 20
281.22975024547
 30
0.0
 11
499.0500026372251
 21
304.7356622454699
 31
0.0
  0
LINE
  5
53
330
1F
100
AcDbEntity
  8
Default
  6
Continuous
370
    13
100
AcDbLine
 10
499.0500026372251
 20
304.7356622454699
 30
0.0
 11
449.1742996372251
 21
304.7356622454699
 31
0.0
  0
LINE
  5
54
330
1F
100
AcDbEntity
  8
Default
  6
Continuous
370
    13
100
AcDbLine
 10
449.1742996372251
 20
304.7356622454699
 30
0.0
 11
449.1742996372251
 21
307.2356622454699
 31
0.0
  0
LINE
  5
55
330
1F
100
AcDbEntity
  8
Default
  6
Continuous
370
    13
100
AcDbLine
 10
449.1742996372251
 20
304.7356622454699
 30
0.0
 11
449.1742996372251
 21
260.2356622454699
 31
0.0
  0
LINE
  5
56
330
1F
100
AcDbEntity
  8
Default
  6
Continuous
370
    13
100
AcDbLine
 10
449.1742996372251
 20
260.2356622454699
 30
0.0
 11
453.3942196372251
 21
260.2356622454699
 31
0.0
  0
LINE
  5
57
330
1F
100
AcDbEntity
  8
Default
  6
Continuous
370
    13
100
AcDbLine
 10
500.9040516372251
 20
304.7356622454699
 30
0.0
 11
500.9040516372251
 21
281.22975024547
 31
0.0
  0
LINE
  5
58
330
1F
100
AcDbEntity
  8
Default
  6
Continuous
370
    13
100
AcDbLine
 10
453.3942196372251
 20
259.2356622454699
 30
0.0
 11
453.3942196372251
 21
260.2356622454699
 31
0.0
  0
LINE
  5
59
330
1F
100
AcDbEntity
  8
Default
  6
Continuous
370
    18
100
AcDbLine
 10
510.0742996372251
 20
267.2356622454699
 30
0.0
 11
510.2742996372251
 21
267.2356622454699
 31
0.0
  0
LINE
  5
5A
330
1F
100
AcDbEntity
  8
Default
  6
Continuous
370
    13
100
AcDbLine
 10
448.1742996372251
 20
260.2356622454699
 30
0.0
 11
449.1742996372251
 21
260.2356622454699
 31
0.0
  0
LINE
  5
5B
330
1F
100
AcDbEntity
  8
Default
  6
Continuous
370
    13
100
AcDbLine
 10
494.8707106372251
 20
279.14572824547
 30
0.0
 11
494.4167206372251
 21
280.0367342454699
 31
0.0
  0
LINE
  5
5C
330
1F
100
AcDbEntity
  8
Default
  6
Continuous
370
    18
100
AcDbLine
 10
501.1742996372251
 20
319.2356622454699
 30
0.0
 11
519.1742996372251
 21
319.2356622454699
 31
0.0
  0
ARC
  5
5D
330
1F
100
AcDbEntity
  8
Default
  6
Continuous
370
    18
100
AcDbCircle
 10
501.1742996372251
 20
318.2356622454699
 30
0.0
 40
1.0
100
AcDbArc
 50
90.0
 51
180.0
  0
ARC
  5
5E
330
1F
100
AcDbEntity
  8
Default
  6
Continuous
370
    18
100
AcDbCircle
 10
519.1742996372251
 20
318.2356622454699
 30
0.0
 40
1.0
100
AcDbArc
 50
0.0
 51
90.0
  0
ARC
  5
5F
330
1F
100
AcDbEntity
  8
Default
  6
Continuous
370
    18
100
AcDbCircle
 10
442.1742996372251
 20
317.93801224547
 30
0.0
 40
6.0
100
AcDbArc
 50
0.0
 51
24.18319099999988
  0
ARC
  5
60
330
1F
100
AcDbEntity
  8
Default
  6
Continuous
370
    18
100
AcDbCircle
 10
442.1742996372251
 20
232.5333122454699
 30
0.0
 40
6.0
100
AcDbArc
 50
271.0000000000018
 51
0.0000000000018999
  0
ARC
  5
61
330
1F
100
AcDbEntity
  8
Default
  6
Continuous
370
    18
100
AcDbCircle
 10
510.2742996372251
 20
277.1356622454699
 30
0.0
 40
9.9
100
AcDbArc
 50
270.0
 51
0.0
  0
ARC
  5
62
330
1F
100
AcDbEntity
  8
Default
  6
Continuous
370
    18
100
AcDbCircle
 10
510.0742996372251
 20
277.1356622454699
 30
0.0
 40
9.9
100
AcDbArc
 50
180.0
 51
270.0
  0
ARC
  5
63
330
1F
100
AcDbEntity
  8
Default
  6
Continuous
370
    18
100
AcDbCircle
 10
449.1742996372251
 20
308.2356622454699
 30
0.0
 40
1.0
100
AcDbArc
 50
180.0
 51
270.0
  0
ARC
  5
64
330
1F
100
AcDbEntity
  8
Default
  6
Continuous
370
    18
100
AcDbCircle
 10
453.3942196372251
 20
269.2356622454699
 30
0.0
 40
10.0
100
AcDbArc
 50
270.0
 51
297.0
  0
ARC
  5
65
330
1F
100
AcDbEntity
  8
Default
  6
Continuous
370
    18
100
AcDbCircle
 10
449.1742996372251
 20
258.2356622454699
 30
0.0
 40
1.0
100
AcDbArc
 50
90.0
 51
180.0
  0
ARC
  5
66
330
1F
100
AcDbEntity
  8
Default
  6
Continuous
370
    13
100
AcDbCircle
 10
453.3942196372251
 20
269.2356622454699
 30
0.0
 40
9.000000000000002
100
AcDbArc
 50
270.0
 51
297.0000000000002
  0
ARC
  5
67
330
1F
100
AcDbEntity
  8
Default
  6
Continuous
370
    13
100
AcDbCircle
 10
499.4106156372251
 20
270.2356622454699
 30
0.0
 40
11.0
100
AcDbArc
 50
91.87866699999952
 51
116.9999999999994
  0
ARC
  5
68
330
1F
100
AcDbEntity
  8
Default
  6
Continuous
370
    18
100
AcDbCircle
 10
499.4106156372251
 20
270.2356622454699
 30
0.0
 40
10.0
100
AcDbArc
 50
98.20843199999881
 51
116.999999999999
  0
SPLINE
  5
69
330
1F
100
AcDbEntity
  8
Default
  6
Continuous
370
    18
100
AcDbSpline
210
0.0
220
0.0
230
1.0
 70
    12
 71
     2
 72
     6
 73
     3
 74
     0
 42
0.0000000001
 43
0.0000000001
 40
2.026776889121583
 40
2.026776889121583
 40
2.026776889121583
 40
3.141572810189948
 40
3.141572810189948
 40
3.141572810189948
 10
447.6451627968146
 20
320.4014933057986
 30
0.0
 41
0.8793161963335
 10
446.3422235865237
 20
323.2887370044153
 30
0.0
 41
0.7921312048177871
 10
443.175087982719
 20
323.3440761614842
 30
0.0
 41
0.9999926000287467
  0
SPLINE
  5
6A
330
1F
100
AcDbEntity
  8
Default
  6
Continuous
370
    13
100
AcDbSpline
210
0.0
220
0.0
230
1.0
 70
    12
 71
     2
 72
     6
 73
     3
 74
     0
 42
0.0000000001
 43
0.0000000001
 40
2.966387332535249
 40
2.966387332535249
 40
2.966387332535249
 40
3.141592653589793
 40
3.141592653589793
 40
3.141592653589793
 10
442.2790145263568
 20
323.2936691710834
 30
0.0
 41
0.9419496273480894
 10
442.2795946935889
 20
323.3597075968922
 30
0.0
 41
0.9673309330041423
 10
442.2790146694135
 20
323.3597177212519
 30
0.0
 41
1.0
  0
SPLINE
  5
6B
330
1F
100
AcDbEntity
  8
Default
  6
Continuous
370
    13
100
AcDbSpline
210
0.0
220
0.0
230
1.0
 70
    12
 71
     2
 72
     8
 73
     5
 74
     0
 42
0.0000000001
 43
0.0000000001
 40
1.417189414035516
 40
1.417189414035516
 40
1.417189414035516
 40
1.570796326794897
 40
1.570796326794897
 40
3.141592653589793
 40
3.141592653589793
 40
3.141592653589793
 10
500.2527311651197
 20
278.1537041076506
 30
0.0
 41
0.9483181300700855
 10
500.2524103075979
 20
278.2960535834309
 30
0.0
 41
0.9713582070809319
 10
500.2320831140844
 20
278.4369676254207
 30
0.0
 41
1.0
 10
499.9465339127772
 20
280.4164780834968
 30
0.0
 41
0.7071067811865476
 10
497.9828694359179
 20
280.1332147035461
 30
0.0
 41
1.0
  0
SPLINE
  5
6C
330
1F
100
AcDbEntity
  8
Default
  6
Continuous
370
    18
100
AcDbSpline
210
0.0
220
0.0
230
1.0
 70
     8
 71
     3
 72
    15
 73
    11
 74
     0
 42
0.0000000001
 43
0.0000000001
 40
0.0
 40
0.0
 40
0.0
 40
0.0
 40
0.0639646234208673
 40
0.1916651949219731
 40
0.3189625683069579
 40
0.4523684591412671
 40
0.5931411505258437
 40
0.7371066916563163
 40
0.8932854942826436
 40
1.0
 40
1.0
 40
1.0
 40
1.0
 10
500.1645819051163
 20
309.1974540158478
 30
0.0000000000000043
 10
500.1675336239965
 20
309.1312356942977
 30
0.0000000000000043
 10
500.1644577730402
 20
308.9346197565625
 30
0.0000000000000043
 10
500.0868543849973
 20
308.6121634239393
 30
0.0000000000000043
 10
499.9277696207528
 20
308.2443803162863
 30
0.0000000000000043
 10
499.6876725217854
 20
307.9049547819577
 30
0.0000000000000043
 10
499.3693396921934
 20
307.6111615297585
 30
0.0000000000000042
 10
498.9742799275937
 20
307.3834471284597
 30
0.0000000000000042
 10
498.5691328706491
 20
307.2573192230514
 30
0.0000000000000042
 10
498.3003604972195
 20
307.2409693599427
 30
0.0000000000000042
 10
498.1891263828666
 20
307.2439859263043
 30
0.0000000000000042
  0
SPLINE
  5
6D
330
1F
100
AcDbEntity
  8
Default
  6
Continuous
370
    18
100
AcDbSpline
210
0.0
220
0.0
230
1.0
 70
     8
 71
     3
 72
    19
 73
    15
 74
     0
 42
0.0000000001
 43
0.0000000001
 40
0.0
 40
0.0
 40
0.0
 40
0.0
 40
0.0122321123180294
 40
0.06834547118474
 40
0.0985840444781038
 40
0.1453457433546267
 40
0.2064670136773549
 40
0.3229807382713394
 40
0.437727251211852
 40
0.5413693860946566
 40
0.6565692926575559
 40
0.7768244509450349
 40
0.8993071833441489
 40
1.0
 40
1.0
 40
1.0
 40
1.0
 10
497.9036400146651
 20
280.1213017333025
 30
0.0000000000000041
 10
497.90474489305
 20
280.121495403872
 30
0.0000000000000041
 10
497.9145877127001
 20
280.1228926024149
 30
0.0000000000000041
 10
497.9561878202265
 20
280.1286977040214
 30
0.0000000000000042
 10
498.0673227334813
 20
280.1382703469038
 30
0.0000000000000042
 10
498.2278940168117
 20
280.1425575489226
 30
0.0000000000000042
 10
498.495909642303
 20
280.1229645498664
 30
0.0000000000000042
 10
498.8432767880521
 20
280.0406561862525
 30
0.0000000000000042
 10
499.2117550252238
 20
279.8652905162136
 30
0.0000000000000042
 10
499.5369121690061
 20
279.6220038267625
 30
0.0000000000000042
 10
499.812774205229
 20
279.3136158528679
 30
0.0000000000000043
 10
500.0269229769332
 20
278.9337731930269
 30
0.0000000000000043
 10
500.1523549079769
 20
278.5316737918222
 30
0.0000000000000043
 10
500.1689175836113
 20
278.2628596236437
 30
0.0000000000000043
 10
500.1644046652042
 20
278.1389653133525
 30
0.0000000000000043
  0
SPLINE
  5
6E
330
1F
100
AcDbEntity
  8
Default
  6
Continuous
370
    18
100
AcDbSpline
210
0.0
220
0.0
230
1.0
 70
    24
 71
     3
 72
    18
 73
    14
 74
     0
 42
0.0000000001
 43
0.0000000001
 40
0.0
 40
0.0
 40
0.0
 40
0.0
 40
0.0615643283510651
 40
0.0615643283510651
 40
0.1231286567021302
 40
0.1231286567021302
 40
0.2462573134042601
 40
0.2462573134042601
 40
0.49251462680852
 40
0.49251462680852
 40
0.98502925361704
 40
0.98502925361704
 40
1.0
 40
1.0
 40
1.0
 40
1.0
 10
442.279014368053
 20
323.3597173115585
 30
0.0000000000000007
 10
442.4327650408823
 20
323.3570335835815
 30
0.0000000000000008
 10
442.5213586751639
 20
323.3554871759428
 30
0.0000000000000008
 10
442.6515100439398
 20
323.3532153753504
 30
0.0000000000000008
 10
442.6984476320282
 20
323.3523960767026
 30
0.0000000000000008
 10
442.819909797848
 20
323.350275946712
 30
0.0000000000000008
 10
442.8734462933012
 20
323.3493414637078
 30
0.0000000000000008
 10
443.0061140374827
 20
323.3470257396193
 30
0.0000000000000008
 10
443.0538877941955
 20
323.3461918455939
 30
0.0000000000000008
 10
443.1589633206078
 20
323.3443577454581
 30
0.0000000000000008
 10
443.1750288956831
 20
323.3440773198021
 30
0.0000000000000008
 10
443.1750688909277
 20
323.3440766216825
 30
0.0000000000000008
 10
443.1750552382524
 20
323.3440768599908
 30
0.0000000000000008
 10
443.1750256952078
 20
323.3440773756665
 30
0.0000000000000008
  0
SPLINE
  5
6F
330
1F
100
AcDbEntity
  8
Default
  6
Continuous
370
    18
100
AcDbSpline
210
0.0
220
0.0
230
1.0
 70
     8
 71
     3
 72
    10
 73
     6
 74
     0
 42
0.0000000001
 43
0.0000000001
 40
0.0
 40
0.0
 40
0.0
 40
0.0
 40
0.2461546959923445
 40
0.2461546959923445
 40
1.0
 40
1.0
 40
1.0
 40
1.0
 10
497.8778515744285
 20
280.1175294944333
 30
0.0000000000000041
 10
497.8694427552796
 20
280.1162138141743
 30
0.0000000000000041
 10
497.865217407249
 20
280.1155280810183
 30
0.0000000000000041
 10
497.8652308249116
 20
280.1155302585752
 30
0.0000000000000041
 10
497.9048612706995
 20
280.1219618969794
 30
0.0000000000000041
 10
497.9828698283314
 20
280.1332148212749
 30
0.0000000000000042
  0
SPLINE
  5
70
330
1F
100
AcDbEntity
  8
Default
  6
Continuous
370
    13
100
AcDbSpline
210
0.0
220
0.0
230
1.0
 70
     8
 71
     3
 72
    16
 73
    12
 74
     0
 42
0.0000000001
 43
0.0000000001
 40
0.0
 40
0.0
 40
0.0
 40
0.0
 40
0.2014374018654962
 40
0.2014374018654962
 40
0.4064993010209497
 40
0.4064993010209497
 40
0.6230676135981551
 40
0.6230676135981551
 40
0.8438251275003361
 40
0.8438251275003361
 40
1.0
 40
1.0
 40
1.0
 40
1.0
 10
499.0500021987858
 20
304.7356625308943
 30
0.0000000000000042
 10
499.0500021987858
 20
305.005499675184
 30
0.0000000000000042
 10
499.015940655771
 20
305.2794940873666
 30
0.0000000000000042
 10
498.9000232377472
 20
305.7849536782111
 30
0.0000000000000042
 10
498.8167453325425
 20
306.0239976477749
 30
0.0000000000000042
 10
498.6345469411838
 20
306.453859373904
 30
0.0000000000000042
 10
498.5327097196322
 20
306.6478836418083
 30
0.0000000000000042
 10
498.3532970421653
 20
306.9619870091161
 30
0.0000000000000042
 10
498.2739220341849
 20
307.0850606894545
 30
0.0000000000000042
 10
498.1927266192355
 20
307.2086934334235
 30
0.0000000000000042
 10
498.1747344264137
 20
307.2352768824566
 30
0.0000000000000042
 10
498.1745378073164
 20
307.2354195420934
 30
0.0000000000000042
  0
SPLINE
  5
71
330
1F
100
AcDbEntity
  8
Default
  6
Continuous
370
    18
100
AcDbSpline
210
0.0
220
0.0
230
1.0
 70
    24
 71
     3
 72
    10
 73
     6
 74
     0
 42
0.0000000001
 43
0.0000000001
 40
0.0
 40
0.0
 40
0.0
 40
0.0
 40
0.0320415987386918
 40
0.0320415987386918
 40
1.0
 40
1.0
 40
1.0
 40
1.0
 10
426.6742999294293
 20
323.6320986152709
 30
-0.0000000000000002
 10
426.8409665961127
 20
323.6291894377825
 30
-0.0000000000000002
 10
427.0076332627794
 20
323.6262802602945
 30
-0.0000000000000002
 10
432.2092047576585
 20
323.5354864921227
 30
0.0000000000000001
 10
437.244109570603
 20
323.4476019017054
 30
0.0000000000000004
 10
442.279014368053
 20
323.3597173115585
 30
0.0000000000000007
  0
SPLINE
  5
72
330
1F
100
AcDbEntity
  8
Default
  6
Continuous
370
    13
100
AcDbSpline
210
0.0
220
0.0
230
1.0
 70
     8
 71
     3
 72
    10
 73
     6
 74
     0
 42
0.0000000001
 43
0.0000000001
 40
0.0
 40
0.0
 40
0.0
 40
0.0
 40
0.9978605801612049
 40
0.9978605801612049
 40
1.0
 40
1.0
 40
1.0
 40
1.0
 10
500.252732512937
 20
278.1537043631988
 30
0.0000000000000043
 10
500.2005556357062
 20
278.1446723933645
 30
0.0000000000000043
 10
500.1742891314816
 20
278.1395533269487
 30
0.0000000000000043
 10
500.1742996510819
 20
278.1395553771084
 30
0.0000000000000043
 10
500.1743006327178
 20
278.1395555683958
 30
0.0000000000000043
 10
500.1743016143573
 20
278.1395557596651
 30
0.0000000000000043
  0
SPLINE
  5
73
330
1F
100
AcDbEntity
  8
Default
  6
Continuous
370
    13
100
AcDbSpline
210
0.0
220
0.0
230
1.0
 70
     8
 71
     3
 72
    18
 73
    14
 74
     0
 42
0.0000000001
 43
0.0000000001
 40
0.0
 40
0.0
 40
0.0
 40
0.0
 40
0.0065189796668063
 40
0.0065189796668063
 40
0.2186747074765619
 40
0.2186747074765619
 40
0.3719134185308023
 40
0.3719134185308023
 40
0.6031418807804689
 40
0.6031418807804689
 40
0.8213590097760581
 40
0.8213590097760581
 40
1.0
 40
1.0
 40
1.0
 40
1.0
 10
500.9040518205597
 20
281.2297499330151
 30
0.0000000000000043
 10
500.9040518205597
 20
281.2200627445325
 30
0.0000000000000043
 10
500.9040360200369
 20
281.2103754644945
 30
0.0000000000000043
 10
500.9029863493878
 20
280.888528825155
 30
0.0000000000000043
 10
500.8850120190629
 20
280.5737619912611
 30
0.0000000000000043
 10
500.8294196676601
 20
280.0574103657596
 30
0.0000000000000043
 10
500.7984091475017
 20
279.8457370168683
 30
0.0000000000000043
 10
500.707828099512
 20
279.3475953503431
 30
0.0000000000000043
 10
500.6403914685552
 20
279.0699049018456
 30
0.0000000000000043
 10
500.5060891725618
 20
278.6203640897564
 30
0.0000000000000043
 10
500.4376233813451
 20
278.4370504837067
 30
0.0000000000000043
 10
500.3293998459604
 20
278.2178307319713
 30
0.0000000000000043
 10
500.2854875081936
 20
278.1593743485406
 30
0.0000000000000043
 10
500.252732512937
 20
278.1537043631988
 30
0.0000000000000043
  0
SPLINE
  5
74
330
1F
100
AcDbEntity
  8
Default
  6
Continuous
370
    13
100
AcDbSpline
210
0.0
220
0.0
230
1.0
 70
     8
 71
     3
 72
    10
 73
     6
 74
     0
 42
0.0000000001
 43
0.0000000001
 40
0.0
 40
0.0
 40
0.0
 40
0.0
 40
0.4996870922564346
 40
0.4996870922564346
 40
1.0
 40
1.0
 40
1.0
 40
1.0
 10
500.1743021679213
 20
309.2356555561838
 30
0.0000000000000043
 10
500.1750722310128
 20
309.2332915009553
 30
0.0000000000000043
 10
500.37765444305
 20
308.6249018164567
 30
0.0000000000000043
 10
500.7514352314209
 20
306.9226872573723
 30
0.0000000000000043
 10
500.9040518205597
 20
305.833842817467
 30
0.0000000000000043
 10
500.9040518205597
 20
304.7356625308943
 30
0.0000000000000043
  0
SPLINE
  5
75
330
1F
100
AcDbEntity
  8
Default
  6
Continuous
370
    13
100
AcDbSpline
210
0.0
220
0.0
230
1.0
 70
     8
 71
     3
 72
    18
 73
    14
 74
     0
 42
0.0000000001
 43
0.0000000001
 40
0.0
 40
0.0
 40
0.0
 40
0.0
 40
0.1910003038438912
 40
0.1910003038438912
 40
0.4423876300610377
 40
0.4423876300610377
 40
0.6883231315783995
 40
0.6883231315783995
 40
0.8278884252669969
 40
0.8278884252669969
 40
0.9484546995120365
 40
0.9484546995120365
 40
1.0
 40
1.0
 40
1.0
 40
1.0
 10
497.9828698283314
 20
280.1332148212749
 30
0.0000000000000042
 10
498.0359260782721
 20
280.1408683144572
 30
0.0000000000000042
 10
498.1094174631933
 20
280.1697864574771
 30
0.0000000000000042
 10
498.2891065362422
 20
280.2585906133596
 30
0.0000000000000042
 10
498.4019686796242
 20
280.3268453375799
 30
0.0000000000000042
 10
498.6194824761539
 20
280.4876108566467
 30
0.0000000000000042
 10
498.7272208924409
 20
280.5813737620614
 30
0.0000000000000042
 10
498.8737572309888
 20
280.7584920939967
 30
0.0000000000000042
 10
498.9228148121632
 20
280.8301125472956
 30
0.0000000000000042
 10
498.9954481424908
 20
280.9766445540151
 30
0.0000000000000042
 10
499.0219585943642
 20
281.0513104791731
 30
0.0000000000000042
 10
499.043372077791
 20
281.1617132326077
 30
0.0000000000000042
 10
499.0477764969153
 20
281.1957127561716
 30
0.0000000000000042
 10
499.0500021987857
 20
281.2297499330151
 30
0.0000000000000042
  0
MTEXT
  5
76
330
1F
100
AcDbEntity
  8
Default
100
AcDbMText
 10
1308.256072618587
 20
865.4507717691517
 30
0.0
 40
15.31727923266001
 41
49.08911175768148
 71
     7
 72
     1
  1
\fFrutiger LT 45 Light;15\U+FF70
 73
     2
 44
0.9638554216867471
  0
POLYLINE
  5
99
330
1F
100
AcDbEntity
  8
Default
  6
AI-Linetype-1
370
   100
100
AcDb2dPolyline
 66
     1
 10
0.0
 20
0.0
 30
0.0
  0
VERTEX
  5
9A
330
99
100
AcDbEntity
  8
Default
  6
AI-Linetype-1
370
   100
100
AcDbVertex
100
AcDb2dVertex
 10
1158.693641774632
 20
946.7276149966228
 30
0.0
  0
VERTEX
  5
9B
330
99
100
AcDbEntity
  8
Default
  6
AI-Linetype-1
370
   100
100
AcDbVertex
100
AcDb2dVertex
 10
1276.516501709391
 20
978.8395507910727
 30
0.0
  0
SEQEND
  5
9D
330
99
100
AcDbEntity
  8
Default
  6
AI-Linetype-1
370
   100
  0
SPLINE
  5
9F
330
1F
100
AcDbEntity
  8
Default
  6
AI-Linetype-2
370
   100
100
AcDbSpline
210
0.0
220
0.0
230
1.0
 70
     8
 71
     3
 72
    11
 73
     7
 74
     0
 42
0.0000000001
 43
0.0000000001
 40
0.0
 40
0.0
 40
0.0
 40
0.0
 40
1.0
 40
1.0
 40
1.0
 40
2.0
 40
2.0
 40
2.0
 40
2.0
 10
1276.516501709391
 20
978.8395507910727
 30
0.0
 10
1297.401267979923
 20
915.3992082081932
 30
0.0
 10
1297.977508477702
 20
883.646704220494
 30
0.0
 10
1297.977508477702
 20
813.2427969937771
 30
0.0
 10
1297.977508477702
 20
793.0770739628388
 30
0.0
 10
1297.02980122512
 20
773.0836123525269
 30
0.0
 10
1295.186119033969
 20
753.3698285648588
 30
0.0
  0
MTEXT
  5
A0
330
1F
100
AcDbEntity
  8
Default
100
AcDbMText
 10
590.748276846267
 20
1005.232741620709
 30
0.0
 40
15.31727923265891
 41
49.08911175767796
 71
     7
 72
     1
  1
\fFrutiger LT 45 Light;15\U+FF70
 73
     2
 44
0.9638554216867471
  0
POLYLINE
  5
A1
330
1F
100
AcDbEntity
  8
Default
  6
AI-Linetype-3
370
   100
100
AcDb2dPolyline
 66
     1
 10
0.0
 20
0.0
 30
0.0
  0
VERTEX
  5
A2
330
A1
100
AcDbEntity
  8
Default
  6
AI-Linetype-3
370
   100
100
AcDbVertex
100
AcDb2dVertex
 10
647.336602587404
 20
871.1603558033594
 30
0.0
  0
VERTEX
  5
A3
330
A1
100
AcDbEntity
  8
Default
  6
AI-Linetype-3
370
   100
100
AcDbVertex
100
AcDb2dVertex
 10
676.7209162001878
 20
980.2955998792904
 30
0.0
  0
SEQEND
  5
A5
330
A1
100
AcDbEntity
  8
Default
  6
AI-Linetype-3
370
   100
  0
SPLINE
  5
A7
330
1F
100
AcDbEntity
  8
Default
  6
AI-Linetype-4
370
   100
100
AcDbSpline
210
0.0
220
0.0
230
1.0
 70
     8
 71
     3
 72
     8
 73
     4
 74
     0
 42
0.0000000001
 43
0.0000000001
 40
0.0
 40
0.0
 40
0.0
 40
0.0
 40
1.0
 40
1.0
 40
1.0
 40
1.0
 10
509.6963146108561
 20
1003.876913017862
 30
0.0
 10
566.2896698825226
 20
1006.336712698846
 30
0.0
 10
622.590953131312
 20
995.8979220853871
 30
0.0
 10
676.7248679741748
 20
980.0875928666883
 30
0.0
  0
POLYLINE
  5
A8
330
1F
100
AcDbEntity
  8
Default
  6
AI-Linetype-5
370
   100
100
AcDb2dPolyline
 66
     1
 10
0.0
 20
0.0
 30
0.0
  0
VERTEX
  5
A9
330
A8
100
AcDbEntity
  8
Default
  6
AI-Linetype-5
370
   100
100
AcDbVertex
100
AcDb2dVertex
 10
501.5412901098572
 20
555.0085573869428
 30
0.0
  0
VERTEX
  5
AA
330
A8
100
AcDbEntity
  8
Default
  6
AI-Linetype-5
370
   100
100
AcDbVertex
100
AcDb2dVertex
 10
509.9801238335782
 20
1003.821228929859
 30
0.0
  0
SEQEND
  5
AC
330
A8
100
AcDbEntity
  8
Default
  6
AI-Linetype-5
370
   100
  0
SPLINE
  5
AD
330
1F
100
AcDbEntity
  8
Default
370
   100
100
AcDbSpline
210
0.0
220
0.0
230
1.0
 70
     8
 71
     3
 72
     8
 73
     4
 74
     0
 42
0.0000000001
 43
0.0000000001
 40
0.0
 40
0.0
 40
0.0
 40
0.0
 40
1.0
 40
1.0
 40
1.0
 40
1.0
 10
515.6196645655901
 20
353.0078819928431
 30
0.0
 10
515.6196645655901
 20
354.3956731667358
 30
0.0
 10
515.4957225632621
 20
355.5754573280255
 30
0.0
 10
515.2313129582959
 20
356.939178605814
 30
0.0
  0
POLYLINE
  5
AE
330
1F
100
AcDbEntity
  8
Default
370
   100
100
AcDb2dPolyline
 66
     1
 10
0.0
 20
0.0
 30
0.0
  0
VERTEX
  5
AF
330
AE
100
AcDbEntity
  8
Default
370
   100
100
AcDbVertex
100
AcDb2dVertex
 10
503.3810205270207
 20
319.2356622454699
 30
0.0
  0
VERTEX
  5
B0
330
AE
100
AcDbEntity
  8
Default
370
   100
100
AcDbVertex
100
AcDb2dVertex
 10
516.9675787474295
 20
319.2356622454699
 30
0.0
  0
SEQEND
  5
B1
330
AE
100
AcDbEntity
  8
Default
370
   100
  0
POLYLINE
  5
B2
330
1F
100
AcDbEntity
  8
Default
370
   100
100
AcDb2dPolyline
 66
     1
 10
0.0
 20
0.0
 30
0.0
  0
VERTEX
  5
B3
330
B2
100
AcDbEntity
  8
Default
370
   100
100
AcDbVertex
100
AcDb2dVertex
 10
553.4909516943031
 20
48.69470031183027
 30
0.0
  0
VERTEX
  5
B4
330
B2
100
AcDbEntity
  8
Default
370
   100
100
AcDbVertex
100
AcDb2dVertex
 10
520.7429599139929
 20
48.69470031183027
 30
0.0
  0
SEQEND
  5
B5
330
B2
100
AcDbEntity
  8
Default
370
   100
  0
POLYLINE
  5
B6
330
1F
100
AcDbEntity
  8
Default
370
   100
100
AcDb2dPolyline
 66
     1
 10
0.0
 20
0.0
 30
0.0
  0
VERTEX
  5
B7
330
B6
100
AcDbEntity
  8
Default
370
   100
100
AcDbVertex
100
AcDb2dVertex
 10
552.0111919621614
 20
59.38568595611378
 30
0.0
  0
VERTEX
  5
B8
330
B6
100
AcDbEntity
  8
Default
370
   100
100
AcDbVertex
100
AcDb2dVertex
 10
520.7429599139929
 20
59.38568595611378
 30
0.0
  0
SEQEND
  5
B9
330
B6
100
AcDbEntity
  8
Default
370
   100
  0
POLYLINE
  5
BA
330
1F
100
AcDbEntity
  8
Default
370
   100
100
AcDb2dPolyline
 66
     1
 10
0.0
 20
0.0
 30
0.0
  0
VERTEX
  5
BB
330
BA
100
AcDbEntity
  8
Default
370
   100
100
AcDbVertex
100
AcDb2dVertex
 10
937.3831616700178
 20
39.19212088117365
 30
0.0
  0
VERTEX
  5
BC
330
BA
100
AcDbEntity
  8
Default
370
   100
100
AcDbVertex
100
AcDb2dVertex
 10
553.4388601281072
 20
39.19212088117365
 30
0.0
  0
SEQEND
  5
BD
330
BA
100
AcDbEntity
  8
Default
370
   100
  0
POLYLINE
  5
BE
330
1F
100
AcDbEntity
  8
Default
370
   100
100
AcDb2dPolyline
 66
     1
 10
0.0
 20
0.0
 30
0.0
  0
VERTEX
  5
BF
330
BE
100
AcDbEntity
  8
Default
370
   100
100
AcDbVertex
100
AcDb2dVertex
 10
552.6269501998141
 20
40.09204759372824
 30
0.0
  0
VERTEX
  5
C0
330
BE
100
AcDbEntity
  8
Default
370
   100
100
AcDbVertex
100
AcDb2dVertex
 10
552.6269501998141
 20
48.69470031183027
 30
0.0
  0
SEQEND
  5
C1
330
BE
100
AcDbEntity
  8
Default
370
   100
  0
SPLINE
  5
C2
330
1F
100
AcDbEntity
  8
Default
370
   100
100
AcDbSpline
210
0.0
220
0.0
230
1.0
 70
     8
 71
     3
 72
     8
 73
     4
 74
     0
 42
0.0000000001
 43
0.0000000001
 40
0.0
 40
0.0
 40
0.0
 40
0.0
 40
1.0
 40
1.0
 40
1.0
 40
1.0
 10
552.0111919621614
 20
59.38568595611378
 30
0.0
 10
552.7189187580631
 20
59.38568595611378
 30
0.0
 10
553.2754003859064
 20
59.79343718116343
 30
0.0
 10
553.5153808425881
 20
60.44907241086912
 30
0.0
  0
POLYLINE
  5
C3
330
1F
100
AcDbEntity
  8
Default
370
   100
100
AcDb2dPolyline
 66
     1
 10
0.0
 20
0.0
 30
0.0
  0
VERTEX
  5
C4
330
C3
100
AcDbEntity
  8
Default
370
   100
100
AcDbVertex
100
AcDb2dVertex
 10
552.0111919621614
 20
59.38568595611378
 30
0.0
  0
VERTEX
  5
C5
330
C3
100
AcDbEntity
  8
Default
370
   100
100
AcDbVertex
100
AcDb2dVertex
 10
552.0111919621614
 20
48.69470031183027
 30
0.0
  0
SEQEND
  5
C6
330
C3
100
AcDbEntity
  8
Default
370
   100
  0
SPLINE
  5
C7
330
1F
100
AcDbEntity
  8
Default
370
   100
100
AcDbSpline
210
0.0
220
0.0
230
1.0
 70
    11
 71
     3
 72
    20
 73
    16
 74
     0
 42
0.0000000001
 43
0.0000000001
 40
0.0
 40
0.0
 40
0.0
 40
0.0
 40
1.0
 40
1.0
 40
1.0
 40
2.0
 40
2.0
 40
2.0
 40
3.0
 40
3.0
 40
3.0
 40
4.0
 40
4.0
 40
4.0
 40
5.0
 40
5.0
 40
5.0
 40
5.0
 10
505.8250131120559
 20
54.03857649915881
 30
0.0
 10
505.8250131120559
 20
55.83807067208909
 30
0.0
 10
507.2803436959126
 20
57.28190518616429
 30
0.0
 10
509.0482236769441
 20
57.28190518616429
 30
0.0
 10
510.8401735540798
 20
57.28190518616429
 30
0.0
 10
512.271793494013
 20
55.83807067208909
 30
0.0
 10
512.271793494013
 20
54.03857649915881
 30
0.0
 10
512.271793494013
 20
52.28219258790887
 30
0.0
 10
510.8401735540798
 20
50.83476555202651
 30
0.0
 10
509.0482236769441
 20
50.83476555202651
 30
0.0
 10
507.2803436959126
 20
50.83476555202651
 30
0.0
 10
505.8250131120559
 20
52.28219258790887
 30
0.0
 10
505.8250131120559
 20
54.03857649915881
 30
0.0
 10
505.8250131120559
 20
54.03857649915881
 30
0.0
 10
505.8250131120559
 20
54.03857649915881
 30
0.0
 10
505.8250131120559
 20
54.03857649915881
 30
0.0
  0
POLYLINE
  5
C8
330
1F
100
AcDbEntity
  8
Default
370
   100
100
AcDb2dPolyline
 66
     1
 10
0.0
 20
0.0
 30
0.0
  0
VERTEX
  5
C9
330
C8
100
AcDbEntity
  8
Default
370
   100
100
AcDbVertex
100
AcDb2dVertex
 10
475.3399508177278
 20
80.19105749471873
 30
0.0
  0
VERTEX
  5
CA
330
C8
100
AcDbEntity
  8
Default
370
   100
100
AcDbVertex
100
AcDb2dVertex
 10
496.9694468587687
 20
58.56156145367731
 30
0.0
  0
SEQEND
  5
CB
330
C8
100
AcDbEntity
  8
Default
370
   100
  0
POLYLINE
  5
CC
330
1F
100
AcDbEntity
  8
Default
370
   100
100
AcDb2dPolyline
 66
     1
 10
0.0
 20
0.0
 30
0.0
  0
VERTEX
  5
CD
330
CC
100
AcDbEntity
  8
Default
370
   100
100
AcDbVertex
100
AcDb2dVertex
 10
475.3399508177278
 20
81.60722959088343
 30
0.0
  0
VERTEX
  5
CE
330
CC
100
AcDbEntity
  8
Default
370
   100
100
AcDbVertex
100
AcDb2dVertex
 10
478.4158679885451
 20
84.68638003132673
 30
0.0
  0
SEQEND
  5
CF
330
CC
100
AcDbEntity
  8
Default
370
   100
  0
SPLINE
  5
D0
330
1F
100
AcDbEntity
  8
Default
370
   100
100
AcDbSpline
210
0.0
220
0.0
230
1.0
 70
     8
 71
     3
 72
    11
 73
     7
 74
     0
 42
0.0000000001
 43
0.0000000001
 40
0.0
 40
0.0
 40
0.0
 40
0.0
 40
1.0
 40
1.0
 40
1.0
 40
2.0
 40
2.0
 40
2.0
 40
2.0
 10
475.3399508177278
 20
81.60722959088343
 30
0.0
 10
475.1319438051252
 20
81.4193407003977
 30
0.0
 10
475.0478787948506
 20
81.17936024371647
 30
0.0
 10
475.0478787948506
 20
80.91135811694312
 30
0.0
 10
475.0478787948506
 20
80.6315006682089
 30
0.0
 10
475.1319438051252
 20
80.41127908146336
 30
0.0
 10
475.3399508177278
 20
80.19105749471873
 30
0.0
  0
SPLINE
  5
D1
330
1F
100
AcDbEntity
  8
Default
370
   100
100
AcDbSpline
210
0.0
220
0.0
230
1.0
 70
     8
 71
     3
 72
     8
 73
     4
 74
     0
 42
0.0000000001
 43
0.0000000001
 40
0.0
 40
0.0
 40
0.0
 40
0.0
 40
1.0
 40
1.0
 40
1.0
 40
1.0
 10
519.7309465210716
 20
42.40383537628077
 30
0.0
 10
519.7309465210716
 20
43.77546020204318
 30
0.0
 10
519.6152673188991
 20
44.9875770595927
 30
0.0
 10
519.3713350882305
 20
46.35920188535511
 30
0.0
  0
POLYLINE
  5
D2
330
1F
100
AcDbEntity
  8
Default
370
   100
100
AcDb2dPolyline
 66
     1
 10
0.0
 20
0.0
 30
0.0
  0
VERTEX
  5
D3
330
D2
100
AcDbEntity
  8
Default
370
   100
100
AcDbVertex
100
AcDb2dVertex
 10
997.384023875251
 20
19.08585408613362
 30
0.0
  0
VERTEX
  5
D4
330
D2
100
AcDbEntity
  8
Default
370
   100
100
AcDbVertex
100
AcDb2dVertex
 10
1030.420135904451
 20
19.08585408613362
 30
0.0
  0
SEQEND
  5
D5
330
D2
100
AcDbEntity
  8
Default
370
   100
  0
POLYLINE
  5
D6
330
1F
100
AcDbEntity
  8
Default
370
   100
100
AcDb2dPolyline
 66
     1
 10
0.0
 20
0.0
 30
0.0
  0
VERTEX
  5
D7
330
D6
100
AcDbEntity
  8
Default
370
   100
100
AcDbVertex
100
AcDb2dVertex
 10
997.384023875251
 20
28.11709465576405
 30
0.0
  0
VERTEX
  5
D8
330
D6
100
AcDbEntity
  8
Default
370
   100
100
AcDbVertex
100
AcDb2dVertex
 10
1030.420135904451
 20
28.11709465576405
 30
0.0
  0
SEQEND
  5
D9
330
D6
100
AcDbEntity
  8
Default
370
   100
  0
POLYLINE
  5
DA
330
1F
100
AcDbEntity
  8
Default
370
   100
100
AcDb2dPolyline
 66
     1
 10
0.0
 20
0.0
 30
0.0
  0
VERTEX
  5
DB
330
DA
100
AcDbEntity
  8
Default
370
   100
100
AcDbVertex
100
AcDb2dVertex
 10
1031.924324784878
 20
29.73696273836322
 30
0.0
  0
VERTEX
  5
DC
330
DA
100
AcDbEntity
  8
Default
370
   100
100
AcDbVertex
100
AcDb2dVertex
 10
1415.783842812152
 20
29.73696273836322
 30
0.0
  0
SEQEND
  5
DD
330
DA
100
AcDbEntity
  8
Default
370
   100
  0
POLYLINE
  5
DE
330
1F
100
AcDbEntity
  8
Default
370
   100
100
AcDb2dPolyline
 66
     1
 10
0.0
 20
0.0
 30
0.0
  0
VERTEX
  5
DF
330
DE
100
AcDbEntity
  8
Default
370
   100
100
AcDbVertex
100
AcDb2dVertex
 10
1031.924324784878
 20
7.931433128798744
 30
0.0
  0
VERTEX
  5
E0
330
DE
100
AcDbEntity
  8
Default
370
   100
100
AcDbVertex
100
AcDb2dVertex
 10
1415.783842812152
 20
7.931433128798744
 30
0.0
  0
SEQEND
  5
E1
330
DE
100
AcDbEntity
  8
Default
370
   100
  0
POLYLINE
  5
E2
330
1F
100
AcDbEntity
  8
Default
370
   100
100
AcDb2dPolyline
 66
     1
 10
0.0
 20
0.0
 30
0.0
  0
VERTEX
  5
E3
330
E2
100
AcDbEntity
  8
Default
370
   100
100
AcDbVertex
100
AcDb2dVertex
 10
1397.881947397647
 20
7.931433128798744
 30
0.0
  0
VERTEX
  5
E4
330
E2
100
AcDbEntity
  8
Default
370
   100
100
AcDbVertex
100
AcDb2dVertex
 10
1415.783842812152
 20
7.931433128798744
 30
0.0
  0
SEQEND
  5
E5
330
E2
100
AcDbEntity
  8
Default
370
   100
  0
SPLINE
  5
E6
330
1F
100
AcDbEntity
  8
Default
370
   100
100
AcDbSpline
210
0.0
220
0.0
230
1.0
 70
    11
 71
     3
 72
    20
 73
    16
 74
     0
 42
0.0000000001
 43
0.0000000001
 40
0.0
 40
0.0
 40
0.0
 40
0.0
 40
1.0
 40
1.0
 40
1.0
 40
2.0
 40
2.0
 40
2.0
 40
3.0
 40
3.0
 40
3.0
 40
4.0
 40
4.0
 40
4.0
 40
5.0
 40
5.0
 40
5.0
 40
5.0
 10
496.1737032786051
 20
54.03857649915881
 30
0.0
 10
496.1737032786051
 20
61.1614694851196
 30
0.0
 10
501.949400587088
 20
66.93644828924062
 30
0.0
 10
509.036727607163
 20
66.93644828924062
 30
0.0
 10
516.1833312370469
 20
66.93644828924062
 30
0.0
 10
521.9191515534764
 20
61.1614694851196
 30
0.0
 10
521.9191515534764
 20
54.03857649915881
 30
0.0
 10
521.9191515534764
 20
46.95124947908425
 30
0.0
 10
516.1833312370469
 20
41.1755521706018
 30
0.0
 10
509.036727607163
 20
41.1755521706018
 30
0.0
 10
501.949400587088
 20
41.1755521706018
 30
0.0
 10
496.1737032786051
 20
46.95124947908425
 30
0.0
 10
496.1737032786051
 20
54.03857649915881
 30
0.0
 10
496.1737032786051
 20
54.03857649915881
 30
0.0
 10
496.1737032786051
 20
54.03857649915881
 30
0.0
 10
496.1737032786051
 20
54.03857649915881
 30
0.0
  0
SPLINE
  5
E7
330
1F
100
AcDbEntity
  8
Default
370
   100
100
AcDbSpline
210
0.0
220
0.0
230
1.0
 70
     8
 71
     3
 72
    14
 73
    10
 74
     0
 42
0.0000000001
 43
0.0000000001
 40
0.0
 40
0.0
 40
0.0
 40
0.0
 40
1.0
 40
1.0
 40
1.0
 40
2.0
 40
2.0
 40
2.0
 40
3.0
 40
3.0
 40
3.0
 40
3.0
 10
487.5947612044266
 20
83.03094598284224
 30
0.0
 10
488.6667697115187
 20
84.11516906407633
 30
0.0
 10
489.2182218088329
 20
85.38656253143472
 30
0.0
 10
489.2182218088329
 20
86.90224748164201
 30
0.0
 10
489.2182218088329
 20
89.9138585121209
 30
0.0
 10
486.7670441801844
 20
92.34599577519384
 30
0.0
 10
483.7590256715122
 20
92.34599577519384
 30
0.0
 10
482.2433407213044
 20
92.34599577519384
 30
0.0
 10
480.9676362277784
 20
91.8337021655716
 30
0.0
 10
479.9078422948293
 20
90.76636393682838
 30
0.0
  0
SPLINE
  5
E8
330
1F
100
AcDbEntity
  8
Default
370
   100
100
AcDbSpline
210
0.0
220
0.0
230
1.0
 70
    11
 71
     3
 72
    20
 73
    16
 74
     0
 42
0.0000000001
 43
0.0000000001
 40
0.0
 40
0.0
 40
0.0
 40
0.0
 40
1.0
 40
1.0
 40
1.0
 40
2.0
 40
2.0
 40
2.0
 40
3.0
 40
3.0
 40
3.0
 40
4.0
 40
4.0
 40
4.0
 40
5.0
 40
5.0
 40
5.0
 40
5.0
 10
473.3281386060277
 20
87.14617971231019
 30
0.0
 10
473.3281386060277
 20
88.80233226515702
 30
0.0
 10
474.6598864397371
 20
90.13408009886552
 30
0.0
 10
476.2998726444531
 20
90.13408009886552
 30
0.0
 10
477.9359070751822
 20
90.13408009886552
 30
0.0
 10
479.2838212570215
 20
88.80233226515702
 30
0.0
 10
479.2838212570215
 20
87.14617971231019
 30
0.0
 10
479.2838212570215
 20
85.510863785943
 30
0.0
 10
477.9359070751822
 20
84.17875670005287
 30
0.0
 10
476.2998726444531
 20
84.17875670005287
 30
0.0
 10
474.6598864397371
 20
84.17875670005287
 30
0.0
 10
473.3281386060277
 20
85.510863785943
 30
0.0
 10
473.3281386060277
 20
87.14617971231019
 30
0.0
 10
473.3281386060277
 20
87.14617971231019
 30
0.0
 10
473.3281386060277
 20
87.14617971231019
 30
0.0
 10
473.3281386060277
 20
87.14617971231019
 30
0.0
  0
SPLINE
  5
E9
330
1F
100
AcDbEntity
  8
Default
370
   100
100
AcDbSpline
210
0.0
220
0.0
230
1.0
 70
     8
 71
     3
 72
     8
 73
     4
 74
     0
 42
0.0000000001
 43
0.0000000001
 40
0.0
 40
0.0
 40
0.0
 40
0.0
 40
1.0
 40
1.0
 40
1.0
 40
1.0
 10
552.6269501998141
 20
40.09204759372824
 30
0.0
 10
552.6269501998141
 20
39.5998721062233
 30
0.0
 10
553.0109907809402
 20
39.2158315250972
 30
0.0
 10
553.4909516943031
 20
39.2158315250972
 30
0.0
  0
POLYLINE
  5
EA
330
1F
100
AcDbEntity
  8
Default
370
   100
100
AcDb2dPolyline
 66
     1
 10
0.0
 20
0.0
 30
0.0
  0
VERTEX
  5
EB
330
EA
100
AcDbEntity
  8
Default
370
   100
100
AcDbVertex
100
AcDb2dVertex
 10
553.4909516943031
 20
60.98112489042796
 30
0.0
  0
VERTEX
  5
EC
330
EA
100
AcDbEntity
  8
Default
370
   100
100
AcDbVertex
100
AcDb2dVertex
 10
553.4909516943031
 20
39.19212088117365
 30
0.0
  0
SEQEND
  5
ED
330
EA
100
AcDbEntity
  8
Default
370
   100
  0
POLYLINE
  5
EE
330
1F
100
AcDbEntity
  8
Default
370
   100
100
AcDb2dPolyline
 66
     1
 10
0.0
 20
0.0
 30
0.0
  0
VERTEX
  5
EF
330
EE
100
AcDbEntity
  8
Default
370
   100
100
AcDbVertex
100
AcDb2dVertex
 10
938.2590184864686
 20
40.09204759372824
 30
0.0
  0
VERTEX
  5
F0
330
EE
100
AcDbEntity
  8
Default
370
   100
100
AcDbVertex
100
AcDb2dVertex
 10
938.2590184864686
 20
47.75848912902893
 30
0.0
  0
SEQEND
  5
F1
330
EE
100
AcDbEntity
  8
Default
370
   100
  0
SPLINE
  5
F2
330
1F
100
AcDbEntity
  8
Default
370
   100
100
AcDbSpline
210
0.0
220
0.0
230
1.0
 70
     8
 71
     3
 72
     8
 73
     4
 74
     0
 42
0.0000000001
 43
0.0000000001
 40
0.0
 40
0.0
 40
0.0
 40
0.0
 40
1.0
 40
1.0
 40
1.0
 40
1.0
 10
937.3831616700178
 20
60.44907241086912
 30
0.0
 10
937.6188311005309
 20
59.79343718116343
 30
0.0
 10
938.1868087981558
 20
59.38568595611378
 30
0.0
 10
938.8471143062103
 20
59.38568595611378
 30
0.0
  0
SPLINE
  5
F3
330
1F
100
AcDbEntity
  8
Default
370
   100
100
AcDbSpline
210
0.0
220
0.0
230
1.0
 70
     8
 71
     3
 72
     8
 73
     4
 74
     0
 42
0.0000000001
 43
0.0000000001
 40
0.0
 40
0.0
 40
0.0
 40
0.0
 40
1.0
 40
1.0
 40
1.0
 40
1.0
 10
937.3831616700178
 20
39.2158315250972
 30
0.0
 10
937.8588115572126
 20
39.2158315250972
 30
0.0
 10
938.2590184864686
 20
39.5998721062233
 30
0.0
 10
938.2590184864686
 20
40.09204759372824
 30
0.0
  0
SPLINE
  5
F4
330
1F
100
AcDbEntity
  8
Default
370
   100
100
AcDbSpline
210
0.0
220
0.0
230
1.0
 70
     8
 71
     3
 72
     8
 73
     4
 74
     0
 42
0.0000000001
 43
0.0000000001
 40
0.0
 40
0.0
 40
0.0
 40
0.0
 40
1.0
 40
1.0
 40
1.0
 40
1.0
 10
938.2590184864686
 20
47.71106784118183
 30
0.0
 10
938.2590184864686
 20
48.19462127635052
 30
0.0
 10
937.8588115572126
 20
48.59482820560697
 30
0.0
 10
937.3831616700178
 20
48.59482820560697
 30
0.0
  0
SPLINE
  5
F5
330
1F
100
AcDbEntity
  8
Default
370
   100
100
AcDbSpline
210
0.0
220
0.0
230
1.0
 70
     8
 71
     3
 72
     8
 73
     4
 74
     0
 42
0.0000000001
 43
0.0000000001
 40
0.0
 40
0.0
 40
0.0
 40
0.0
 40
1.0
 40
1.0
 40
1.0
 40
1.0
 10
938.8471143062103
 20
48.69470031183027
 30
0.0
 10
938.5104950129308
 20
48.69470031183027
 30
0.0
 10
938.2191414944151
 20
48.61889810171124
 30
0.0
 10
937.9231176975505
 20
48.40693931512124
 30
0.0
  0
POLYLINE
  5
F6
330
1F
100
AcDbEntity
  8
Default
370
   100
100
AcDb2dPolyline
 66
     1
 10
0.0
 20
0.0
 30
0.0
  0
VERTEX
  5
F7
330
F6
100
AcDbEntity
  8
Default
370
   100
100
AcDbVertex
100
AcDb2dVertex
 10
937.3831616700178
 20
60.98112489042796
 30
0.0
  0
VERTEX
  5
F8
330
F6
100
AcDbEntity
  8
Default
370
   100
100
AcDbVertex
100
AcDb2dVertex
 10
937.3831616700178
 20
39.19212088117365
 30
0.0
  0
SEQEND
  5
F9
330
F6
100
AcDbEntity
  8
Default
370
   100
  0
POLYLINE
  5
FA
330
1F
100
AcDbEntity
  8
Default
370
   100
100
AcDb2dPolyline
 66
     1
 10
0.0
 20
0.0
 30
0.0
  0
VERTEX
  5
FB
330
FA
100
AcDbEntity
  8
Default
370
   100
100
AcDbVertex
100
AcDb2dVertex
 10
1031.008231724193
 20
8.823097041198707
 30
0.0
  0
VERTEX
  5
FC
330
FA
100
AcDbEntity
  8
Default
370
   100
100
AcDbVertex
100
AcDb2dVertex
 10
1031.008231724193
 20
17.44586788141805
 30
0.0
  0
SEQEND
  5
FD
330
FA
100
AcDbEntity
  8
Default
370
   100
  0
SPLINE
  5
FE
330
1F
100
AcDbEntity
  8
Default
370
   100
100
AcDbSpline
210
0.0
220
0.0
230
1.0
 70
     8
 71
     3
 72
     8
 73
     4
 74
     0
 42
0.0000000001
 43
0.0000000001
 40
0.0
 40
0.0
 40
0.0
 40
0.0
 40
1.0
 40
1.0
 40
1.0
 40
1.0
 10
1030.420135904451
 20
28.11709465576405
 30
0.0
 10
1031.076489638518
 20
28.11709465576405
 30
0.0
 10
1031.655963405924
 20
28.53310868096924
 30
0.0
 10
1031.924324784878
 20
29.15712971877747
 30
0.0
  0
POLYLINE
  5
FF
330
1F
100
AcDbEntity
  8
Default
370
   100
100
AcDb2dPolyline
 66
     1
 10
0.0
 20
0.0
 30
0.0
  0
VERTEX
  5
100
330
FF
100
AcDbEntity
  8
Default
370
   100
100
AcDbVertex
100
AcDb2dVertex
 10
1030.420135904451
 20
28.11709465576405
 30
0.0
  0
VERTEX
  5
101
330
FF
100
AcDbEntity
  8
Default
370
   100
100
AcDbVertex
100
AcDb2dVertex
 10
1030.420135904451
 20
17.44586788141805
 30
0.0
  0
SEQEND
  5
102
330
FF
100
AcDbEntity
  8
Default
370
   100
  0
SPLINE
  5
103
330
1F
100
AcDbEntity
  8
Default
370
   100
100
AcDbSpline
210
0.0
220
0.0
230
1.0
 70
     8
 71
     3
 72
     8
 73
     4
 74
     0
 42
0.0000000001
 43
0.0000000001
 40
0.0
 40
0.0
 40
0.0
 40
0.0
 40
1.0
 40
1.0
 40
1.0
 40
1.0
 10
1031.008231724193
 20
8.823097041198707
 30
0.0
 10
1031.008231724193
 20
8.34313612783626
 30
0.0
 10
1031.412031175255
 20
7.931433128798744
 30
0.0
 10
1031.924324784878
 20
7.931433128798744
 30
0.0
  0
POLYLINE
  5
104
330
1F
100
AcDbEntity
  8
Default
370
   100
100
AcDb2dPolyline
 66
     1
 10
0.0
 20
0.0
 30
0.0
  0
VERTEX
  5
105
330
104
100
AcDbEntity
  8
Default
370
   100
100
AcDbVertex
100
AcDb2dVertex
 10
1031.924324784878
 20
29.73696273836322
 30
0.0
  0
VERTEX
  5
106
330
104
100
AcDbEntity
  8
Default
370
   100
100
AcDbVertex
100
AcDb2dVertex
 10
1031.924324784878
 20
7.931433128798744
 30
0.0
  0
SEQEND
  5
107
330
104
100
AcDbEntity
  8
Default
370
   100
  0
POLYLINE
  5
108
330
1F
100
AcDbEntity
  8
Default
370
   100
100
AcDb2dPolyline
 66
     1
 10
0.0
 20
0.0
 30
0.0
  0
VERTEX
  5
109
330
108
100
AcDbEntity
  8
Default
370
   100
100
AcDbVertex
100
AcDb2dVertex
 10
1031.924324784878
 20
17.44586788141805
 30
0.0
  0
VERTEX
  5
10A
330
108
100
AcDbEntity
  8
Default
370
   100
100
AcDbVertex
100
AcDb2dVertex
 10
1030.420135904451
 20
17.44586788141805
 30
0.0
  0
SEQEND
  5
10B
330
108
100
AcDbEntity
  8
Default
370
   100
  0
POLYLINE
  5
10C
330
1F
100
AcDbEntity
  8
Default
370
   100
100
AcDb2dPolyline
 66
     1
 10
0.0
 20
0.0
 30
0.0
  0
VERTEX
  5
10D
330
10C
100
AcDbEntity
  8
Default
370
   100
100
AcDbVertex
100
AcDb2dVertex
 10
1416.675865976732
 20
16.51037520297723
 30
0.0
  0
VERTEX
  5
10E
330
10C
100
AcDbEntity
  8
Default
370
   100
100
AcDbVertex
100
AcDb2dVertex
 10
1416.675865976732
 20
15.36651625975355
 30
0.0
  0
SEQEND
  5
10F
330
10C
100
AcDbEntity
  8
Default
370
   100
  0
SPLINE
  5
110
330
1F
100
AcDbEntity
  8
Default
370
   100
100
AcDbSpline
210
0.0
220
0.0
230
1.0
 70
     8
 71
     3
 72
     8
 73
     4
 74
     0
 42
0.0000000001
 43
0.0000000001
 40
0.0
 40
0.0
 40
0.0
 40
0.0
 40
1.0
 40
1.0
 40
1.0
 40
1.0
 10
1415.783842812152
 20
29.15712971877747
 30
0.0
 10
1416.016278973039
 20
28.53310868096924
 30
0.0
 10
1416.607608062407
 20
28.11709465576405
 30
0.0
 10
1417.271506092268
 20
28.11709465576405
 30
0.0
  0
POLYLINE
  5
111
330
1F
100
AcDbEntity
  8
Default
370
   100
100
AcDb2dPolyline
 66
     1
 10
0.0
 20
0.0
 30
0.0
  0
VERTEX
  5
112
330
111
100
AcDbEntity
  8
Default
370
   100
100
AcDbVertex
100
AcDb2dVertex
 10
1417.271506092268
 20
28.11709465576405
 30
0.0
  0
VERTEX
  5
113
330
111
100
AcDbEntity
  8
Default
370
   100
100
AcDbVertex
100
AcDb2dVertex
 10
1417.271506092268
 20
17.44586788141805
 30
0.0
  0
SEQEND
  5
114
330
111
100
AcDbEntity
  8
Default
370
   100
  0
SPLINE
  5
115
330
1F
100
AcDbEntity
  8
Default
370
   100
100
AcDbSpline
210
0.0
220
0.0
230
1.0
 70
     8
 71
     3
 72
     8
 73
     4
 74
     0
 42
0.0000000001
 43
0.0000000001
 40
0.0
 40
0.0
 40
0.0
 40
0.0
 40
1.0
 40
1.0
 40
1.0
 40
1.0
 10
1415.783842812152
 20
7.931433128798744
 30
0.0
 10
1416.276018299657
 20
7.931433128798744
 30
0.0
 10
1416.675865976732
 20
8.34313612783626
 30
0.0
 10
1416.675865976732
 20
8.823097041198707
 30
0.0
  0
SPLINE
  5
116
330
1F
100
AcDbEntity
  8
Default
370
   100
100
AcDbSpline
210
0.0
220
0.0
230
1.0
 70
     8
 71
     3
 72
     8
 73
     4
 74
     0
 42
0.0000000001
 43
0.0000000001
 40
0.0
 40
0.0
 40
0.0
 40
0.0
 40
1.0
 40
1.0
 40
1.0
 40
1.0
 10
1416.675865976732
 20
16.45038008880692
 30
0.0
 10
1416.675865976732
 20
16.93501128051776
 30
0.0
 10
1416.276018299657
 20
17.35461782753009
 30
0.0
 10
1415.783842812152
 20
17.35461782753009
 30
0.0
  0
SPLINE
  5
117
330
1F
100
AcDbEntity
  8
Default
370
   100
100
AcDbSpline
210
0.0
220
0.0
230
1.0
 70
     8
 71
     3
 72
     8
 73
     4
 74
     0
 42
0.0000000001
 43
0.0000000001
 40
0.0
 40
0.0
 40
0.0
 40
0.0
 40
1.0
 40
1.0
 40
1.0
 40
1.0
 10
1417.271506092268
 20
17.43437181163699
 30
0.0
 10
1416.911894659427
 20
17.43437181163699
 30
0.0
 10
1416.607608062407
 20
17.35461782753009
 30
0.0
 10
1416.339965187815
 20
17.1627771630574
 30
0.0
  0
POLYLINE
  5
118
330
1F
100
AcDbEntity
  8
Default
370
   100
100
AcDb2dPolyline
 66
     1
 10
0.0
 20
0.0
 30
0.0
  0
VERTEX
  5
119
330
118
100
AcDbEntity
  8
Default
370
   100
100
AcDbVertex
100
AcDb2dVertex
 10
1415.783842812152
 20
29.73696273836322
 30
0.0
  0
VERTEX
  5
11A
330
118
100
AcDbEntity
  8
Default
370
   100
100
AcDbVertex
100
AcDb2dVertex
 10
1415.783842812152
 20
7.931433128798744
 30
0.0
  0
SEQEND
  5
11B
330
118
100
AcDbEntity
  8
Default
370
   100
  0
POLYLINE
  5
11C
330
1F
100
AcDbEntity
  8
Default
370
   100
100
AcDb2dPolyline
 66
     1
 10
0.0
 20
0.0
 30
0.0
  0
VERTEX
  5
11D
330
11C
100
AcDbEntity
  8
Default
370
   100
100
AcDbVertex
100
AcDb2dVertex
 10
1416.675865976732
 20
15.36651625975355
 30
0.0
  0
VERTEX
  5
11E
330
11C
100
AcDbEntity
  8
Default
370
   100
100
AcDbVertex
100
AcDb2dVertex
 10
1416.675865976732
 20
8.823097041198707
 30
0.0
  0
SEQEND
  5
11F
330
11C
100
AcDbEntity
  8
Default
370
   100
  0
POLYLINE
  5
120
330
1F
100
AcDbEntity
  8
Default
370
   100
100
AcDb2dPolyline
 66
     1
 10
0.0
 20
0.0
 30
0.0
  0
VERTEX
  5
121
330
120
100
AcDbEntity
  8
Default
370
   100
100
AcDbVertex
100
AcDb2dVertex
 10
478.4158679885451
 20
84.68638003132673
 30
0.0
  0
VERTEX
  5
122
330
120
100
AcDbEntity
  8
Default
370
   100
100
AcDbVertex
100
AcDb2dVertex
 10
478.9673200858593
 20
85.81874290476935
 30
0.0
  0
SEQEND
  5
123
330
120
100
AcDbEntity
  8
Default
370
   100
  0
POLYLINE
  5
124
330
1F
100
AcDbEntity
  8
Default
370
   100
100
AcDb2dPolyline
 66
     1
 10
0.0
 20
0.0
 30
0.0
  0
VERTEX
  5
125
330
124
100
AcDbEntity
  8
Default
370
   100
100
AcDbVertex
100
AcDb2dVertex
 10
1026.072825266276
 20
56.8256549167254
 30
0.0
  0
VERTEX
  5
126
330
124
100
AcDbEntity
  8
Default
370
   100
100
AcDbVertex
100
AcDb2dVertex
 10
997.384023875251
 20
28.11709465576405
 30
0.0
  0
SEQEND
  5
127
330
124
100
AcDbEntity
  8
Default
370
   100
  0
SPLINE
  5
128
330
1F
100
AcDbEntity
  8
Default
370
   100
100
AcDbSpline
210
0.0
220
0.0
230
1.0
 70
     8
 71
     3
 72
    11
 73
     7
 74
     0
 42
0.0000000001
 43
0.0000000001
 40
0.0
 40
0.0
 40
0.0
 40
0.0
 40
1.0
 40
1.0
 40
1.0
 40
2.0
 40
2.0
 40
2.0
 40
2.0
 10
1026.072825266276
 20
56.8256549167254
 30
0.0
 10
1026.581167101911
 20
57.29411976030678
 30
0.0
 10
1026.808932984449
 20
57.8854488496745
 30
0.0
 10
1026.808932984449
 20
58.58599060196229
 30
0.0
 10
1026.808932984449
 20
59.25779217979834
 30
0.0
 10
1026.581167101911
 20
59.85738406932069
 30
0.0
 10
1026.072825266276
 20
60.33734498268404
 30
0.0
  0
POLYLINE
  5
129
330
1F
100
AcDbEntity
  8
Default
370
   100
100
AcDb2dPolyline
 66
     1
 10
0.0
 20
0.0
 30
0.0
  0
VERTEX
  5
12A
330
129
100
AcDbEntity
  8
Default
370
   100
100
AcDbVertex
100
AcDb2dVertex
 10
1018.449493992655
 20
64.42886806822844
 30
0.0
  0
VERTEX
  5
12B
330
129
100
AcDbEntity
  8
Default
370
   100
100
AcDbVertex
100
AcDb2dVertex
 10
1017.577588950191
 20
63.56127405193365
 30
0.0
  0
SEQEND
  5
12C
330
129
100
AcDbEntity
  8
Default
370
   100
  0
POLYLINE
  5
12D
330
1F
100
AcDbEntity
  8
Default
370
   100
100
AcDb2dPolyline
 66
     1
 10
0.0
 20
0.0
 30
0.0
  0
VERTEX
  5
12E
330
12D
100
AcDbEntity
  8
Default
370
   100
100
AcDbVertex
100
AcDb2dVertex
 10
1011.590292107299
 20
57.59768785296455
 30
0.0
  0
VERTEX
  5
12F
330
12D
100
AcDbEntity
  8
Default
370
   100
100
AcDbVertex
100
AcDb2dVertex
 10
989.7650036277984
 20
35.760184799321
 30
0.0
  0
SEQEND
  5
130
330
12D
100
AcDbEntity
  8
Default
370
   100
  0
POLYLINE
  5
131
330
1F
100
AcDbEntity
  8
Default
370
   100
100
AcDb2dPolyline
 66
     1
 10
0.0
 20
0.0
 30
0.0
  0
VERTEX
  5
132
330
131
100
AcDbEntity
  8
Default
370
   100
100
AcDbVertex
100
AcDb2dVertex
 10
1026.072825266276
 20
60.33734498268404
 30
0.0
  0
VERTEX
  5
133
330
131
100
AcDbEntity
  8
Default
370
   100
100
AcDbVertex
100
AcDb2dVertex
 10
1021.984894702537
 20
64.42886806822844
 30
0.0
  0
SEQEND
  5
134
330
131
100
AcDbEntity
  8
Default
370
   100
  0
SPLINE
  5
135
330
1F
100
AcDbEntity
  8
Default
370
   100
100
AcDbSpline
210
0.0
220
0.0
230
1.0
 70
     8
 71
     3
 72
    11
 73
     7
 74
     0
 42
0.0000000001
 43
0.0000000001
 40
0.0
 40
0.0
 40
0.0
 40
0.0
 40
1.0
 40
1.0
 40
1.0
 40
2.0
 40
2.0
 40
2.0
 40
2.0
 10
1021.984894702537
 20
64.42886806822844
 30
0.0
 10
1021.481223145251
 20
64.89697365963002
 30
0.0
 10
1020.901390125664
 20
65.17683110836424
 30
0.0
 10
1020.201566877737
 20
65.17683110836424
 30
0.0
 10
1019.541261369683
 20
65.17683110836424
 30
0.0
 10
1018.937717706173
 20
64.89697365963002
 30
0.0
 10
1018.449493992655
 20
64.42886806822844
 30
0.0
  0
SPLINE
  5
136
330
1F
100
AcDbEntity
  8
Default
370
   100
100
AcDbSpline
210
0.0
220
0.0
230
1.0
 70
     8
 71
     3
 72
    14
 73
    10
 74
     0
 42
0.0000000001
 43
0.0000000001
 40
0.0
 40
0.0
 40
0.0
 40
0.0
 40
1.0
 40
1.0
 40
1.0
 40
2.0
 40
2.0
 40
2.0
 40
3.0
 40
3.0
 40
3.0
 40
3.0
 10
1015.330466560158
 20
44.43540645791654
 30
0.0
 10
1016.265959238599
 20
43.85521418615008
 30
0.0
 10
1017.193548369065
 20
43.57140496342799
 30
0.0
 10
1018.298248824597
 20
43.57140496342799
 30
0.0
 10
1021.329259472831
 20
43.57140496342799
 30
0.0
 10
1023.764989257711
 20
46.02330109643754
 30
0.0
 10
1023.764989257711
 20
49.05503024903282
 30
0.0
 10
1023.764989257711
 20
50.15003089568745
 30
0.0
 10
1023.501298157106
 20
51.10276767879986
 30
0.0
 10
1022.949127555431
 20
52.02604578309729
 30
0.0
  0
SPLINE
  5
137
330
1F
100
AcDbEntity
  8
Default
370
   100
100
AcDbSpline
210
0.0
220
0.0
230
1.0
 70
     8
 71
     3
 72
    11
 73
     7
 74
     0
 42
0.0000000001
 43
0.0000000001
 40
0.0
 40
0.0
 40
0.0
 40
0.0
 40
1.0
 40
1.0
 40
1.0
 40
2.0
 40
2.0
 40
2.0
 40
2.0
 10
1023.137016445916
 20
53.89056460072698
 30
0.0
 10
1022.8456629274
 20
53.60603687364346
 30
0.0
 10
1022.664959080528
 20
53.24606618862163
 30
0.0
 10
1022.664959080528
 20
52.83041141559715
 30
0.0
 10
1022.664959080528
 20
52.52217304459009
 30
0.0
 10
1022.777405013075
 20
52.25453016999745
 30
0.0
 10
1022.949127555431
 20
52.02604578309729
 30
0.0
  0
SPLINE
  5
138
330
1F
100
AcDbEntity
  8
Default
370
   100
100
AcDbSpline
210
0.0
220
0.0
230
1.0
 70
     8
 71
     3
 72
    11
 73
     7
 74
     0
 42
0.0000000001
 43
0.0000000001
 40
0.0
 40
0.0
 40
0.0
 40
0.0
 40
1.0
 40
1.0
 40
1.0
 40
2.0
 40
2.0
 40
2.0
 40
2.0
 10
1015.330466560158
 20
44.45911710184009
 30
0.0
 10
1015.098030399271
 20
44.6311988963771
 30
0.0
 10
1014.838291072653
 20
44.67933868858563
 30
0.0
 10
1014.522149153672
 20
44.67933868858563
 30
0.0
 10
1014.122301476596
 20
44.67933868858563
 30
0.0
 10
1013.754067991419
 20
44.50761614622934
 30
0.0
 10
1013.46630699471
 20
44.23925476727618
 30
0.0
  0
SPLINE
  5
139
330
1F
100
AcDbEntity
  8
Default
370
   100
100
AcDbSpline
210
0.0
220
0.0
230
1.0
 70
     8
 71
     3
 72
     8
 73
     4
 74
     0
 42
0.0000000001
 43
0.0000000001
 40
0.0
 40
0.0
 40
0.0
 40
0.0
 40
1.0
 40
1.0
 40
1.0
 40
1.0
 10
956.5765686739979
 20
61.55341361422052
 30
0.0
 10
957.0647923875159
 20
59.88109471324424
 30
0.0
 10
957.8846058637838
 20
58.58599060196229
 30
0.0
 10
959.1082187911144
 20
57.35411487447709
 30
0.0
  0
POLYLINE
  5
13A
330
1F
100
AcDbEntity
  8
Default
370
   100
100
AcDb2dPolyline
 66
     1
 10
0.0
 20
0.0
 30
0.0
  0
VERTEX
  5
13B
330
13A
100
AcDbEntity
  8
Default
370
   100
100
AcDbVertex
100
AcDb2dVertex
 10
980.6902935443082
 20
35.760184799321
 30
0.0
  0
VERTEX
  5
13C
330
13A
100
AcDbEntity
  8
Default
370
   100
100
AcDbVertex
100
AcDb2dVertex
 10
959.1082187911144
 20
57.35411487447709
 30
0.0
  0
SEQEND
  5
13D
330
13A
100
AcDbEntity
  8
Default
370
   100
  0
POLYLINE
  5
13E
330
1F
100
AcDbEntity
  8
Default
370
   100
100
AcDb2dPolyline
 66
     1
 10
0.0
 20
0.0
 30
0.0
  0
VERTEX
  5
13F
330
13E
100
AcDbEntity
  8
Default
370
   100
100
AcDbVertex
100
AcDb2dVertex
 10
972.991160060568
 20
28.22127778815593
 30
0.0
  0
VERTEX
  5
140
330
13E
100
AcDbEntity
  8
Default
370
   100
100
AcDbVertex
100
AcDb2dVertex
 10
955.5329410891787
 20
45.72296627340529
 30
0.0
  0
SEQEND
  5
141
330
13E
100
AcDbEntity
  8
Default
370
   100
  0
SPLINE
  5
142
330
1F
100
AcDbEntity
  8
Default
370
   100
100
AcDbSpline
210
0.0
220
0.0
230
1.0
 70
     8
 71
     3
 72
    11
 73
     7
 74
     0
 42
0.0000000001
 43
0.0000000001
 40
0.0
 40
0.0
 40
0.0
 40
0.0
 40
1.0
 40
1.0
 40
1.0
 40
2.0
 40
2.0
 40
2.0
 40
2.0
 10
955.5329410891787
 20
45.72296627340529
 30
0.0
 10
953.5610058695321
 20
47.67047234476649
 30
0.0
 10
951.1935339989778
 20
48.63506444984068
 30
0.0
 10
948.4739949913757
 20
48.63506444984068
 30
0.0
 10
948.4739949913757
 20
48.63506444984068
 30
0.0
 10
948.4739949913757
 20
48.63506444984068
 30
0.0
 10
948.4739949913757
 20
48.63506444984068
 30
0.0
  0
SPLINE
  5
143
330
1F
100
AcDbEntity
  8
Default
370
   100
100
AcDbSpline
210
0.0
220
0.0
230
1.0
 70
     8
 71
     3
 72
    11
 73
     7
 74
     0
 42
0.0000000001
 43
0.0000000001
 40
0.0
 40
0.0
 40
0.0
 40
0.0
 40
1.0
 40
1.0
 40
1.0
 40
2.0
 40
2.0
 40
2.0
 40
2.0
 10
1015.366391778224
 20
44.45911710184009
 30
0.0
 10
1015.098030399271
 20
44.6311988963771
 30
0.0
 10
1014.838291072653
 20
44.67933868858563
 30
0.0
 10
1014.522149153672
 20
44.67933868858563
 30
0.0
 10
1014.122301476596
 20
44.67933868858563
 30
0.0
 10
1013.754067991419
 20
44.50761614622934
 30
0.0
 10
1013.46630699471
 20
44.23925476727618
 30
0.0
  0
SPLINE
  5
144
330
1F
100
AcDbEntity
  8
Default
370
   100
100
AcDbSpline
210
0.0
220
0.0
230
1.0
 70
    24
 71
     3
 72
     8
 73
     4
 74
     0
 42
0.0000000001
 43
0.0000000001
 40
0.0
 40
0.0
 40
0.0
 40
0.0
 40
1.0
 40
1.0
 40
1.0
 40
1.0
 10
956.8449300529516
 20
60.90137090632106
 30
0.0
 10
956.8449300529516
 20
60.88520455819162
 30
0.0
 10
956.8449300529516
 20
60.88520455819162
 30
0.0
 10
956.8449300529516
 20
60.88520455819162
 30
0.0
  0
SPLINE
  5
145
330
1F
100
AcDbEntity
  8
Default
370
   100
100
AcDbSpline
210
0.0
220
0.0
230
1.0
 70
     8
 71
     3
 72
    14
 73
    10
 74
     0
 42
0.0000000001
 43
0.0000000001
 40
0.0
 40
0.0
 40
0.0
 40
0.0
 40
1.0
 40
1.0
 40
1.0
 40
2.0
 40
2.0
 40
2.0
 40
3.0
 40
3.0
 40
3.0
 40
3.0
 10
1014.76608138434
 20
55.82980787193355
 30
0.0
 10
1015.390102422148
 20
55.1903389903573
 30
0.0
 10
1016.17399068035
 20
54.87814884536328
 30
0.0
 10
1017.037992174839
 20
54.87814884536328
 30
0.0
 10
1018.80587215587
 20
54.87814884536328
 30
0.0
 10
1020.249706669946
 20
56.32593513342636
 30
0.0
 10
1020.249706669946
 20
58.07369699234005
 30
0.0
 10
1020.249706669946
 20
58.97326445271483
 30
0.0
 10
1019.901591306886
 20
59.74134561496794
 30
0.0
 10
1019.313495487144
 20
60.32548966072227
 30
0.0
  0
POLYLINE
  5
146
330
1F
100
AcDbEntity
  8
Default
370
   100
100
AcDb2dPolyline
 66
     1
 10
0.0
 20
0.0
 30
0.0
  0
VERTEX
  5
147
330
146
100
AcDbEntity
  8
Default
370
   100
100
AcDbVertex
100
AcDb2dVertex
 10
1017.530167662344
 20
62.1213913118454
 30
0.0
  0
VERTEX
  5
148
330
146
100
AcDbEntity
  8
Default
370
   100
100
AcDbVertex
100
AcDb2dVertex
 10
1019.313495487144
 20
60.33734498268404
 30
0.0
  0
SEQEND
  5
149
330
146
100
AcDbEntity
  8
Default
370
   100
  0
POLYLINE
  5
14A
330
1F
100
AcDbEntity
  8
Default
370
   100
100
AcDb2dPolyline
 66
     1
 10
0.0
 20
0.0
 30
0.0
  0
VERTEX
  5
14B
330
14A
100
AcDbEntity
  8
Default
370
   100
100
AcDbVertex
100
AcDb2dVertex
 10
1014.76608138434
 20
55.82980787193355
 30
0.0
  0
VERTEX
  5
14C
330
14A
100
AcDbEntity
  8
Default
370
   100
100
AcDbVertex
100
AcDb2dVertex
 10
1013.030174847388
 20
57.59768785296455
 30
0.0
  0
SEQEND
  5
14D
330
14A
100
AcDbEntity
  8
Default
370
   100
  0
SPLINE
  5
14E
330
1F
100
AcDbEntity
  8
Default
370
   100
100
AcDbSpline
210
0.0
220
0.0
230
1.0
 70
     8
 71
     3
 72
    11
 73
     7
 74
     0
 42
0.0000000001
 43
0.0000000001
 40
0.0
 40
0.0
 40
0.0
 40
0.0
 40
1.0
 40
1.0
 40
1.0
 40
2.0
 40
2.0
 40
2.0
 40
2.0
 10
1013.030174847388
 20
57.59768785296455
 30
0.0
 10
1012.826478860953
 20
57.79383954360583
 30
0.0
 10
1012.598712978414
 20
57.8854488496745
 30
0.0
 10
1012.298737407562
 20
57.8854488496745
 30
0.0
 10
1012.018161454466
 20
57.8854488496745
 30
0.0
 10
1011.794347345915
 20
57.79383954360583
 30
0.0
 10
1011.590292107299
 20
57.59768785296455
 30
0.0
  0
SPLINE
  5
14F
330
1F
100
AcDbEntity
  8
Default
370
   100
100
AcDbSpline
210
0.0
220
0.0
230
1.0
 70
     8
 71
     3
 72
    11
 73
     7
 74
     0
 42
0.0000000001
 43
0.0000000001
 40
0.0
 40
0.0
 40
0.0
 40
0.0
 40
1.0
 40
1.0
 40
1.0
 40
2.0
 40
2.0
 40
2.0
 40
2.0
 10
1017.530167662344
 20
63.51744528589279
 30
0.0
 10
1017.333656719523
 20
63.32524536923938
 30
0.0
 10
1017.234143865479
 20
63.08490566037744
 30
0.0
 10
1017.234143865479
 20
62.81690353360409
 30
0.0
 10
1017.234143865479
 20
62.5528531808186
 30
0.0
 10
1017.333656719523
 20
62.28916208021383
 30
0.0
 10
1017.530167662344
 20
62.1213913118454
 30
0.0
  0
SPLINE
  5
150
330
1F
100
AcDbEntity
  8
Default
370
   100
100
AcDbSpline
210
0.0
220
0.0
230
1.0
 70
     8
 71
     3
 72
     8
 73
     4
 74
     0
 42
0.0000000001
 43
0.0000000001
 40
0.0
 40
0.0
 40
0.0
 40
0.0
 40
1.0
 40
1.0
 40
1.0
 40
1.0
 10
940.3548957084432
 20
59.47334348819459
 30
0.0
 10
941.2788923171025
 20
59.69392432711993
 30
0.0
 10
941.9467421209507
 20
60.33734498268404
 30
0.0
 10
942.1906743516194
 20
61.27714868729254
 30
0.0
  0
SPLINE
  5
151
330
1F
100
AcDbEntity
  8
Default
370
   100
100
AcDbSpline
210
0.0
220
0.0
230
1.0
 70
     8
 71
     3
 72
    11
 73
     7
 74
     0
 42
0.0000000001
 43
0.0000000001
 40
0.0
 40
0.0
 40
0.0
 40
0.0
 40
1.0
 40
1.0
 40
1.0
 40
2.0
 40
2.0
 40
2.0
 40
2.0
 10
956.5765686739979
 20
61.55341361422052
 30
0.0
 10
955.6410759955576
 20
64.78093520527636
 30
0.0
 10
952.8011875074345
 20
66.88507522740656
 30
0.0
 10
949.4339168181015
 20
66.88507522740656
 30
0.0
 10
945.9700072921706
 20
66.88507522740656
 30
0.0
 10
943.0579091157348
 20
64.62537901105043
 30
0.0
 10
942.1906743516194
 20
61.27714868729254
 30
0.0
  0
POLYLINE
  5
152
330
1F
100
AcDbEntity
  8
Default
370
   100
100
AcDb2dPolyline
 66
     1
 10
0.0
 20
0.0
 30
0.0
  0
VERTEX
  5
153
330
152
100
AcDbEntity
  8
Default
370
   100
100
AcDbVertex
100
AcDb2dVertex
 10
948.4739949913757
 20
48.63506444984068
 30
0.0
  0
VERTEX
  5
154
330
152
100
AcDbEntity
  8
Default
370
   100
100
AcDbVertex
100
AcDb2dVertex
 10
938.8471143062103
 20
48.63506444984068
 30
0.0
  0
SEQEND
  5
155
330
152
100
AcDbEntity
  8
Default
370
   100
  0
SPLINE
  5
156
330
1F
100
AcDbEntity
  8
Default
370
   100
100
AcDbSpline
210
0.0
220
0.0
230
1.0
 70
    11
 71
     3
 72
    20
 73
    16
 74
     0
 42
0.0000000001
 43
0.0000000001
 40
0.0
 40
0.0
 40
0.0
 40
0.0
 40
1.0
 40
1.0
 40
1.0
 40
2.0
 40
2.0
 40
2.0
 40
3.0
 40
3.0
 40
3.0
 40
4.0
 40
4.0
 40
4.0
 40
5.0
 40
5.0
 40
5.0
 40
5.0
 10
972.2590041163813
 20
23.6253646409632
 30
0.0
 10
972.2590041163813
 20
30.76909425340182
 30
0.0
 10
978.0943372868534
 20
36.58826107574441
 30
0.0
 10
985.2377076471117
 20
36.58826107574441
 30
0.0
 10
992.412692199268
 20
36.58826107574441
 30
0.0
 10
998.208148377687
 20
30.76909425340182
 30
0.0
 10
998.208148377687
 20
23.6253646409632
 30
0.0
 10
998.208148377687
 20
16.45038008880692
 30
0.0
 10
992.412692199268
 20
10.63947606661895
 30
0.0
 10
985.2377076471117
 20
10.63947606661895
 30
0.0
 10
978.0943372868534
 20
10.63947606661895
 30
0.0
 10
972.2590041163813
 20
16.45038008880692
 30
0.0
 10
972.2590041163813
 20
23.6253646409632
 30
0.0
 10
972.2590041163813
 20
23.6253646409632
 30
0.0
 10
972.2590041163813
 20
23.6253646409632
 30
0.0
 10
972.2590041163813
 20
23.6253646409632
 30
0.0
  0
SPLINE
  5
157
330
1F
100
AcDbEntity
  8
Default
370
   100
100
AcDbSpline
210
0.0
220
0.0
230
1.0
 70
    11
 71
     3
 72
    20
 73
    16
 74
     0
 42
0.0000000001
 43
0.0000000001
 40
0.0
 40
0.0
 40
0.0
 40
0.0
 40
1.0
 40
1.0
 40
1.0
 40
2.0
 40
2.0
 40
2.0
 40
3.0
 40
3.0
 40
3.0
 40
4.0
 40
4.0
 40
4.0
 40
5.0
 40
5.0
 40
5.0
 40
5.0
 10
1014.202055460703
 20
57.90915949359805
 30
0.0
 10
1014.202055460703
 20
59.58183764675414
 30
0.0
 10
1015.561824964504
 20
60.90137090632106
 30
0.0
 10
1017.193548369065
 20
60.90137090632106
 30
0.0
 10
1018.86586727004
 20
60.90137090632106
 30
0.0
 10
1020.201566877737
 20
59.58183764675414
 30
0.0
 10
1020.201566877737
 20
57.90915949359805
 30
0.0
 10
1020.201566877737
 20
56.27815459339763
 30
0.0
 10
1018.86586727004
 20
54.9259293853911
 30
0.0
 10
1017.193548369065
 20
54.9259293853911
 30
0.0
 10
1015.561824964504
 20
54.9259293853911
 30
0.0
 10
1014.202055460703
 20
56.27815459339763
 30
0.0
 10
1014.202055460703
 20
57.90915949359805
 30
0.0
 10
1014.202055460703
 20
57.90915949359805
 30
0.0
 10
1014.202055460703
 20
57.90915949359805
 30
0.0
 10
1014.202055460703
 20
57.90915949359805
 30
0.0
  0
POLYLINE
  5
158
330
1F
100
AcDbEntity
  8
Default
370
   100
100
AcDb2dPolyline
 66
     1
 10
0.0
 20
0.0
 30
0.0
  0
VERTEX
  5
159
330
158
100
AcDbEntity
  8
Default
370
   100
100
AcDbVertex
100
AcDb2dVertex
 10
940.3548957084432
 20
59.47334348819459
 30
0.0
  0
VERTEX
  5
15A
330
158
100
AcDbEntity
  8
Default
370
   100
100
AcDbVertex
100
AcDb2dVertex
 10
938.8471143062103
 20
59.47334348819459
 30
0.0
  0
SEQEND
  5
15B
330
158
100
AcDbEntity
  8
Default
370
   100
  0
SPLINE
  5
15C
330
1F
100
AcDbEntity
  8
Default
370
   100
100
AcDbSpline
210
0.0
220
0.0
230
1.0
 70
    11
 71
     3
 72
    20
 73
    16
 74
     0
 42
0.0000000001
 43
0.0000000001
 40
0.0
 40
0.0
 40
0.0
 40
0.0
 40
1.0
 40
1.0
 40
1.0
 40
2.0
 40
2.0
 40
2.0
 40
3.0
 40
3.0
 40
3.0
 40
4.0
 40
4.0
 40
4.0
 40
5.0
 40
5.0
 40
5.0
 40
5.0
 10
974.702996701416
 20
23.6253646409632
 30
0.0
 10
974.702996701416
 20
29.44489071548651
 30
0.0
 10
979.3901599024967
 20
34.17264941298163
 30
0.0
 10
985.2377076471117
 20
34.17264941298163
 30
0.0
 10
991.0769925915712
 20
34.17264941298163
 30
0.0
 10
995.804392036886
 20
29.44489071548651
 30
0.0
 10
995.804392036886
 20
23.6253646409632
 30
0.0
 10
995.804392036886
 20
17.78248717469705
 30
0.0
 10
991.0769925915712
 20
13.05472847720193
 30
0.0
 10
985.2377076471117
 20
13.05472847720193
 30
0.0
 10
979.3901599024967
 20
13.05472847720193
 30
0.0
 10
974.702996701416
 20
17.78248717469705
 30
0.0
 10
974.702996701416
 20
23.6253646409632
 30
0.0
 10
974.702996701416
 20
23.6253646409632
 30
0.0
 10
974.702996701416
 20
23.6253646409632
 30
0.0
 10
974.702996701416
 20
23.6253646409632
 30
0.0
  0
SPLINE
  5
15D
330
1F
100
AcDbEntity
  8
Default
370
   100
100
AcDbSpline
210
0.0
220
0.0
230
1.0
 70
    11
 71
     3
 72
    20
 73
    16
 74
     0
 42
0.0000000001
 43
0.0000000001
 40
0.0
 40
0.0
 40
0.0
 40
0.0
 40
1.0
 40
1.0
 40
1.0
 40
2.0
 40
2.0
 40
2.0
 40
3.0
 40
3.0
 40
3.0
 40
4.0
 40
4.0
 40
4.0
 40
5.0
 40
5.0
 40
5.0
 40
5.0
 10
943.0579091157348
 20
59.38568595611378
 30
0.0
 10
943.0579091157348
 20
62.9293494661506
 30
0.0
 10
945.9261785261298
 20
65.76456767592572
 30
0.0
 10
949.4339168181015
 20
65.76456767592572
 30
0.0
 10
952.9290812837495
 20
65.76456767592572
 30
0.0
 10
955.7646587457049
 20
62.9293494661506
 30
0.0
 10
955.7646587457049
 20
59.38568595611378
 30
0.0
 10
955.7646587457049
 20
55.90165830806563
 30
0.0
 10
952.9290812837495
 20
53.05027375016107
 30
0.0
 10
949.4339168181015
 20
53.05027375016107
 30
0.0
 10
945.9261785261298
 20
53.05027375016107
 30
0.0
 10
943.0579091157348
 20
55.90165830806563
 30
0.0
 10
943.0579091157348
 20
59.38568595611378
 30
0.0
 10
943.0579091157348
 20
59.38568595611378
 30
0.0
 10
943.0579091157348
 20
59.38568595611378
 30
0.0
 10
943.0579091157348
 20
59.38568595611378
 30
0.0
  0
SPLINE
  5
15E
330
1F
100
AcDbEntity
  8
Default
370
   100
100
AcDbSpline
210
0.0
220
0.0
230
1.0
 70
     8
 71
     3
 72
    38
 73
    34
 74
     0
 42
0.0000000001
 43
0.0000000001
 40
0.0
 40
0.0
 40
0.0
 40
0.0
 40
1.0
 40
1.0
 40
1.0
 40
2.0
 40
2.0
 40
2.0
 40
3.0
 40
3.0
 40
3.0
 40
4.0
 40
4.0
 40
4.0
 40
5.0
 40
5.0
 40
5.0
 40
6.0
 40
6.0
 40
6.0
 40
7.0
 40
7.0
 40
7.0
 40
8.0
 40
8.0
 40
8.0
 40
9.0
 40
9.0
 40
9.0
 40
10.0
 40
10.0
 40
10.0
 40
11.0
 40
11.0
 40
11.0
 40
11.0
 10
503.6928514198345
 20
66.9684217333197
 30
0.0
 10
503.6928514198345
 20
66.9684217333197
 30
0.0
 10
476.0721067619144
 20
94.60569199154997
 30
0.0
 10
476.0721067619144
 20
94.60569199154997
 30
0.0
 10
475.575979500422
 20
95.0975082268751
 30
0.0
 10
474.9886021850417
 20
95.33748868355633
 30
0.0
 10
474.312489581038
 20
95.33748868355633
 30
0.0
 10
473.6040442807749
 20
95.33748868355633
 30
0.0
 10
473.0403776093186
 20
95.0975082268751
 30
0.0
 10
472.5446096000065
 20
94.60569199154997
 30
0.0
 10
472.5446096000065
 20
94.60569199154997
 30
0.0
 10
468.5051780806572
 20
90.54578309790304
 30
0.0
 10
468.5051780806572
 20
90.54578309790304
 30
0.0
 10
468.0209061411266
 20
90.04570406242328
 30
0.0
 10
467.7809256844454
 20
89.46982281682449
 30
0.0
 10
467.7809256844454
 20
88.80233226515702
 30
0.0
 10
467.7809256844454
 20
88.11005331302295
 30
0.0
 10
468.0209061411266
 20
87.51405394530684
 30
0.0
 10
468.5051780806572
 20
87.02583023178886
 30
0.0
 10
468.5051780806572
 20
87.02583023178886
 30
0.0
 10
469.381034897108
 20
86.15464369368692
 30
0.0
 10
469.381034897108
 20
86.15464369368692
 30
0.0
 10
469.5847308835429
 20
85.99082469930545
 30
0.0
 10
469.8010006963005
 20
85.87478624495179
 30
0.0
 10
470.0686435708927
 20
85.87478624495179
 30
0.0
 10
470.3409567238338
 20
85.87478624495179
 30
0.0
 10
470.5884814763091
 20
85.99082469930545
 30
0.0
 10
470.7803221407818
 20
86.15464369368692
 30
0.0
 10
470.7803221407818
 20
86.15464369368692
 30
0.0
 10
473.8440247374566
 20
89.24205693428485
 30
0.0
 10
473.8440247374566
 20
89.24205693428485
 30
0.0
 10
473.8440247374566
 20
89.24205693428485
 30
0.0
 10
474.9886021850417
 20
89.8143456580774
 30
0.0
 10
474.9886021850417
 20
89.8143456580774
 30
0.0
  0
SPLINE
  5
15F
330
1F
100
AcDbEntity
  8
Default
370
   100
100
AcDbSpline
210
0.0
220
0.0
230
1.0
 70
    11
 71
     3
 72
    23
 73
    19
 74
     0
 42
0.0000000001
 43
0.0000000001
 40
0.0
 40
0.0
 40
0.0
 40
0.0
 40
1.0
 40
1.0
 40
1.0
 40
2.0
 40
2.0
 40
2.0
 40
3.0
 40
3.0
 40
3.0
 40
4.0
 40
4.0
 40
4.0
 40
5.0
 40
5.0
 40
5.0
 40
6.0
 40
6.0
 40
6.0
 40
6.0
 10
1452.40744711743
 20
27.12160686315292
 30
0.0
 10
1452.40744711743
 20
28.42964405293878
 30
0.0
 10
1453.491670198664
 20
29.51674115161859
 30
0.0
 10
1454.847847180658
 20
29.51674115161859
 30
0.0
 10
1456.15911764007
 20
29.51674115161859
 30
0.0
 10
1457.2192708252
 20
28.42964405293878
 30
0.0
 10
1457.2192708252
 20
27.12160686315292
 30
0.0
 10
1457.2192708252
 20
25.78554800327584
 30
0.0
 10
1456.15911764007
 20
24.7250355659653
 30
0.0
 10
1454.847847180658
 20
24.7250355659653
 30
0.0
 10
1453.491670198664
 20
24.7250355659653
 30
0.0
 10
1452.40744711743
 20
25.78554800327584
 30
0.0
 10
1452.40744711743
 20
27.12160686315292
 30
0.0
 10
1452.40744711743
 20
27.12160686315292
 30
0.0
 10
1452.40744711743
 20
27.12160686315292
 30
0.0
 10
1452.40744711743
 20
27.12160686315292
 30
0.0
 10
1452.40744711743
 20
27.12160686315292
 30
0.0
 10
1452.40744711743
 20
27.12160686315292
 30
0.0
 10
1452.40744711743
 20
27.12160686315292
 30
0.0
  0
POLYLINE
  5
160
330
1F
100
AcDbEntity
  8
Default
370
   100
100
AcDb2dPolyline
 66
     1
 10
0.0
 20
0.0
 30
0.0
  0
VERTEX
  5
161
330
160
100
AcDbEntity
  8
Default
370
   100
100
AcDbVertex
100
AcDb2dVertex
 10
1457.195560181277
 20
-37.25925792869566
 30
0.0
  0
VERTEX
  5
162
330
160
100
AcDbEntity
  8
Default
370
   100
100
AcDbVertex
100
AcDb2dVertex
 10
1457.195560181277
 20
-22.74511057782183
 30
0.0
  0
SEQEND
  5
163
330
160
100
AcDbEntity
  8
Default
370
   100
  0
POLYLINE
  5
164
330
1F
100
AcDbEntity
  8
Default
370
   100
100
AcDb2dPolyline
 66
     1
 10
0.0
 20
0.0
 30
0.0
  0
VERTEX
  5
165
330
164
100
AcDbEntity
  8
Default
370
   100
100
AcDbVertex
100
AcDb2dVertex
 10
1462.654756318597
 20
-37.25925792869566
 30
0.0
  0
VERTEX
  5
166
330
164
100
AcDbEntity
  8
Default
370
   100
100
AcDbVertex
100
AcDb2dVertex
 10
1462.654756318597
 20
-22.74511057782183
 30
0.0
  0
SEQEND
  5
167
330
164
100
AcDbEntity
  8
Default
370
   100
  0
POLYLINE
  5
168
330
1F
100
AcDbEntity
  8
Default
370
   100
100
AcDb2dPolyline
 66
     1
 10
0.0
 20
0.0
 30
0.0
  0
VERTEX
  5
169
330
168
100
AcDbEntity
  8
Default
370
   100
100
AcDbVertex
100
AcDb2dVertex
 10
1454.459854825545
 20
-38.45520843811573
 30
0.0
  0
VERTEX
  5
16A
330
168
100
AcDbEntity
  8
Default
370
   100
100
AcDbVertex
100
AcDb2dVertex
 10
1465.426386892394
 20
-38.45520843811573
 30
0.0
  0
SEQEND
  5
16B
330
168
100
AcDbEntity
  8
Default
370
   100
  0
SPLINE
  5
16C
330
1F
100
AcDbEntity
  8
Default
370
   100
100
AcDbSpline
210
0.0
220
0.0
230
1.0
 70
     8
 71
     3
 72
     8
 73
     4
 74
     0
 42
0.0000000001
 43
0.0000000001
 40
0.0
 40
0.0
 40
0.0
 40
0.0
 40
1.0
 40
1.0
 40
1.0
 40
1.0
 10
1462.654756318597
 20
-37.25925792869566
 30
0.0
 10
1462.654756318597
 20
-37.93141875871243
 30
0.0
 10
1463.190760572143
 20
-38.45520843811573
 30
0.0
 10
1463.862921402159
 20
-38.45520843811573
 30
0.0
  0
SPLINE
  5
16D
330
1F
100
AcDbEntity
  8
Default
370
   100
100
AcDbSpline
210
0.0
220
0.0
230
1.0
 70
     8
 71
     3
 72
     8
 73
     4
 74
     0
 42
0.0000000001
 43
0.0000000001
 40
0.0
 40
0.0
 40
0.0
 40
0.0
 40
1.0
 40
1.0
 40
1.0
 40
1.0
 10
1456.015416767806
 20
-38.45520843811573
 30
0.0
 10
1456.655244901563
 20
-38.45520843811573
 30
0.0
 10
1457.195560181277
 20
-37.93141875871243
 30
0.0
 10
1457.195560181277
 20
-37.25925792869566
 30
0.0
  0
POLYLINE
  5
16E
330
1F
100
AcDbEntity
  8
Default
370
   100
100
AcDb2dPolyline
 66
     1
 10
0.0
 20
0.0
 30
0.0
  0
VERTEX
  5
16F
330
16E
100
AcDbEntity
  8
Default
370
   100
100
AcDbVertex
100
AcDb2dVertex
 10
1462.654756318597
 20
-22.74511057782183
 30
0.0
  0
VERTEX
  5
170
330
16E
100
AcDbEntity
  8
Default
370
   100
100
AcDbVertex
100
AcDb2dVertex
 10
1457.195560181277
 20
-22.74511057782183
 30
0.0
  0
SEQEND
  5
171
330
16E
100
AcDbEntity
  8
Default
370
   100
  0
POLYLINE
  5
172
330
1F
100
AcDbEntity
  8
Default
370
   100
100
AcDb2dPolyline
 66
     1
 10
0.0
 20
0.0
 30
0.0
  0
VERTEX
  5
173
330
172
100
AcDbEntity
  8
Default
370
   100
100
AcDbVertex
100
AcDb2dVertex
 10
1457.195560181277
 20
-22.74511057782183
 30
0.0
  0
VERTEX
  5
174
330
172
100
AcDbEntity
  8
Default
370
   100
100
AcDbVertex
100
AcDb2dVertex
 10
1455.247335605553
 20
13.75455172512829
 30
0.0
  0
SEQEND
  5
175
330
172
100
AcDbEntity
  8
Default
370
   100
  0
POLYLINE
  5
176
330
1F
100
AcDbEntity
  8
Default
370
   100
100
AcDb2dPolyline
 66
     1
 10
0.0
 20
0.0
 30
0.0
  0
VERTEX
  5
177
330
176
100
AcDbEntity
  8
Default
370
   100
100
AcDbVertex
100
AcDb2dVertex
 10
1462.654756318597
 20
-22.74511057782183
 30
0.0
  0
VERTEX
  5
178
330
176
100
AcDbEntity
  8
Default
370
   100
100
AcDbVertex
100
AcDb2dVertex
 10
1464.790510532625
 20
17.8460748106736
 30
0.0
  0
SEQEND
  5
179
330
176
100
AcDbEntity
  8
Default
370
   100
  0
SPLINE
  5
17A
330
1F
100
AcDbEntity
  8
Default
370
   100
100
AcDbSpline
210
0.0
220
0.0
230
1.0
 70
    11
 71
     3
 72
    23
 73
    19
 74
     0
 42
0.0000000001
 43
0.0000000001
 40
0.0
 40
0.0
 40
0.0
 40
0.0
 40
1.0
 40
1.0
 40
1.0
 40
2.0
 40
2.0
 40
2.0
 40
3.0
 40
3.0
 40
3.0
 40
4.0
 40
4.0
 40
4.0
 40
5.0
 40
5.0
 40
5.0
 40
6.0
 40
6.0
 40
6.0
 40
6.0
 10
1452.855434586714
 20
27.12160686315292
 30
0.0
 10
1452.855434586714
 20
28.20511144002649
 30
0.0
 10
1453.715484307216
 20
29.08527928264448
 30
0.0
 10
1454.847847180658
 20
29.08527928264448
 30
0.0
 10
1455.871356643361
 20
29.08527928264448
 30
0.0
 10
1456.787090451865
 20
28.20511144002649
 30
0.0
 10
1456.787090451865
 20
27.12160686315292
 30
0.0
 10
1456.787090451865
 20
26.03774303409955
 30
0.0
 10
1455.871356643361
 20
25.14967164350674
 30
0.0
 10
1454.847847180658
 20
25.14967164350674
 30
0.0
 10
1453.715484307216
 20
25.14967164350674
 30
0.0
 10
1452.855434586714
 20
26.03774303409955
 30
0.0
 10
1452.855434586714
 20
27.12160686315292
 30
0.0
 10
1452.855434586714
 20
27.12160686315292
 30
0.0
 10
1452.855434586714
 20
27.12160686315292
 30
0.0
 10
1452.855434586714
 20
27.12160686315292
 30
0.0
 10
1452.855434586714
 20
27.12160686315292
 30
0.0
 10
1452.855434586714
 20
27.12160686315292
 30
0.0
 10
1452.855434586714
 20
27.12160686315292
 30
0.0
  0
SPLINE
  5
17B
330
1F
100
AcDbEntity
  8
Default
370
   100
100
AcDbSpline
210
0.0
220
0.0
230
1.0
 70
    11
 71
     3
 72
    23
 73
    19
 74
     0
 42
0.0000000001
 43
0.0000000001
 40
0.0
 40
0.0
 40
0.0
 40
0.0
 40
1.0
 40
1.0
 40
1.0
 40
2.0
 40
2.0
 40
2.0
 40
3.0
 40
3.0
 40
3.0
 40
4.0
 40
4.0
 40
4.0
 40
5.0
 40
5.0
 40
5.0
 40
6.0
 40
6.0
 40
6.0
 40
6.0
 10
1452.855434586714
 20
27.12160686315292
 30
0.0
 10
1452.855434586714
 20
28.20511144002649
 30
0.0
 10
1453.715484307216
 20
29.08527928264448
 30
0.0
 10
1454.847847180658
 20
29.08527928264448
 30
0.0
 10
1455.871356643361
 20
29.08527928264448
 30
0.0
 10
1456.787090451865
 20
28.20511144002649
 30
0.0
 10
1456.787090451865
 20
27.12160686315292
 30
0.0
 10
1456.787090451865
 20
26.03774303409955
 30
0.0
 10
1455.871356643361
 20
25.14967164350674
 30
0.0
 10
1454.847847180658
 20
25.14967164350674
 30
0.0
 10
1453.715484307216
 20
25.14967164350674
 30
0.0
 10
1452.855434586714
 20
26.03774303409955
 30
0.0
 10
1452.855434586714
 20
27.12160686315292
 30
0.0
 10
1452.855434586714
 20
27.12160686315292
 30
0.0
 10
1452.855434586714
 20
27.12160686315292
 30
0.0
 10
1452.855434586714
 20
27.12160686315292
 30
0.0
 10
1452.855434586714
 20
27.12160686315292
 30
0.0
 10
1452.855434586714
 20
27.12160686315292
 30
0.0
 10
1452.855434586714
 20
27.12160686315292
 30
0.0
  0
SPLINE
  5
17C
330
1F
100
AcDbEntity
  8
Default
370
   100
100
AcDbSpline
210
0.0
220
0.0
230
1.0
 70
    11
 71
     3
 72
    23
 73
    19
 74
     0
 42
0.0000000001
 43
0.0000000001
 40
0.0
 40
0.0
 40
0.0
 40
0.0
 40
1.0
 40
1.0
 40
1.0
 40
2.0
 40
2.0
 40
2.0
 40
3.0
 40
3.0
 40
3.0
 40
4.0
 40
4.0
 40
4.0
 40
5.0
 40
5.0
 40
5.0
 40
6.0
 40
6.0
 40
6.0
 40
6.0
 10
1446.572832451319
 20
27.12160686315292
 30
0.0
 10
1446.572832451319
 20
31.68051703573838
 30
0.0
 10
1450.279955703557
 20
35.3639296440524
 30
0.0
 10
1454.847847180658
 20
35.3639296440524
 30
0.0
 10
1459.390950257294
 20
35.3639296440524
 30
0.0
 10
1463.054603995673
 20
31.68051703573838
 30
0.0
 10
1463.054603995673
 20
27.12160686315292
 30
0.0
 10
1463.054603995673
 20
22.57419276034943
 30
0.0
 10
1459.390950257294
 20
18.87030277773738
 30
0.0
 10
1454.847847180658
 20
18.87030277773738
 30
0.0
 10
1450.279955703557
 20
18.87030277773738
 30
0.0
 10
1446.572832451319
 20
22.57419276034943
 30
0.0
 10
1446.572832451319
 20
27.12160686315292
 30
0.0
 10
1446.572832451319
 20
27.12160686315292
 30
0.0
 10
1446.572832451319
 20
27.12160686315292
 30
0.0
 10
1446.572832451319
 20
27.12160686315292
 30
0.0
 10
1446.572832451319
 20
27.12160686315292
 30
0.0
 10
1446.572832451319
 20
27.12160686315292
 30
0.0
 10
1446.572832451319
 20
27.12160686315292
 30
0.0
  0
SPLINE
  5
17D
330
1F
100
AcDbEntity
  8
Default
370
   100
100
AcDbSpline
210
0.0
220
0.0
230
1.0
 70
    11
 71
     3
 72
    23
 73
    19
 74
     0
 42
0.0000000001
 43
0.0000000001
 40
0.0
 40
0.0
 40
0.0
 40
0.0
 40
1.0
 40
1.0
 40
1.0
 40
2.0
 40
2.0
 40
2.0
 40
3.0
 40
3.0
 40
3.0
 40
4.0
 40
4.0
 40
4.0
 40
5.0
 40
5.0
 40
5.0
 40
6.0
 40
6.0
 40
6.0
 40
6.0
 10
1441.461033172698
 20
27.12160686315292
 30
0.0
 10
1441.461033172698
 20
34.49202460158904
 30
0.0
 10
1447.448330015589
 20
40.46387360071276
 30
0.0
 10
1454.847847180658
 20
40.46387360071276
 30
0.0
 10
1462.190602501184
 20
40.46387360071276
 30
0.0
 10
1468.158140474139
 20
34.49202460158904
 30
0.0
 10
1468.158140474139
 20
27.12160686315292
 30
0.0
 10
1468.158140474139
 20
19.76268519449877
 30
0.0
 10
1462.190602501184
 20
13.75455172512829
 30
0.0
 10
1454.847847180658
 20
13.75455172512829
 30
0.0
 10
1447.448330015589
 20
13.75455172512829
 30
0.0
 10
1441.461033172698
 20
19.76268519449877
 30
0.0
 10
1441.461033172698
 20
27.12160686315292
 30
0.0
 10
1441.461033172698
 20
27.12160686315292
 30
0.0
 10
1441.461033172698
 20
27.12160686315292
 30
0.0
 10
1441.461033172698
 20
27.12160686315292
 30
0.0
 10
1441.461033172698
 20
27.12160686315292
 30
0.0
 10
1441.461033172698
 20
27.12160686315292
 30
0.0
 10
1441.461033172698
 20
27.12160686315292
 30
0.0
  0
SPLINE
  5
17E
330
1F
100
AcDbEntity
  8
Default
370
   100
100
AcDbSpline
210
0.0
220
0.0
230
1.0
 70
    11
 71
     3
 72
    23
 73
    19
 74
     0
 42
0.0000000001
 43
0.0000000001
 40
0.0
 40
0.0
 40
0.0
 40
0.0
 40
1.0
 40
1.0
 40
1.0
 40
2.0
 40
2.0
 40
2.0
 40
3.0
 40
3.0
 40
3.0
 40
4.0
 40
4.0
 40
4.0
 40
5.0
 40
5.0
 40
5.0
 40
6.0
 40
6.0
 40
6.0
 40
6.0
 10
1452.339907707466
 20
27.12160686315292
 30
0.0
 10
1452.339907707466
 20
28.45335469686233
 30
0.0
 10
1453.443889658636
 20
29.60116541407388
 30
0.0
 10
1454.847847180658
 20
29.60116541407388
 30
0.0
 10
1456.183546788355
 20
29.60116541407388
 30
0.0
 10
1457.315191157436
 20
28.45335469686233
 30
0.0
 10
1457.315191157436
 20
27.12160686315292
 30
0.0
 10
1457.315191157436
 20
25.74171923723588
 30
0.0
 10
1456.183546788355
 20
24.65354438201393
 30
0.0
 10
1454.847847180658
 20
24.65354438201393
 30
0.0
 10
1453.443889658636
 20
24.65354438201393
 30
0.0
 10
1452.339907707466
 20
25.74171923723588
 30
0.0
 10
1452.339907707466
 20
27.12160686315292
 30
0.0
 10
1452.339907707466
 20
27.12160686315292
 30
0.0
 10
1452.339907707466
 20
27.12160686315292
 30
0.0
 10
1452.339907707466
 20
27.12160686315292
 30
0.0
 10
1452.339907707466
 20
27.12160686315292
 30
0.0
 10
1452.339907707466
 20
27.12160686315292
 30
0.0
 10
1452.339907707466
 20
27.12160686315292
 30
0.0
  0
POLYLINE
  5
17F
330
1F
100
AcDbEntity
  8
Default
370
   100
100
AcDb2dPolyline
 66
     1
 10
0.0
 20
0.0
 30
0.0
  0
VERTEX
  5
180
330
17F
100
AcDbEntity
  8
Default
370
   100
100
AcDbVertex
100
AcDb2dVertex
 10
1442.640458081807
 20
21.71019126586089
 30
0.0
  0
VERTEX
  5
181
330
17F
100
AcDbEntity
  8
Default
370
   100
100
AcDbVertex
100
AcDb2dVertex
 10
1418.311900407462
 20
21.71019126586089
 30
0.0
  0
SEQEND
  5
182
330
17F
100
AcDbEntity
  8
Default
370
   100
  0
POLYLINE
  5
183
330
1F
100
AcDbEntity
  8
Default
370
   100
100
AcDb2dPolyline
 66
     1
 10
0.0
 20
0.0
 30
0.0
  0
VERTEX
  5
184
330
183
100
AcDbEntity
  8
Default
370
   100
100
AcDbVertex
100
AcDb2dVertex
 10
1441.629163193247
 20
18.61415597292671
 30
0.0
  0
VERTEX
  5
185
330
183
100
AcDbEntity
  8
Default
370
   100
100
AcDbVertex
100
AcDb2dVertex
 10
1418.311900407462
 20
18.61415597292671
 30
0.0
  0
SEQEND
  5
186
330
183
100
AcDbEntity
  8
Default
370
   100
  0
SPLINE
  5
187
330
1F
100
AcDbEntity
  8
Default
370
   100
100
AcDbSpline
210
0.0
220
0.0
230
1.0
 70
     8
 71
     3
 72
    23
 73
    19
 74
     0
 42
0.0000000001
 43
0.0000000001
 40
0.0
 40
0.0
 40
0.0
 40
0.0
 40
1.0
 40
1.0
 40
1.0
 40
2.0
 40
2.0
 40
2.0
 40
3.0
 40
3.0
 40
3.0
 40
4.0
 40
4.0
 40
4.0
 40
5.0
 40
5.0
 40
5.0
 40
6.0
 40
6.0
 40
6.0
 40
6.0
 10
1462.602664752401
 20
37.96383767549469
 30
0.0
 10
1462.602664752401
 20
37.96383767549469
 30
0.0
 10
1511.12901230733
 20
120.4025133282557
 30
0.0
 10
1511.12901230733
 20
120.4025133282557
 30
0.0
 10
1512.61272381346
 20
122.8504576872774
 30
0.0
 10
1515.020431928248
 20
124.2497449309512
 30
0.0
 10
1517.880797790669
 20
124.2497449309512
 30
0.0
 10
1522.255770846756
 20
124.2497449309512
 30
0.0
 10
1525.751294564584
 20
120.7305105691985
 30
0.0
 10
1525.751294564584
 20
116.4029588009598
 30
0.0
 10
1525.751294564584
 20
114.6832186121364
 30
0.0
 10
1525.291451773338
 20
113.2318398022671
 30
0.0
 10
1524.283749406585
 20
111.8594964721433
 30
0.0
 10
1524.283749406585
 20
111.8594964721433
 30
0.0
 10
1472.029441972939
 20
38.57564413915952
 30
0.0
 10
1472.029441972939
 20
38.57564413915952
 30
0.0
 10
1470.201566877737
 20
35.98040638606653
 30
0.0
 10
1468.901792488106
 20
33.62047881130638
 30
0.0
 10
1467.665964986634
 20
30.68143672132101
 30
0.0
  0
SPLINE
  5
188
330
1F
100
AcDbEntity
  8
Default
370
   100
100
AcDbSpline
210
0.0
220
0.0
230
1.0
 70
     8
 71
     3
 72
    20
 73
    16
 74
     0
 42
0.0000000001
 43
0.0000000001
 40
0.0
 40
0.0
 40
0.0
 40
0.0
 40
1.0
 40
1.0
 40
1.0
 40
2.0
 40
2.0
 40
2.0
 40
3.0
 40
3.0
 40
3.0
 40
4.0
 40
4.0
 40
4.0
 40
5.0
 40
5.0
 40
5.0
 40
5.0
 10
1459.915099188878
 20
-38.45520843811573
 30
0.0
 10
1459.915099188878
 20
-38.45520843811573
 30
0.0
 10
1471.069520146214
 20
-38.45520843811573
 30
0.0
 10
1471.069520146214
 20
-38.45520843811573
 30
0.0
 10
1471.505652293536
 20
-38.45520843811573
 30
0.0
 10
1471.865263726377
 20
-38.58310221443116
 30
0.0
 10
1472.161646775422
 20
-38.89134058543732
 30
0.0
 10
1472.161646775422
 20
-38.89134058543732
 30
0.0
 10
1476.781270566538
 20
-43.53862679446502
 30
0.0
 10
1476.781270566538
 20
-43.53862679446502
 30
0.0
 10
1477.041009893156
 20
-43.78615154694035
 30
0.0
 10
1477.220635983486
 20
-44.13426691000041
 30
0.0
 10
1477.245065131772
 20
-44.51830749112651
 30
0.0
 10
1477.245065131772
 20
-44.51830749112651
 30
0.0
 10
1479.164908785222
 20
-75.98736150828427
 30
0.0
 10
1479.164908785222
 20
-75.98736150828427
 30
0.0
  0
MTEXT
  5
189
330
1F
100
AcDbEntity
  8
Default
100
AcDbMText
 10
967.9878549405058
 20
-311.407460135366
 30
0.0
 40
15.31727923282858
 41
59.42366160205785
 71
     7
 72
     1
  1
\fFrutiger LT 45 Light;1117
 73
     2
 44
0.9638554216867471
  0
POLYLINE
  5
18A
330
1F
100
AcDbEntity
  8
Default
100
AcDb2dPolyline
 66
     1
 10
0.0
 20
0.0
 30
0.0
  0
VERTEX
  5
18B
330
18A
100
AcDbEntity
  8
Default
100
AcDbVertex
100
AcDb2dVertex
 10
1549.915099188878
 20
-272.8195629714845
 30
0.0
  0
VERTEX
  5
18C
330
18A
100
AcDbEntity
  8
Default
100
AcDbVertex
100
AcDb2dVertex
 10
428.7760614099192
 20
-272.8195629714845
 30
0.0
  0
SEQEND
  5
18D
330
18A
100
AcDbEntity
  8
Default
  0
POLYLINE
  5
18E
330
1F
100
AcDbEntity
  8
Default
100
AcDb2dPolyline
 66
     1
 10
0.0
 20
0.0
 30
0.0
  0
VERTEX
  5
18F
330
18E
100
AcDbEntity
  8
Default
100
AcDbVertex
100
AcDb2dVertex
 10
1549.915099188878
 20
-210.9873615082843
 30
0.0
  0
VERTEX
  5
190
330
18E
100
AcDbEntity
  8
Default
100
AcDbVertex
100
AcDb2dVertex
 10
1517.415099188878
 20
-75.98736150828427
 30
0.0
  0
SEQEND
  5
191
330
18E
100
AcDbEntity
  8
Default
  0
POLYLINE
  5
192
330
1F
100
AcDbEntity
  8
Default
100
AcDb2dPolyline
 66
     1
 10
0.0
 20
0.0
 30
0.0
  0
VERTEX
  5
193
330
192
100
AcDbEntity
  8
Default
100
AcDbVertex
100
AcDb2dVertex
 10
1517.415099188878
 20
-75.98736150828427
 30
0.0
  0
VERTEX
  5
194
330
192
100
AcDbEntity
  8
Default
100
AcDbVertex
100
AcDb2dVertex
 10
1402.415099188878
 20
-75.98736150828427
 30
0.0
  0
SEQEND
  5
195
330
192
100
AcDbEntity
  8
Default
  0
POLYLINE
  5
196
330
1F
100
AcDbEntity
  8
Default
100
AcDb2dPolyline
 66
     1
 10
0.0
 20
0.0
 30
0.0
  0
VERTEX
  5
197
330
196
100
AcDbEntity
  8
Default
100
AcDbVertex
100
AcDb2dVertex
 10
1402.415099188878
 20
-75.98736150828427
 30
0.0
  0
VERTEX
  5
198
330
196
100
AcDbEntity
  8
Default
100
AcDbVertex
100
AcDb2dVertex
 10
1369.915099188878
 20
-210.9873615082843
 30
0.0
  0
SEQEND
  5
199
330
196
100
AcDbEntity
  8
Default
  0
POLYLINE
  5
19A
330
1F
100
AcDbEntity
  8
Default
100
AcDb2dPolyline
 66
     1
 10
0.0
 20
0.0
 30
0.0
  0
VERTEX
  5
19B
330
19A
100
AcDbEntity
  8
Default
100
AcDbVertex
100
AcDb2dVertex
 10
1369.915099188878
 20
-210.9873615082843
 30
0.0
  0
VERTEX
  5
19C
330
19A
100
AcDbEntity
  8
Default
100
AcDbVertex
100
AcDb2dVertex
 10
1549.915099188878
 20
-210.9873615082843
 30
0.0
  0
SEQEND
  5
19D
330
19A
100
AcDbEntity
  8
Default
  0
POLYLINE
  5
19E
330
1F
100
AcDbEntity
  8
Default
100
AcDb2dPolyline
 66
     1
 10
0.0
 20
0.0
 30
0.0
  0
VERTEX
  5
19F
330
19E
100
AcDbEntity
  8
Default
100
AcDbVertex
100
AcDb2dVertex
 10
1199.475010024123
 20
696.864813404417
 30
0.0
  0
VERTEX
  5
1A0
330
19E
100
AcDbEntity
  8
Default
100
AcDbVertex
100
AcDb2dVertex
 10
1166.975010024123
 20
831.864813404417
 30
0.0
  0
SEQEND
  5
1A1
330
19E
100
AcDbEntity
  8
Default
  0
POLYLINE
  5
1A2
330
1F
100
AcDbEntity
  8
Default
100
AcDb2dPolyline
 66
     1
 10
0.0
 20
0.0
 30
0.0
  0
VERTEX
  5
1A3
330
1A2
100
AcDbEntity
  8
Default
100
AcDbVertex
100
AcDb2dVertex
 10
1166.975010024123
 20
831.864813404417
 30
0.0
  0
VERTEX
  5
1A4
330
1A2
100
AcDbEntity
  8
Default
100
AcDbVertex
100
AcDb2dVertex
 10
1051.975010024123
 20
831.864813404417
 30
0.0
  0
SEQEND
  5
1A5
330
1A2
100
AcDbEntity
  8
Default
  0
POLYLINE
  5
1A6
330
1F
100
AcDbEntity
  8
Default
100
AcDb2dPolyline
 66
     1
 10
0.0
 20
0.0
 30
0.0
  0
VERTEX
  5
1A7
330
1A6
100
AcDbEntity
  8
Default
100
AcDbVertex
100
AcDb2dVertex
 10
1051.975010024123
 20
831.864813404417
 30
0.0
  0
VERTEX
  5
1A8
330
1A6
100
AcDbEntity
  8
Default
100
AcDbVertex
100
AcDb2dVertex
 10
1019.475010024123
 20
696.864813404417
 30
0.0
  0
SEQEND
  5
1A9
330
1A6
100
AcDbEntity
  8
Default
  0
POLYLINE
  5
1AA
330
1F
100
AcDbEntity
  8
Default
100
AcDb2dPolyline
 66
     1
 10
0.0
 20
0.0
 30
0.0
  0
VERTEX
  5
1AB
330
1AA
100
AcDbEntity
  8
Default
100
AcDbVertex
100
AcDb2dVertex
 10
1019.475010024123
 20
696.864813404417
 30
0.0
  0
VERTEX
  5
1AC
330
1AA
100
AcDbEntity
  8
Default
100
AcDbVertex
100
AcDb2dVertex
 10
1199.475010024123
 20
696.864813404417
 30
0.0
  0
SEQEND
  5
1AD
330
1AA
100
AcDbEntity
  8
Default
  0
POLYLINE
  5
1AE
330
1F
100
AcDbEntity
  8
Default
370
   100
100
AcDb2dPolyline
 66
     1
 10
0.0
 20
0.0
 30
0.0
  0
VERTEX
  5
1AF
330
1AE
100
AcDbEntity
  8
Default
370
   100
100
AcDbVertex
100
AcDb2dVertex
 10
1106.731765616044
 20
870.4362830332376
 30
0.0
  0
VERTEX
  5
1B0
330
1AE
100
AcDbEntity
  8
Default
370
   100
100
AcDbVertex
100
AcDb2dVertex
 10
1106.731765616044
 20
884.8986980700969
 30
0.0
  0
SEQEND
  5
1B1
330
1AE
100
AcDbEntity
  8
Default
370
   100
  0
POLYLINE
  5
1B2
330
1F
100
AcDbEntity
  8
Default
370
   100
100
AcDb2dPolyline
 66
     1
 10
0.0
 20
0.0
 30
0.0
  0
VERTEX
  5
1B3
330
1B2
100
AcDbEntity
  8
Default
370
   100
100
AcDbVertex
100
AcDb2dVertex
 10
1112.195272779532
 20
870.4362830332376
 30
0.0
  0
VERTEX
  5
1B4
330
1B2
100
AcDbEntity
  8
Default
370
   100
100
AcDbVertex
100
AcDb2dVertex
 10
1112.195272779532
 20
884.8986980700969
 30
0.0
  0
SEQEND
  5
1B5
330
1B2
100
AcDbEntity
  8
Default
370
   100
  0
SPLINE
  5
1B6
330
1F
100
AcDbEntity
  8
Default
370
   100
100
AcDbSpline
210
0.0
220
0.0
230
1.0
 70
     8
 71
     3
 72
     8
 73
     4
 74
     0
 42
0.0000000001
 43
0.0000000001
 40
0.0
 40
0.0
 40
0.0
 40
0.0
 40
1.0
 40
1.0
 40
1.0
 40
1.0
 10
1112.195272779532
 20
870.4362830332376
 30
0.0
 10
1112.195272779532
 20
869.7883717254159
 30
0.0
 10
1112.746724876846
 20
869.260450645935
 30
0.0
 10
1113.382960488796
 20
869.260450645935
 30
0.0
  0
SPLINE
  5
1B7
330
1F
100
AcDbEntity
  8
Default
370
   100
100
AcDbSpline
210
0.0
220
0.0
230
1.0
 70
     8
 71
     3
 72
     8
 73
     4
 74
     0
 42
0.0000000001
 43
0.0000000001
 40
0.0
 40
0.0
 40
0.0
 40
0.0
 40
1.0
 40
1.0
 40
1.0
 40
1.0
 10
1105.575692098677
 20
869.2363807498307
 30
0.0
 10
1106.203664910472
 20
869.260450645935
 30
0.0
 10
1106.731765616044
 20
869.7883717254159
 30
0.0
 10
1106.731765616044
 20
870.4362830332376
 30
0.0
  0
POLYLINE
  5
1B8
330
1F
100
AcDbEntity
  8
Default
370
   100
100
AcDb2dPolyline
 66
     1
 10
0.0
 20
0.0
 30
0.0
  0
VERTEX
  5
1B9
330
1B8
100
AcDbEntity
  8
Default
370
   100
100
AcDbVertex
100
AcDb2dVertex
 10
1112.195272779532
 20
884.8986980700969
 30
0.0
  0
VERTEX
  5
1BA
330
1B8
100
AcDbEntity
  8
Default
370
   100
100
AcDbVertex
100
AcDb2dVertex
 10
1106.731765616044
 20
884.8986980700969
 30
0.0
  0
SEQEND
  5
1BB
330
1B8
100
AcDbEntity
  8
Default
370
   100
  0
POLYLINE
  5
1BC
330
1F
100
AcDbEntity
  8
Default
370
   100
100
AcDb2dPolyline
 66
     1
 10
0.0
 20
0.0
 30
0.0
  0
VERTEX
  5
1BD
330
1BC
100
AcDbEntity
  8
Default
370
   100
100
AcDbVertex
100
AcDb2dVertex
 10
1106.731765616044
 20
884.8986980700969
 30
0.0
  0
VERTEX
  5
1BE
330
1BC
100
AcDbEntity
  8
Default
370
   100
100
AcDbVertex
100
AcDb2dVertex
 10
1104.81587373658
 20
921.2823219186936
 30
0.0
  0
SEQEND
  5
1BF
330
1BC
100
AcDbEntity
  8
Default
370
   100
  0
POLYLINE
  5
1C0
330
1F
100
AcDbEntity
  8
Default
370
   100
100
AcDb2dPolyline
 66
     1
 10
0.0
 20
0.0
 30
0.0
  0
VERTEX
  5
1C1
330
1C0
100
AcDbEntity
  8
Default
370
   100
100
AcDbVertex
100
AcDb2dVertex
 10
1112.195272779532
 20
884.8986980700969
 30
0.0
  0
VERTEX
  5
1C2
330
1C0
100
AcDbEntity
  8
Default
370
   100
100
AcDbVertex
100
AcDb2dVertex
 10
1114.334619515367
 20
925.3221126902235
 30
0.0
  0
SEQEND
  5
1C3
330
1C0
100
AcDbEntity
  8
Default
370
   100
  0
POLYLINE
  5
1C4
330
1F
100
AcDbEntity
  8
Default
370
   100
100
AcDb2dPolyline
 66
     1
 10
0.0
 20
0.0
 30
0.0
  0
VERTEX
  5
1C5
330
1C4
100
AcDbEntity
  8
Default
370
   100
100
AcDbVertex
100
AcDb2dVertex
 10
1109.471422745762
 20
869.260450645935
 30
0.0
  0
VERTEX
  5
1C6
330
1C4
100
AcDbEntity
  8
Default
370
   100
100
AcDbVertex
100
AcDb2dVertex
 10
1098.408251842315
 20
869.260450645935
 30
0.0
  0
SEQEND
  5
1C7
330
1C4
100
AcDbEntity
  8
Default
370
   100
  0
POLYLINE
  5
1C8
330
1F
100
AcDbEntity
  8
Default
370
   100
100
AcDb2dPolyline
 66
     1
 10
0.0
 20
0.0
 30
0.0
  0
VERTEX
  5
1C9
330
1C8
100
AcDbEntity
  8
Default
370
   100
100
AcDbVertex
100
AcDb2dVertex
 10
424.6742996372251
 20
218.3274727327589
 30
0.0
  0
VERTEX
  5
1CA
330
1C8
100
AcDbEntity
  8
Default
370
   100
100
AcDbVertex
100
AcDb2dVertex
 10
1199.475010024123
 20
218.3274727327589
 30
0.0
  0
SEQEND
  5
1CB
330
1C8
100
AcDbEntity
  8
Default
370
   100
  0
LINE
  5
1CC
330
1F
100
AcDbEntity
  8
Default
370
   100
100
AcDbLine
 10
519.759327443344
 20
42.40383537628077
 30
0.0
 11
519.759327443344
 21
8.499051574242912
 31
0.0
  0
LINE
  5
1CD
330
1F
100
AcDbEntity
  8
Default
370
   100
100
AcDbLine
 10
509.0482236769441
 20
41.1755521706018
 30
0.0
 11
509.0482236769441
 21
8.499051574242912
 31
0.0
  0
LINE
  5
1CE
330
1F
100
AcDbEntity
  8
Default
370
   100
100
AcDbLine
 10
504.9610116175669
 20
351.7533979737005
 30
0.0
 11
504.9610116175669
 21
319.2356622454699
 31
0.0
  0
LINE
  5
1CF
330
1F
100
AcDbEntity
  8
Default
370
   100
100
AcDbLine
 10
515.6196645655901
 20
353.0078819928431
 30
0.0
 11
515.6196645655901
 21
319.2356622454699
 31
0.0
  0
LINE
  5
1D0
330
1F
100
AcDbEntity
  8
Default
370
   100
100
AcDbLine
 10
409.3878966137587
 20
1031.857628360804
 30
0.0
 11
409.3878966137587
 21
226.2618452454699
 31
0.0
  0
SPLINE
  5
1D1
330
1F
100
AcDbEntity
  8
Default
370
   100
100
AcDbSpline
210
0.0
220
0.0
230
1.0
 70
     8
 71
     3
 72
     8
 73
     4
 74
     0
 42
0.0000000001
 43
0.0000000001
 40
2.0
 40
2.0
 40
2.0
 40
2.0
 40
3.0
 40
3.0
 40
3.0
 40
3.0
 10
1089.069132153858
 20
851.3346649614159
 30
0.0
 10
1088.637670284885
 20
851.3346649614159
 30
0.0
 10
1088.301769495967
 20
851.7185259164519
 30
0.0
 10
1088.301769495967
 20
852.1262771415019
 30
0.0
  0
SPLINE
  5
1D2
330
1F
100
AcDbEntity
  8
Default
370
   100
100
AcDbSpline
210
0.0
220
0.0
230
1.0
 70
    24
 71
     3
 72
     8
 73
     4
 74
     0
 42
0.0000000001
 43
0.0000000001
 40
3.0
 40
3.0
 40
3.0
 40
3.0
 40
4.0
 40
4.0
 40
4.0
 40
4.0
 10
1088.301769495967
 20
852.1262771415019
 30
0.0
 10
1088.301769495967
 20
852.1262771415019
 30
0.0
 10
1088.301769495967
 20
852.1505266636965
 30
0.0
 10
1088.301769495967
 20
852.1505266636965
 30
0.0
  0
SPLINE
  5
1D3
330
1F
100
AcDbEntity
  8
Default
370
   100
100
AcDbSpline
210
0.0
220
0.0
230
1.0
 70
    24
 71
     3
 72
     8
 73
     4
 74
     0
 42
0.0000000001
 43
0.0000000001
 40
4.0
 40
4.0
 40
4.0
 40
4.0
 40
5.0
 40
5.0
 40
5.0
 40
5.0
 10
1088.301769495967
 20
852.1505266636965
 30
0.0
 10
1088.301769495967
 20
852.1505266636965
 30
0.0
 10
1088.801489279266
 20
861.6814870166259
 30
0.0
 10
1088.801489279266
 20
861.6814870166259
 30
0.0
  0
SPLINE
  5
1D4
330
1F
100
AcDbEntity
  8
Default
370
   100
100
AcDbSpline
210
0.0
220
0.0
230
1.0
 70
     8
 71
     3
 72
    11
 73
     7
 74
     0
 42
0.0000000001
 43
0.0000000001
 40
5.0
 40
5.0
 40
5.0
 40
5.0
 40
6.0
 40
6.0
 40
6.0
 40
7.0
 40
7.0
 40
7.0
 40
7.0
 10
1088.801489279266
 20
861.6814870166259
 30
0.0
 10
1088.849629071475
 20
862.1134877638704
 30
0.0
 10
1089.161819216469
 20
862.4533403267753
 30
0.0
 10
1089.573522215506
 20
862.4533403267753
 30
0.0
 10
1089.59759211161
 20
862.4533403267753
 30
0.0
 10
1089.59759211161
 20
862.4251390305935
 30
0.0
 10
1089.645013399457
 20
862.4251390305935
 30
0.0
  0
SPLINE
  5
1D5
330
1F
100
AcDbEntity
  8
Default
370
   100
100
AcDbSpline
210
0.0
220
0.0
230
1.0
 70
     8
 71
     3
 72
     8
 73
     4
 74
     0
 42
0.0000000001
 43
0.0000000001
 40
2.0
 40
2.0
 40
2.0
 40
2.0
 40
3.0
 40
3.0
 40
3.0
 40
3.0
 10
1439.422337606377
 20
-56.51750995128532
 30
0.0
 10
1438.990875737403
 20
-56.51750995128532
 30
0.0
 10
1438.654974948485
 20
-56.13364899624935
 30
0.0
 10
1438.654974948485
 20
-55.72589777119936
 30
0.0
  0
SPLINE
  5
1D6
330
1F
100
AcDbEntity
  8
Default
370
   100
100
AcDbSpline
210
0.0
220
0.0
230
1.0
 70
    24
 71
     3
 72
     8
 73
     4
 74
     0
 42
0.0000000001
 43
0.0000000001
 40
3.0
 40
3.0
 40
3.0
 40
3.0
 40
4.0
 40
4.0
 40
4.0
 40
4.0
 10
1438.654974948485
 20
-55.72589777119936
 30
0.0
 10
1438.654974948485
 20
-55.72589777119936
 30
0.0
 10
1438.654974948485
 20
-55.70164824900473
 30
0.0
 10
1438.654974948485
 20
-55.70164824900473
 30
0.0
  0
SPLINE
  5
1D7
330
1F
100
AcDbEntity
  8
Default
370
   100
100
AcDbSpline
210
0.0
220
0.0
230
1.0
 70
     8
 71
     3
 72
    11
 73
     7
 74
     0
 42
0.0000000001
 43
0.0000000001
 40
5.0
 40
5.0
 40
5.0
 40
5.0
 40
6.0
 40
6.0
 40
6.0
 40
7.0
 40
7.0
 40
7.0
 40
7.0
 10
1439.154694731785
 20
-46.17068789607538
 30
0.0
 10
1439.202834523993
 20
-45.73868714883088
 30
0.0
 10
1439.515024668987
 20
-45.3988345859259
 30
0.0
 10
1439.926727668024
 20
-45.3988345859259
 30
0.0
 10
1439.950797564129
 20
-45.3988345859259
 30
0.0
 10
1439.950797564129
 20
-45.4270358821077
 30
0.0
 10
1439.998218851976
 20
-45.4270358821077
 30
0.0
  0
SPLINE
  5
1D8
330
1F
100
AcDbEntity
  8
Default
370
   100
100
AcDbSpline
210
0.0
220
0.0
230
1.0
 70
     8
 71
     3
 72
    38
 73
    34
 74
     0
 42
0.0000000001
 43
0.0000000001
 40
0.0
 40
0.0
 40
0.0
 40
0.0
 40
1.0
 40
1.0
 40
1.0
 40
2.0
 40
2.0
 40
2.0
 40
3.0
 40
3.0
 40
3.0
 40
4.0
 40
4.0
 40
4.0
 40
5.0
 40
5.0
 40
5.0
 40
6.0
 40
6.0
 40
6.0
 40
7.0
 40
7.0
 40
7.0
 40
8.0
 40
8.0
 40
8.0
 40
9.0
 40
9.0
 40
9.0
 40
10.0
 40
10.0
 40
10.0
 40
11.0
 40
11.0
 40
11.0
 40
11.0
 10
1459.915099188878
 20
-38.45520843811573
 30
0.0
 10
1459.915099188878
 20
-38.45520843811573
 30
0.0
 10
1448.772533553505
 20
-38.45520843811573
 30
0.0
 10
1448.772533553505
 20
-38.45520843811573
 30
0.0
 10
1448.348256728145
 20
-38.45520843811573
 30
0.0
 10
1447.984334269135
 20
-38.58310221443116
 30
0.0
 10
1447.7044768204
 20
-38.89134058543732
 30
0.0
 10
1447.7044768204
 20
-38.89134058543732
 30
0.0
 10
1443.068686681154
 20
-43.53862679446502
 30
0.0
 10
1443.068686681154
 20
-43.53862679446502
 30
0.0
 10
1442.808947354536
 20
-43.78615154694035
 30
0.0
 10
1442.640458081807
 20
-44.13426691000041
 30
0.0
 10
1442.640458081807
 20
-44.51830749112651
 30
0.0
 10
1442.640458081807
 20
-44.51830749112651
 30
0.0
 10
1442.541304479944
 20
-45.4505668999418
 30
0.0
 10
1442.541304479944
 20
-45.4505668999418
 30
0.0
 10
1442.541304479944
 20
-45.4505668999418
 30
0.0
 10
1439.993488014698
 20
-45.30219574932835
 30
0.0
 10
1439.993488014698
 20
-45.30219574932835
 30
0.0
 10
1439.993488014698
 20
-45.30219574932835
 30
0.0
 10
1442.541304479944
 20
-45.4505668999418
 30
0.0
 10
1442.541304479944
 20
-45.4505668999418
 30
0.0
 10
1442.541304479944
 20
-45.4505668999418
 30
0.0
 10
1441.869143649928
 20
-56.58091796117242
 30
0.0
 10
1441.869143649928
 20
-56.58091796117242
 30
0.0
 10
1441.869143649928
 20
-56.58091796117242
 30
0.0
 10
1439.405032942776
 20
-56.43290606273968
 30
0.0
 10
1439.405032942776
 20
-56.43290606273968
 30
0.0
 10
1439.405032942776
 20
-56.43290606273968
 30
0.0
 10
1441.869143649928
 20
-56.58091796117242
 30
0.0
 10
1441.869143649928
 20
-56.58091796117242
 30
0.0
 10
1441.869143649928
 20
-56.58091796117242
 30
0.0
 10
1440.665289592534
 20
-75.98736150828427
 30
0.0
 10
1440.665289592534
 20
-75.98736150828427
 30
0.0
  0
SPLINE
  5
1D9
330
1F
100
AcDbEntity
  8
Default
370
   100
100
AcDbSpline
210
0.0
220
0.0
230
1.0
 70
    24
 71
     3
 72
     8
 73
     4
 74
     0
 42
0.0000000001
 43
0.0000000001
 40
4.0
 40
4.0
 40
4.0
 40
4.0
 40
5.0
 40
5.0
 40
5.0
 40
5.0
 10
1438.654974948485
 20
-55.70164824900473
 30
0.0
 10
1438.654974948485
 20
-55.70164824900473
 30
0.0
 10
1439.154694731785
 20
-46.17068789607538
 30
0.0
 10
1439.154694731785
 20
-46.17068789607538
 30
0.0
  0
POLYLINE
  5
1DA
330
1F
100
AcDbEntity
  8
Default
370
   100
100
AcDb2dPolyline
 66
     1
 10
0.0
 20
0.0
 30
0.0
  0
VERTEX
  5
1DB
330
1DA
100
AcDbEntity
  8
Default
370
   100
100
AcDbVertex
100
AcDb2dVertex
 10
1026.556737953626
 20
57.47374585063699
 30
0.0
  0
VERTEX
  5
1DC
330
1DA
100
AcDbEntity
  8
Default
370
   100
100
AcDbVertex
100
AcDb2dVertex
 10
1441.950676053561
 20
30.71190884033974
 30
0.0
  0
SEQEND
  5
1DD
330
1DA
100
AcDbEntity
  8
Default
370
   100
  0
POLYLINE
  5
1DE
330
1F
100
AcDbEntity
  8
Default
370
   100
100
AcDb2dPolyline
 66
     1
 10
0.0
 20
0.0
 30
0.0
  0
VERTEX
  5
1DF
330
1DE
100
AcDbEntity
  8
Default
370
   100
100
AcDbVertex
100
AcDb2dVertex
 10
1442.268991327003
 20
22.58568883013049
 30
0.0
  0
VERTEX
  5
1E0
330
1DE
100
AcDbEntity
  8
Default
370
   100
100
AcDbVertex
100
AcDb2dVertex
 10
1418.311900407462
 20
22.58568883013049
 30
0.0
  0
SEQEND
  5
1E1
330
1DE
100
AcDbEntity
  8
Default
370
   100
  0
POLYLINE
  5
1E2
330
1F
100
AcDbEntity
  8
Default
370
   100
100
AcDb2dPolyline
 66
     1
 10
0.0
 20
0.0
 30
0.0
  0
VERTEX
  5
1E3
330
1E2
100
AcDbEntity
  8
Default
370
   100
100
AcDbVertex
100
AcDb2dVertex
 10
1417.271506092268
 20
27.25740418744317
 30
0.0
  0
VERTEX
  5
1E4
330
1E2
100
AcDbEntity
  8
Default
370
   100
100
AcDbVertex
100
AcDb2dVertex
 10
1420.515194031454
 20
27.25740418744317
 30
0.0
  0
SEQEND
  5
1E5
330
1E2
100
AcDbEntity
  8
Default
370
   100
  0
POLYLINE
  5
1E6
330
1F
100
AcDbEntity
  8
Default
370
   100
100
AcDb2dPolyline
 66
     1
 10
0.0
 20
0.0
 30
0.0
  0
VERTEX
  5
1E7
330
1E6
100
AcDbEntity
  8
Default
370
   100
100
AcDbVertex
100
AcDb2dVertex
 10
1420.02373704831
 20
15.36651625975355
 30
0.0
  0
VERTEX
  5
1E8
330
1E6
100
AcDbEntity
  8
Default
370
   100
100
AcDbVertex
100
AcDb2dVertex
 10
1416.675865976732
 20
15.36651625975355
 30
0.0
  0
SEQEND
  5
1E9
330
1E6
100
AcDbEntity
  8
Default
370
   100
  0
POLYLINE
  5
1EA
330
1F
100
AcDbEntity
  8
Default
370
   100
100
AcDb2dPolyline
 66
     1
 10
0.0
 20
0.0
 30
0.0
  0
VERTEX
  5
1EB
330
1EA
100
AcDbEntity
  8
Default
370
   100
100
AcDbVertex
100
AcDb2dVertex
 10
943.9265808885722
 20
64.4852706605925
 30
0.0
  0
VERTEX
  5
1EC
330
1EA
100
AcDbEntity
  8
Default
370
   100
100
AcDbVertex
100
AcDb2dVertex
 10
487.6747856555582
 20
90.69469539019646
 30
0.0
  0
SEQEND
  5
1ED
330
1EA
100
AcDbEntity
  8
Default
370
   100
  0
LINE
  5
1EE
330
1F
100
AcDbEntity
  8
Default
100
AcDbLine
 10
606.1687740659123
 20
791.4404966886059
 30
0.0
 11
470.0784650846251
 21
406.3449492236088
 31
0.0
  0
SPLINE
  5
1EF
330
1F
100
AcDbEntity
  8
Default
100
AcDbSpline
210
0.0
220
0.0
230
1.0
 70
    24
 71
     2
 72
     6
 73
     3
 74
     0
 42
0.0000000001
 43
0.0000000001
 40
0.0
 40
0.0
 40
0.0
 40
404.3448283978187
 40
404.3448283978187
 40
404.3448283978187
 10
604.8059297472577
 20
787.584048107289
 30
0.0
 10
537.4421974159413
 20
596.9644986654489
 30
0.0
 10
470.0784650846251
 20
406.3449492236088
 30
0.0
  0
LINE
  5
1F0
330
1F
100
AcDbEntity
  8
Default
100
AcDbLine
 10
606.1665229117809
 20
787.8326798023681
 30
0.0
 11
471.2223127057721
 21
405.9802547802442
 31
0.0
  0
POLYLINE
  5
1F1
330
1F
100
AcDbEntity
  8
Default
370
   100
100
AcDb2dPolyline
 66
     1
 10
0.0
 20
0.0
 30
0.0
  0
VERTEX
  5
1F2
330
1F1
100
AcDbEntity
  8
Default
370
   100
100
AcDbVertex
100
AcDb2dVertex
 10
521.6310313045864
 20
405.9778197703657
 30
0.0
  0
VERTEX
  5
1F3
330
1F1
100
AcDbEntity
  8
Default
370
   100
100
AcDbVertex
100
AcDb2dVertex
 10
513.1878865546977
 20
374.4455373694115
 30
0.0
  0
SEQEND
  5
1F4
330
1F1
100
AcDbEntity
  8
Default
370
   100
  0
POLYLINE
  5
1F5
330
1F
100
AcDbEntity
  8
Default
370
   100
100
AcDb2dPolyline
 66
     1
 10
0.0
 20
0.0
 30
0.0
  0
VERTEX
  5
1F6
330
1F5
100
AcDbEntity
  8
Default
370
   100
100
AcDbVertex
100
AcDb2dVertex
 10
510.9483084604587
 20
407.2854977079708
 30
0.0
  0
VERTEX
  5
1F7
330
1F5
100
AcDbEntity
  8
Default
370
   100
100
AcDbVertex
100
AcDb2dVertex
 10
502.8892042916964
 20
377.2049533690666
 30
0.0
  0
SEQEND
  5
1F8
330
1F5
100
AcDbEntity
  8
Default
370
   100
  0
POLYLINE
  5
1F9
330
1F
100
AcDbEntity
  8
Default
370
   100
100
AcDb2dPolyline
 66
     1
 10
0.0
 20
0.0
 30
0.0
  0
VERTEX
  5
1FA
330
1F9
100
AcDbEntity
  8
Default
370
   100
100
AcDbVertex
100
AcDb2dVertex
 10
629.7465380657123
 20
772.8635703918719
 30
0.0
  0
VERTEX
  5
1FB
330
1F9
100
AcDbEntity
  8
Default
370
   100
100
AcDbVertex
100
AcDb2dVertex
 10
530.7657365022469
 20
403.4820948713156
 30
0.0
  0
SEQEND
  5
1FC
330
1F9
100
AcDbEntity
  8
Default
370
   100
  0
POLYLINE
  5
1FD
330
1F
100
AcDbEntity
  8
Default
370
   100
100
AcDb2dPolyline
 66
     1
 10
0.0
 20
0.0
 30
0.0
  0
VERTEX
  5
1FE
330
1FD
100
AcDbEntity
  8
Default
370
   100
100
AcDbVertex
100
AcDb2dVertex
 10
529.6937279951552
 20
402.8860955035994
 30
0.0
  0
VERTEX
  5
1FF
330
1FD
100
AcDbEntity
  8
Default
370
   100
100
AcDbVertex
100
AcDb2dVertex
 10
521.4025469176861
 20
405.0818448317978
 30
0.0
  0
SEQEND
  5
200
330
1FD
100
AcDbEntity
  8
Default
370
   100
  0
SPLINE
  5
201
330
1F
100
AcDbEntity
  8
Default
370
   100
100
AcDbSpline
210
0.0
220
0.0
230
1.0
 70
     8
 71
     3
 72
     8
 73
     4
 74
     0
 42
0.0000000001
 43
0.0000000001
 40
0.0
 40
0.0
 40
0.0
 40
0.0
 40
1.0
 40
1.0
 40
1.0
 40
1.0
 10
510.9720191043823
 20
407.2854977079708
 30
0.0
 10
511.1282938029697
 20
407.9296368678955
 30
0.0
 10
510.9044796944181
 20
408.5852720976013
 30
0.0
 10
510.3479980665746
 20
408.9815272528701
 30
0.0
  0
POLYLINE
  5
202
330
1F
100
AcDbEntity
  8
Default
370
   100
100
AcDb2dPolyline
 66
     1
 10
0.0
 20
0.0
 30
0.0
  0
VERTEX
  5
203
330
202
100
AcDbEntity
  8
Default
370
   100
100
AcDbVertex
100
AcDb2dVertex
 10
510.9483084604587
 20
407.2854977079708
 30
0.0
  0
VERTEX
  5
204
330
202
100
AcDbEntity
  8
Default
370
   100
100
AcDbVertex
100
AcDb2dVertex
 10
521.24699072346
 20
404.5178189081605
 30
0.0
  0
SEQEND
  5
205
330
202
100
AcDbEntity
  8
Default
370
   100
  0
SPLINE
  5
206
330
1F
100
AcDbEntity
  8
Default
370
   100
100
AcDbSpline
210
0.0
220
0.0
230
1.0
 70
     8
 71
     3
 72
     8
 73
     4
 74
     0
 42
0.0000000001
 43
0.0000000001
 40
0.0
 40
0.0
 40
0.0
 40
0.0
 40
1.0
 40
1.0
 40
1.0
 40
1.0
 10
529.6937279951552
 20
402.8860955035994
 30
0.0
 10
530.1499782645944
 20
402.7380836051672
 30
0.0
 10
530.6536498218808
 20
403.0502737501613
 30
0.0
 10
530.7657365022469
 20
403.5101165414071
 30
0.0
  0
POLYLINE
  5
207
330
1F
100
AcDbEntity
  8
Default
370
   100
100
AcDb2dPolyline
 66
     1
 10
0.0
 20
0.0
 30
0.0
  0
VERTEX
  5
208
330
207
100
AcDbEntity
  8
Default
370
   100
100
AcDbVertex
100
AcDb2dVertex
 10
509.815945587016
 20
409.1374426992768
 30
0.0
  0
VERTEX
  5
209
330
207
100
AcDbEntity
  8
Default
370
   100
100
AcDbVertex
100
AcDb2dVertex
 10
530.7894471461705
 20
403.5101165414071
 30
0.0
  0
SEQEND
  5
20A
330
207
100
AcDbEntity
  8
Default
370
   100
  0
POLYLINE
  5
20B
330
1F
100
AcDbEntity
  8
Default
370
   100
100
AcDb2dPolyline
 66
     1
 10
0.0
 20
0.0
 30
0.0
  0
VERTEX
  5
20C
330
20B
100
AcDbEntity
  8
Default
370
   100
100
AcDbVertex
100
AcDb2dVertex
 10
629.0905435838258
 20
773.9231846987307
 30
0.0
  0
VERTEX
  5
20D
330
20B
100
AcDbEntity
  8
Default
370
   100
100
AcDbVertex
100
AcDb2dVertex
 10
621.7075520190671
 20
775.8951199183775
 30
0.0
  0
SEQEND
  5
20E
330
20B
100
AcDbEntity
  8
Default
370
   100
  0
SPLINE
  5
20F
330
1F
100
AcDbEntity
  8
Default
370
   100
100
AcDbSpline
210
0.0
220
0.0
230
1.0
 70
     8
 71
     3
 72
     8
 73
     4
 74
     0
 42
0.0000000001
 43
0.0000000001
 40
0.0
 40
0.0
 40
0.0
 40
0.0
 40
1.0
 40
1.0
 40
1.0
 40
1.0
 10
609.3165850558976
 20
778.3509678253744
 30
0.0
 10
609.976890563952
 20
778.3991076175828
 30
0.0
 10
610.5168465914851
 20
778.8546393826607
 30
0.0
 10
610.7007837079834
 20
779.5070413427405
 30
0.0
  0
SPLINE
  5
210
330
1F
100
AcDbEntity
  8
Default
370
   100
100
AcDbSpline
210
0.0
220
0.0
230
1.0
 70
     8
 71
     3
 72
     8
 73
     4
 74
     0
 42
0.0000000001
 43
0.0000000001
 40
0.0
 40
0.0
 40
0.0
 40
0.0
 40
1.0
 40
1.0
 40
1.0
 40
1.0
 10
629.7343234915699
 20
772.8635703918719
 30
0.0
 10
629.8668875462337
 20
773.3196410352207
 30
0.0
 10
629.5787672973438
 20
773.8272643664943
 30
0.0
 10
629.0905435838258
 20
773.9231846987307
 30
0.0
  0
SPLINE
  5
211
330
1F
100
AcDbEntity
  8
Default
370
   100
100
AcDbSpline
210
0.0
220
0.0
230
1.0
 70
     8
 71
     3
 72
     8
 73
     4
 74
     0
 42
0.0000000001
 43
0.0000000001
 40
0.0
 40
0.0
 40
0.0
 40
0.0
 40
1.0
 40
1.0
 40
1.0
 40
1.0
 10
621.7829949770058
 20
775.8951199183775
 30
0.0
 10
621.2990822896559
 20
776.0431318168097
 30
0.0
 10
620.8191213762931
 20
775.7510597939325
 30
0.0
 10
620.6915868521585
 20
775.2955280288547
 30
0.0
  0
SPLINE
  5
212
330
1F
100
AcDbEntity
  8
Default
370
   100
100
AcDbSpline
210
0.0
220
0.0
230
1.0
 70
     8
 71
     3
 72
     8
 73
     4
 74
     0
 42
0.0000000001
 43
0.0000000001
 40
0.0
 40
0.0
 40
0.0
 40
0.0
 40
1.0
 40
1.0
 40
1.0
 40
1.0
 10
620.9631815007381
 20
776.7271479687878
 30
0.0
 10
620.8597168727077
 20
776.3993303539348
 30
0.0
 10
620.9150417085294
 20
776.0871402089406
 30
0.0
 10
621.0274876410763
 20
775.7991995861411
 30
0.0
  0
POLYLINE
  5
213
330
1F
100
AcDbEntity
  8
Default
370
   100
100
AcDb2dPolyline
 66
     1
 10
0.0
 20
0.0
 30
0.0
  0
VERTEX
  5
214
330
213
100
AcDbEntity
  8
Default
370
   100
100
AcDbVertex
100
AcDb2dVertex
 10
608.7848918285197
 20
778.4587434795725
 30
0.0
  0
VERTEX
  5
215
330
213
100
AcDbEntity
  8
Default
370
   100
100
AcDbVertex
100
AcDb2dVertex
 10
629.7465380657123
 20
772.8635703918719
 30
0.0
  0
SEQEND
  5
216
330
213
100
AcDbEntity
  8
Default
370
   100
  0
SPLINE
  5
217
330
1F
100
AcDbEntity
  8
Default
370
   100
100
AcDbSpline
210
0.0
220
0.0
230
1.0
 70
     8
 71
     3
 72
     8
 73
     4
 74
     0
 42
0.0000000001
 43
0.0000000001
 40
0.0
 40
0.0
 40
0.0
 40
0.0
 40
1.0
 40
1.0
 40
1.0
 40
1.0
 10
610.9968075048479
 20
780.9745865007396
 30
0.0
 10
611.0205181487714
 20
781.8865481613469
 30
0.0
 10
610.5567235835384
 20
782.730431533719
 30
0.0
 10
609.7491246814132
 20
783.19853712512
 30
0.0
  0
SPLINE
  5
218
330
1F
100
AcDbEntity
  8
Default
370
   100
100
AcDbSpline
210
0.0
220
0.0
230
1.0
 70
     8
 71
     3
 72
    11
 73
     7
 74
     0
 42
0.0000000001
 43
0.0000000001
 40
0.0
 40
0.0
 40
0.0
 40
0.0
 40
1.0
 40
1.0
 40
1.0
 40
2.0
 40
2.0
 40
2.0
 40
2.0
 10
613.1925568330463
 20
797.0967466122515
 30
0.0
 10
609.8407339874816
 20
797.0248961761193
 30
0.0
 10
607.0766477094779
 20
794.8370503958955
 30
0.0
 10
606.2130054671695
 20
791.6134805788267
 30
0.0
 10
605.3170305286015
 20
788.2659687594299
 30
0.0
 10
606.7407469205601
 20
784.874268921812
 30
0.0
 10
609.7491246814132
 20
783.19853712512
 30
0.0
  0
POLYLINE
  5
219
330
1F
100
AcDbEntity
  8
Default
370
   100
100
AcDb2dPolyline
 66
     1
 10
0.0
 20
0.0
 30
0.0
  0
VERTEX
  5
21A
330
219
100
AcDbEntity
  8
Default
370
   100
100
AcDbVertex
100
AcDb2dVertex
 10
610.9968075048479
 20
780.9745865007396
 30
0.0
  0
VERTEX
  5
21B
330
219
100
AcDbEntity
  8
Default
370
   100
100
AcDbVertex
100
AcDb2dVertex
 10
610.6127669237216
 20
779.5427869347162
 30
0.0
  0
SEQEND
  5
21C
330
219
100
AcDbEntity
  8
Default
370
   100
  0
POLYLINE
  5
21D
330
1F
100
AcDbEntity
  8
Default
370
   100
100
AcDb2dPolyline
 66
     1
 10
0.0
 20
0.0
 30
0.0
  0
VERTEX
  5
21E
330
21D
100
AcDbEntity
  8
Default
370
   100
100
AcDbVertex
100
AcDb2dVertex
 10
608.7848918285197
 20
778.4587434795725
 30
0.0
  0
VERTEX
  5
21F
330
21D
100
AcDbEntity
  8
Default
370
   100
100
AcDbVertex
100
AcDb2dVertex
 10
509.822749239227
 20
409.1356172353719
 30
0.0
  0
SEQEND
  5
220
330
21D
100
AcDbEntity
  8
Default
370
   100
  0
LINE
  5
221
330
1F
100
AcDbEntity
  8
Default
100
AcDbLine
 10
1026.808000343424
 20
58.66004600620014
 30
0.0
 11
1442.340022256579
 21
31.8893129187958
 31
0.0
  0
LINE
  5
222
330
1F
100
AcDbEntity
  8
Default
100
AcDbLine
 10
945.2199163303932
 20
65.6129532239127
 30
0.0
 11
485.6407190388116
 21
92.01352085905769
 31
0.0
  0
POLYLINE
  5
223
330
1F
100
AcDbEntity
  8
Default
370
   100
100
AcDb2dPolyline
 66
     1
 10
0.0
 20
0.0
 30
0.0
  0
VERTEX
  5
224
330
223
100
AcDbEntity
  8
Default
370
   100
100
AcDbVertex
100
AcDb2dVertex
 10
668.4459014708482
 20
813.4590668065351
 30
0.0
  0
VERTEX
  5
225
330
223
100
AcDbEntity
  8
Default
370
   100
100
AcDbVertex
100
AcDb2dVertex
 10
700.2343306766135
 20
821.9780137665432
 30
0.0
  0
SEQEND
  5
226
330
223
100
AcDbEntity
  8
Default
370
   100
  0
POLYLINE
  5
227
330
1F
100
AcDbEntity
  8
Default
370
   100
100
AcDb2dPolyline
 66
     1
 10
0.0
 20
0.0
 30
0.0
  0
VERTEX
  5
228
330
227
100
AcDbEntity
  8
Default
370
   100
100
AcDbVertex
100
AcDb2dVertex
 10
666.1262101403219
 20
822.1420123870148
 30
0.0
  0
VERTEX
  5
229
330
227
100
AcDbEntity
  8
Default
370
   100
100
AcDbVertex
100
AcDb2dVertex
 10
697.8905694499829
 20
830.6609593470229
 30
0.0
  0
SEQEND
  5
22A
330
227
100
AcDbEntity
  8
Default
370
   100
  0
POLYLINE
  5
22B
330
1F
100
AcDbEntity
  8
Default
370
   100
100
AcDb2dPolyline
 66
     1
 10
0.0
 20
0.0
 30
0.0
  0
VERTEX
  5
22C
330
22B
100
AcDbEntity
  8
Default
370
   100
100
AcDbVertex
100
AcDb2dVertex
 10
616.0999847311336
 20
831.277076836856
 30
0.0
  0
VERTEX
  5
22D
330
22B
100
AcDbEntity
  8
Default
370
   100
100
AcDbVertex
100
AcDb2dVertex
 10
642.7485929881858
 20
815.8906651913372
 30
0.0
  0
SEQEND
  5
22E
330
22B
100
AcDbEntity
  8
Default
370
   100
  0
SPLINE
  5
22F
330
1F
100
AcDbEntity
  8
Default
370
   100
100
AcDbSpline
210
0.0
220
0.0
230
1.0
 70
     8
 71
     3
 72
    14
 73
    10
 74
     0
 42
0.0000000001
 43
0.0000000001
 40
0.0
 40
0.0
 40
0.0
 40
0.0
 40
1.0
 40
1.0
 40
1.0
 40
2.0
 40
2.0
 40
2.0
 40
3.0
 40
3.0
 40
3.0
 40
3.0
 10
627.7947209681826
 20
838.2918349164376
 30
0.0
 10
628.1065518609961
 20
839.3119314834237
 30
0.0
 10
628.154332401024
 20
840.2718533101491
 30
0.0
 10
627.8665714043146
 20
841.3196122950462
 30
0.0
 10
627.0984902420621
 20
844.2554211154057
 30
0.0
 10
624.0990937857256
 20
845.9672577562542
 30
0.0
 10
621.1794513134957
 20
845.1952248200142
 30
0.0
 10
620.1153463543787
 20
844.9072841972146
 30
0.0
 10
619.2757740081745
 20
844.4312750578392
 30
0.0
 10
618.5558326381304
 20
843.6195447556363
 30
0.0
  0
SPLINE
  5
230
330
1F
100
AcDbEntity
  8
Default
370
   100
100
AcDbSpline
210
0.0
220
0.0
230
1.0
 70
     8
 71
     3
 72
    11
 73
     7
 74
     0
 42
0.0000000001
 43
0.0000000001
 40
0.0
 40
0.0
 40
0.0
 40
0.0
 40
1.0
 40
1.0
 40
1.0
 40
2.0
 40
2.0
 40
2.0
 40
2.0
 10
627.7947209681826
 20
838.2918349164376
 30
0.0
 10
627.6988006359462
 20
837.9880871976889
 30
0.0
 10
627.6988006359462
 20
837.7362514190457
 30
0.0
 10
627.7706510720783
 20
837.4360962221036
 30
0.0
 10
627.8744749522892
 20
837.0163100490016
 30
0.0
 10
628.1065518609961
 20
836.728369426202
 30
0.0
 10
628.4668817981988
 20
836.5363491356388
 30
0.0
  0
SPLINE
  5
231
330
1F
100
AcDbEntity
  8
Default
370
   100
100
AcDbSpline
210
0.0
220
0.0
230
1.0
 70
     8
 71
     3
 72
    11
 73
     7
 74
     0
 42
0.0000000001
 43
0.0000000001
 40
0.0
 40
0.0
 40
0.0
 40
0.0
 40
1.0
 40
1.0
 40
1.0
 40
2.0
 40
2.0
 40
2.0
 40
2.0
 10
627.7947209681826
 20
838.2918349164376
 30
0.0
 10
627.6988006359462
 20
837.9880871976889
 30
0.0
 10
627.6988006359462
 20
837.7362514190457
 30
0.0
 10
627.7706510720783
 20
837.4360962221036
 30
0.0
 10
627.8744749522892
 20
837.0163100490016
 30
0.0
 10
628.1065518609961
 20
836.728369426202
 30
0.0
 10
628.4668817981988
 20
836.5363491356388
 30
0.0
  0
POLYLINE
  5
232
330
1F
100
AcDbEntity
  8
Default
370
   100
100
AcDb2dPolyline
 66
     1
 10
0.0
 20
0.0
 30
0.0
  0
VERTEX
  5
233
330
232
100
AcDbEntity
  8
Default
370
   100
100
AcDbVertex
100
AcDb2dVertex
 10
616.9916486435336
 20
834.8243328687
 30
0.0
  0
VERTEX
  5
234
330
232
100
AcDbEntity
  8
Default
370
   100
100
AcDbVertex
100
AcDb2dVertex
 10
615.7396547939309
 20
832.6406184885539
 30
0.0
  0
SEQEND
  5
235
330
232
100
AcDbEntity
  8
Default
370
   100
  0
SPLINE
  5
236
330
1F
100
AcDbEntity
  8
Default
370
   100
100
AcDbSpline
210
0.0
220
0.0
230
1.0
 70
     8
 71
     3
 72
    11
 73
     7
 74
     0
 42
0.0000000001
 43
0.0000000001
 40
0.0
 40
0.0
 40
0.0
 40
0.0
 40
1.0
 40
1.0
 40
1.0
 40
2.0
 40
2.0
 40
2.0
 40
2.0
 10
615.7396547939309
 20
832.6406184885539
 30
0.0
 10
615.5959539216666
 20
832.3846513098331
 30
0.0
 10
615.572243277743
 20
832.1446708531516
 30
0.0
 10
615.6437344616945
 20
831.8928350745085
 30
0.0
 10
615.7159441500073
 20
831.6248329477356
 30
0.0
 10
615.876170622582
 20
831.4209573352106
 30
0.0
 10
616.0999847311336
 20
831.277076836856
 30
0.0
  0
POLYLINE
  5
237
330
1F
100
AcDbEntity
  8
Default
370
   100
100
AcDb2dPolyline
 66
     1
 10
0.0
 20
0.0
 30
0.0
  0
VERTEX
  5
238
330
237
100
AcDbEntity
  8
Default
370
   100
100
AcDbVertex
100
AcDb2dVertex
 10
1092.425625277772
 20
930.4015792725858
 30
0.0
  0
VERTEX
  5
239
330
237
100
AcDbEntity
  8
Default
370
   100
100
AcDbVertex
100
AcDb2dVertex
 10
1068.159936735042
 20
923.8542082800438
 30
0.0
  0
SEQEND
  5
23A
330
237
100
AcDbEntity
  8
Default
370
   100
  0
POLYLINE
  5
23B
330
1F
100
AcDbEntity
  8
Default
370
   100
100
AcDb2dPolyline
 66
     1
 10
0.0
 20
0.0
 30
0.0
  0
VERTEX
  5
23C
330
23B
100
AcDbEntity
  8
Default
370
   100
100
AcDbVertex
100
AcDb2dVertex
 10
1094.093273900399
 20
927.0337697049818
 30
0.0
  0
VERTEX
  5
23D
330
23B
100
AcDbEntity
  8
Default
370
   100
100
AcDbVertex
100
AcDb2dVertex
 10
1071.035391189051
 20
920.8706189196564
 30
0.0
  0
SEQEND
  5
23E
330
23B
100
AcDbEntity
  8
Default
370
   100
  0
POLYLINE
  5
23F
330
1F
100
AcDbEntity
  8
Default
370
   100
100
AcDb2dPolyline
 66
     1
 10
0.0
 20
0.0
 30
0.0
  0
VERTEX
  5
240
330
23F
100
AcDbEntity
  8
Default
370
   100
100
AcDbVertex
100
AcDb2dVertex
 10
1071.283634445887
 20
920.0547572173759
 30
0.0
  0
VERTEX
  5
241
330
23F
100
AcDbEntity
  8
Default
370
   100
100
AcDbVertex
100
AcDb2dVertex
 10
1094.677058693972
 20
926.30969693486
 30
0.0
  0
SEQEND
  5
242
330
23F
100
AcDbEntity
  8
Default
370
   100
  0
POLYLINE
  5
243
330
1F
100
AcDbEntity
  8
Default
370
   100
100
AcDb2dPolyline
 66
     1
 10
0.0
 20
0.0
 30
0.0
  0
VERTEX
  5
244
330
243
100
AcDbEntity
  8
Default
370
   100
100
AcDbVertex
100
AcDb2dVertex
 10
1094.52904679554
 20
923.0861271177912
 30
0.0
  0
VERTEX
  5
245
330
243
100
AcDbEntity
  8
Default
370
   100
100
AcDbVertex
100
AcDb2dVertex
 10
1072.05171560814
 20
917.0708086048078
 30
0.0
  0
SEQEND
  5
246
330
243
100
AcDbEntity
  8
Default
370
   100
  0
LINE
  5
247
330
1F
100
AcDbEntity
  8
Default
100
AcDbLine
 10
621.881253014846
 20
845.3335644390428
 30
0.0
 11
1092.143629819288
 21
938.0319975226481
 31
0.0
  0
LINE
  5
248
330
1F
100
AcDbEntity
  8
Default
370
   100
100
AcDbLine
 10
625.1394091961431
 20
844.7527226011869
 30
0.0
 11
1091.871563553891
 21
936.7552758836715
 31
0.0
  0
LINE
  5
249
330
1F
100
AcDbEntity
  8
Default
  6
Continuous
370
    18
100
AcDbLine
 10
426.6742996372251
 20
226.2618452454699
 30
0.0
 11
427.7839324452226
 21
226.2812176556149
 31
-0.0
  0
SPLINE
  5
24A
330
1F
100
AcDbEntity
  8
Default
  6
Continuous
370
    18
100
AcDbSpline
210
0.0
220
0.0
230
1.0
 70
     8
 71
     3
 72
    10
 73
     6
 74
     0
 42
0.0000000001
 43
0.0000000001
 40
-1.0
 40
-1.0
 40
-1.0
 40
-1.0
 40
-0.7066884229159515
 40
-0.7066884229159515
 40
0.0
 40
0.0
 40
0.0
 40
0.0
 10
427.7839324452226
 20
226.2812176556149
 30
-0.0
 10
427.7922525306055
 20
226.2819842380577
 30
-0.0000000000000001
 10
427.80605058113
 20
226.2826959564722
 30
-0.0000000000000001
 10
427.8714055926823
 20
226.2860384337563
 30
-0.0000000000000001
 10
427.9500392136441
 20
226.2900157004655
 30
-0.0000000000000001
 10
429.9970029643457
 20
226.3243112584192
 30
-0.0
  0
LINE
  5
24B
330
1F
100
AcDbEntity
  8
Default
  6
Continuous
370
    18
100
AcDbLine
 10
429.9970029643457
 20
226.3243112584192
 30
-0.0
 11
442.2790146372251
 21
226.5342262454699
 31
0.0
  0
SPLINE
  5
24C
330
1F
100
AcDbEntity
  8
Default
370
   100
100
AcDbSpline
210
0.0
220
0.0
230
1.0
 70
     8
 71
     3
 72
     8
 73
     4
 74
     0
 42
0.0000000001
 43
0.0000000001
 40
0.0
 40
0.0
 40
0.0
 40
0.0
 40
1.0
 40
1.0
 40
1.0
 40
1.0
 10
1102.63593150433
 20
934.0208653666523
 30
0.0
 10
1102.300030715413
 20
935.3330339565157
 30
0.0
 10
1103.071704399472
 20
936.6606503901475
 30
0.0
 10
1104.34812739736
 20
936.992599405078
 30
0.0
  0
SPLINE
  5
24D
330
1F
100
AcDbEntity
  8
Default
370
   100
100
AcDbSpline
210
0.0
220
0.0
230
1.0
 70
     8
 71
     3
 72
    11
 73
     7
 74
     0
 42
0.0000000001
 43
0.0000000001
 40
1.0
 40
1.0
 40
1.0
 40
1.0
 40
2.0
 40
2.0
 40
2.0
 40
3.0
 40
3.0
 40
3.0
 40
3.0
 10
1104.34812739736
 20
936.992599405078
 30
0.0
 10
1105.692089805211
 20
937.3886749342564
 30
0.0
 10
1107.027789412908
 20
936.5850278061183
 30
0.0
 10
1107.379138045594
 20
935.2848941643072
 30
0.0
 10
1107.727612660835
 20
933.9610498785723
 30
0.0
 10
1106.971746072725
 20
932.6492405408897
 30
0.0
 10
1105.619520864718
 20
932.2892698558676
 30
0.0
  0
SPLINE
  5
24E
330
1F
100
AcDbEntity
  8
Default
370
   100
100
AcDbSpline
210
0.0
220
0.0
230
1.0
 70
     8
 71
     3
 72
     8
 73
     4
 74
     0
 42
0.0000000001
 43
0.0000000001
 40
3.0
 40
3.0
 40
3.0
 40
3.0
 40
4.0
 40
4.0
 40
4.0
 40
4.0
 10
1105.619520864718
 20
932.2892698558676
 30
0.0
 10
1104.34812739736
 20
931.9172642227934
 30
0.0
 10
1102.984046867391
 20
932.6849861328654
 30
0.0
 10
1102.63593150433
 20
934.0208653666523
 30
0.0
  0
SPLINE
  5
24F
330
1F
100
AcDbEntity
  8
Default
370
   100
100
AcDbSpline
210
0.0
220
0.0
230
1.0
 70
    27
 71
     3
 72
     8
 73
     4
 74
     0
 42
0.0000000001
 43
0.0000000001
 40
4.0
 40
4.0
 40
4.0
 40
4.0
 40
5.0
 40
5.0
 40
5.0
 40
5.0
 10
1102.63593150433
 20
934.0208653666523
 30
0.0
 10
1102.63593150433
 20
934.0208653666523
 30
0.0
 10
1102.63593150433
 20
934.0208653666523
 30
0.0
 10
1102.63593150433
 20
934.0208653666523
 30
0.0
  0
SPLINE
  5
250
330
1F
100
AcDbEntity
  8
Default
370
   100
100
AcDbSpline
210
0.0
220
0.0
230
1.0
 70
    27
 71
     3
 72
     8
 73
     4
 74
     0
 42
0.0000000001
 43
0.0000000001
 40
5.0
 40
5.0
 40
5.0
 40
5.0
 40
6.0
 40
6.0
 40
6.0
 40
6.0
 10
1102.63593150433
 20
934.0208653666523
 30
0.0
 10
1102.63593150433
 20
934.0208653666523
 30
0.0
 10
1102.63593150433
 20
934.0208653666523
 30
0.0
 10
1102.63593150433
 20
934.0208653666523
 30
0.0
  0
SPLINE
  5
251
330
1F
100
AcDbEntity
  8
Default
370
   100
100
AcDbSpline
210
0.0
220
0.0
230
1.0
 70
    11
 71
     3
 72
    17
 73
    13
 74
     0
 42
0.0000000001
 43
0.0000000001
 40
0.0
 40
0.0
 40
0.0
 40
0.0
 40
1.0
 40
1.0
 40
1.0
 40
2.0
 40
2.0
 40
2.0
 40
3.0
 40
3.0
 40
3.0
 40
4.0
 40
4.0
 40
4.0
 40
4.0
 10
1092.161215672805
 20
931.2213927488535
 30
0.0
 10
1090.253586593497
 20
938.2925534207989
 30
0.0
 10
1094.480547751151
 20
945.5839356794892
 30
0.0
 10
1101.580448597549
 20
947.4714466366806
 30
0.0
 10
1108.675319913418
 20
949.3873385161444
 30
0.0
 10
1115.946943302172
 20
945.1718734282713
 30
0.0
 10
1117.846309581325
 20
938.1005331302357
 30
0.0
 10
1119.749986886647
 20
930.9774605181849
 30
0.0
 10
1115.562902721046
 20
923.7101481555989
 30
0.0
 10
1108.467672152996
 20
921.822457572317
 30
0.0
 10
1101.364178784791
 20
919.8866271968267
 30
0.0
 10
1094.052678403984
 20
924.1182586328295
 30
0.0
 10
1092.161215672805
 20
931.2213927488535
 30
0.0
  0
SPLINE
  5
252
330
1F
100
AcDbEntity
  8
Default
370
   100
100
AcDbSpline
210
0.0
220
0.0
230
1.0
 70
    27
 71
     3
 72
     8
 73
     4
 74
     0
 42
0.0000000001
 43
0.0000000001
 40
4.0
 40
4.0
 40
4.0
 40
4.0
 40
5.0
 40
5.0
 40
5.0
 40
5.0
 10
1092.161215672805
 20
931.2213927488535
 30
0.0
 10
1092.161215672805
 20
931.2213927488535
 30
0.0
 10
1092.161215672805
 20
931.2213927488535
 30
0.0
 10
1092.161215672805
 20
931.2213927488535
 30
0.0
  0
SPLINE
  5
253
330
1F
100
AcDbEntity
  8
Default
370
   100
100
AcDbSpline
210
0.0
220
0.0
230
1.0
 70
    27
 71
     3
 72
     8
 73
     4
 74
     0
 42
0.0000000001
 43
0.0000000001
 40
5.0
 40
5.0
 40
5.0
 40
5.0
 40
6.0
 40
6.0
 40
6.0
 40
6.0
 10
1092.161215672805
 20
931.2213927488535
 30
0.0
 10
1092.161215672805
 20
931.2213927488535
 30
0.0
 10
1092.161215672805
 20
931.2213927488535
 30
0.0
 10
1092.161215672805
 20
931.2213927488535
 30
0.0
  0
SPLINE
  5
254
330
1F
100
AcDbEntity
  8
Default
370
   100
100
AcDbSpline
210
0.0
220
0.0
230
1.0
 70
    11
 71
     3
 72
    17
 73
    13
 74
     0
 42
0.0000000001
 43
0.0000000001
 40
0.0
 40
0.0
 40
0.0
 40
0.0
 40
1.0
 40
1.0
 40
1.0
 40
2.0
 40
2.0
 40
2.0
 40
3.0
 40
3.0
 40
3.0
 40
4.0
 40
4.0
 40
4.0
 40
4.0
 10
1097.092670356735
 20
932.5211671384841
 30
0.0
 10
1095.916837969433
 20
936.9209285950361
 30
0.0
 10
1098.500579652745
 20
941.3961330095269
 30
0.0
 10
1102.867649160857
 20
942.5759171708168
 30
0.0
 10
1107.287169487345
 20
943.7558809581969
 30
0.0
 10
1111.770636701991
 20
941.1561525528456
 30
0.0
 10
1112.9389247935
 20
936.7768684705911
 30
0.0
 10
1114.142778850894
 20
932.3972251361562
 30
0.0
 10
1111.523111949516
 20
927.8855566253283
 30
0.0
 10
1107.139157588913
 20
926.7221184382585
 30
0.0
 10
1102.751969958684
 20
925.5417953986977
 30
0.0
 10
1098.256647422076
 20
928.1417034301394
 30
0.0
 10
1097.092670356735
 20
932.5211671384841
 30
0.0
  0
SPLINE
  5
255
330
1F
100
AcDbEntity
  8
Default
370
   100
100
AcDbSpline
210
0.0
220
0.0
230
1.0
 70
    27
 71
     3
 72
     8
 73
     4
 74
     0
 42
0.0000000001
 43
0.0000000001
 40
4.0
 40
4.0
 40
4.0
 40
4.0
 40
5.0
 40
5.0
 40
5.0
 40
5.0
 10
1097.092670356735
 20
932.5211671384841
 30
0.0
 10
1097.092670356735
 20
932.5211671384841
 30
0.0
 10
1097.092670356735
 20
932.5211671384841
 30
0.0
 10
1097.092670356735
 20
932.5211671384841
 30
0.0
  0
SPLINE
  5
256
330
1F
100
AcDbEntity
  8
Default
370
   100
100
AcDbSpline
210
0.0
220
0.0
230
1.0
 70
    27
 71
     3
 72
     8
 73
     4
 74
     0
 42
0.0000000001
 43
0.0000000001
 40
5.0
 40
5.0
 40
5.0
 40
5.0
 40
6.0
 40
6.0
 40
6.0
 40
6.0
 10
1097.092670356735
 20
932.5211671384841
 30
0.0
 10
1097.092670356735
 20
932.5211671384841
 30
0.0
 10
1097.092670356735
 20
932.5211671384841
 30
0.0
 10
1097.092670356735
 20
932.5211671384841
 30
0.0
  0
SPLINE
  5
257
330
1F
100
AcDbEntity
  8
Default
370
   100
100
AcDbSpline
210
0.0
220
0.0
230
1.0
 70
     8
 71
     3
 72
    14
 73
    10
 74
     0
 42
0.0000000001
 43
0.0000000001
 40
0.0
 40
0.0
 40
0.0
 40
0.0
 40
1.0
 40
1.0
 40
1.0
 40
2.0
 40
2.0
 40
2.0
 40
3.0
 40
3.0
 40
3.0
 40
3.0
 10
1103.13601053981
 20
934.164745865007
 30
0.0
 10
1102.856153091076
 20
935.1889738320707
 30
0.0
 10
1103.480174128883
 20
936.2448159910326
 30
0.0
 10
1104.515898165728
 20
936.5246734397673
 30
0.0
 10
1105.527552306469
 20
936.7966273405275
 30
0.0
 10
1106.611416135522
 20
936.200987224992
 30
0.0
 10
1106.895943862605
 20
935.1647243098761
 30
0.0
 10
1107.183704859315
 20
934.1090617770046
 30
0.0
 10
1106.567228117301
 20
933.0453160700681
 30
0.0
 10
1105.511385958339
 20
932.7810860911922
 30
0.0
  0
SPLINE
  5
258
330
1F
100
AcDbEntity
  8
Default
370
   100
100
AcDbSpline
210
0.0
220
0.0
230
1.0
 70
     8
 71
     3
 72
     8
 73
     4
 74
     0
 42
0.0000000001
 43
0.0000000001
 40
3.0
 40
3.0
 40
3.0
 40
3.0
 40
4.0
 40
4.0
 40
4.0
 40
4.0
 10
1105.511385958339
 20
932.7810860911922
 30
0.0
 10
1104.471710147507
 20
932.4931454683925
 30
0.0
 10
1103.40796444057
 20
933.0851930621214
 30
0.0
 10
1103.13601053981
 20
934.164745865007
 30
0.0
  0
SPLINE
  5
259
330
1F
100
AcDbEntity
  8
Default
370
   100
100
AcDbSpline
210
0.0
220
0.0
230
1.0
 70
    27
 71
     3
 72
     8
 73
     4
 74
     0
 42
0.0000000001
 43
0.0000000001
 40
4.0
 40
4.0
 40
4.0
 40
4.0
 40
5.0
 40
5.0
 40
5.0
 40
5.0
 10
1103.13601053981
 20
934.164745865007
 30
0.0
 10
1103.13601053981
 20
934.164745865007
 30
0.0
 10
1103.13601053981
 20
934.164745865007
 30
0.0
 10
1103.13601053981
 20
934.164745865007
 30
0.0
  0
SPLINE
  5
25A
330
1F
100
AcDbEntity
  8
Default
370
   100
100
AcDbSpline
210
0.0
220
0.0
230
1.0
 70
    27
 71
     3
 72
     8
 73
     4
 74
     0
 42
0.0000000001
 43
0.0000000001
 40
5.0
 40
5.0
 40
5.0
 40
5.0
 40
6.0
 40
6.0
 40
6.0
 40
6.0
 10
1103.13601053981
 20
934.164745865007
 30
0.0
 10
1103.13601053981
 20
934.164745865007
 30
0.0
 10
1103.13601053981
 20
934.164745865007
 30
0.0
 10
1103.13601053981
 20
934.164745865007
 30
0.0
  0
SPLINE
  5
25B
330
1F
100
AcDbEntity
  8
Default
370
   100
100
AcDbSpline
210
0.0
220
0.0
230
1.0
 70
     8
 71
     3
 72
    14
 73
    10
 74
     0
 42
0.0000000001
 43
0.0000000001
 40
0.0
 40
0.0
 40
0.0
 40
0.0
 40
1.0
 40
1.0
 40
1.0
 40
2.0
 40
2.0
 40
2.0
 40
3.0
 40
3.0
 40
3.0
 40
3.0
 10
1103.13601053981
 20
934.164745865007
 30
0.0
 10
1102.856153091076
 20
935.1889738320707
 30
0.0
 10
1103.480174128883
 20
936.2448159910326
 30
0.0
 10
1104.515898165728
 20
936.5246734397673
 30
0.0
 10
1105.527552306469
 20
936.7966273405275
 30
0.0
 10
1106.611416135522
 20
936.200987224992
 30
0.0
 10
1106.895943862605
 20
935.1647243098761
 30
0.0
 10
1107.183704859315
 20
934.1090617770046
 30
0.0
 10
1106.567228117301
 20
933.0453160700681
 30
0.0
 10
1105.511385958339
 20
932.7810860911922
 30
0.0
  0
SPLINE
  5
25C
330
1F
100
AcDbEntity
  8
Default
370
   100
100
AcDbSpline
210
0.0
220
0.0
230
1.0
 70
     8
 71
     3
 72
     8
 73
     4
 74
     0
 42
0.0000000001
 43
0.0000000001
 40
3.0
 40
3.0
 40
3.0
 40
3.0
 40
4.0
 40
4.0
 40
4.0
 40
4.0
 10
1105.511385958339
 20
932.7810860911922
 30
0.0
 10
1104.471710147507
 20
932.4931454683925
 30
0.0
 10
1103.40796444057
 20
933.0851930621214
 30
0.0
 10
1103.13601053981
 20
934.164745865007
 30
0.0
  0
SPLINE
  5
25D
330
1F
100
AcDbEntity
  8
Default
370
   100
100
AcDbSpline
210
0.0
220
0.0
230
1.0
 70
    27
 71
     3
 72
     8
 73
     4
 74
     0
 42
0.0000000001
 43
0.0000000001
 40
4.0
 40
4.0
 40
4.0
 40
4.0
 40
5.0
 40
5.0
 40
5.0
 40
5.0
 10
1103.13601053981
 20
934.164745865007
 30
0.0
 10
1103.13601053981
 20
934.164745865007
 30
0.0
 10
1103.13601053981
 20
934.164745865007
 30
0.0
 10
1103.13601053981
 20
934.164745865007
 30
0.0
  0
SPLINE
  5
25E
330
1F
100
AcDbEntity
  8
Default
370
   100
100
AcDbSpline
210
0.0
220
0.0
230
1.0
 70
    27
 71
     3
 72
     8
 73
     4
 74
     0
 42
0.0000000001
 43
0.0000000001
 40
5.0
 40
5.0
 40
5.0
 40
5.0
 40
6.0
 40
6.0
 40
6.0
 40
6.0
 10
1103.13601053981
 20
934.164745865007
 30
0.0
 10
1103.13601053981
 20
934.164745865007
 30
0.0
 10
1103.13601053981
 20
934.164745865007
 30
0.0
 10
1103.13601053981
 20
934.164745865007
 30
0.0
  0
SPLINE
  5
25F
330
1F
100
AcDbEntity
  8
Default
370
   100
100
AcDbSpline
210
0.0
220
0.0
230
1.0
 70
     8
 71
     3
 72
    14
 73
    10
 74
     0
 42
0.0000000001
 43
0.0000000001
 40
0.0
 40
0.0
 40
0.0
 40
0.0
 40
1.0
 40
1.0
 40
1.0
 40
2.0
 40
2.0
 40
2.0
 40
3.0
 40
3.0
 40
3.0
 40
3.0
 10
1102.712092966631
 20
934.0208653666523
 30
0.0
 10
1102.376192177713
 20
935.3086048082308
 30
0.0
 10
1103.088229999782
 20
936.608738450042
 30
0.0
 10
1104.395548685207
 20
936.9566741870119
 30
0.0
 10
1105.667660656927
 20
937.3085616979691
 30
0.0
 10
1106.971746072725
 20
936.5605986578335
 30
0.0
 10
1107.31159863563
 20
935.2606446421125
 30
0.0
 10
1107.671210068471
 20
933.9610498785723
 30
0.0
 10
1106.895943862605
 20
932.6612754889418
 30
0.0
 10
1105.619520864718
 20
932.3490853439476
 30
0.0
  0
SPLINE
  5
260
330
1F
100
AcDbEntity
  8
Default
370
   100
100
AcDbSpline
210
0.0
220
0.0
230
1.0
 70
     8
 71
     3
 72
     8
 73
     4
 74
     0
 42
0.0000000001
 43
0.0000000001
 40
3.0
 40
3.0
 40
3.0
 40
3.0
 40
4.0
 40
4.0
 40
4.0
 40
4.0
 10
1105.619520864718
 20
932.3490853439476
 30
0.0
 10
1104.34812739736
 20
931.9650447628212
 30
0.0
 10
1103.035779181406
 20
932.7573754472685
 30
0.0
 10
1102.712092966631
 20
934.0208653666523
 30
0.0
  0
SPLINE
  5
261
330
1F
100
AcDbEntity
  8
Default
370
   100
100
AcDbSpline
210
0.0
220
0.0
230
1.0
 70
    27
 71
     3
 72
     8
 73
     4
 74
     0
 42
0.0000000001
 43
0.0000000001
 40
4.0
 40
4.0
 40
4.0
 40
4.0
 40
5.0
 40
5.0
 40
5.0
 40
5.0
 10
1102.712092966631
 20
934.0208653666523
 30
0.0
 10
1102.712092966631
 20
934.0208653666523
 30
0.0
 10
1102.712092966631
 20
934.0208653666523
 30
0.0
 10
1102.712092966631
 20
934.0208653666523
 30
0.0
  0
SPLINE
  5
262
330
1F
100
AcDbEntity
  8
Default
370
   100
100
AcDbSpline
210
0.0
220
0.0
230
1.0
 70
    27
 71
     3
 72
     8
 73
     4
 74
     0
 42
0.0000000001
 43
0.0000000001
 40
5.0
 40
5.0
 40
5.0
 40
5.0
 40
6.0
 40
6.0
 40
6.0
 40
6.0
 10
1102.712092966631
 20
934.0208653666523
 30
0.0
 10
1102.712092966631
 20
934.0208653666523
 30
0.0
 10
1102.712092966631
 20
934.0208653666523
 30
0.0
 10
1102.712092966631
 20
934.0208653666523
 30
0.0
  0
SPLINE
  5
263
330
1F
100
AcDbEntity
  8
Default
370
   100
100
AcDbSpline
210
0.0
220
0.0
230
1.0
 70
     8
 71
     3
 72
    14
 73
    10
 74
     0
 42
0.0000000001
 43
0.0000000001
 40
0.0
 40
0.0
 40
0.0
 40
0.0
 40
1.0
 40
1.0
 40
1.0
 40
2.0
 40
2.0
 40
2.0
 40
3.0
 40
3.0
 40
3.0
 40
3.0
 10
616.96793799961
 20
834.776372702582
 30
0.0
 10
617.4119736949067
 20
835.5722959088357
 30
0.0
 10
617.5316046710667
 20
836.3642673411024
 30
0.0
 10
617.2998870145404
 20
837.2320409834883
 30
0.0
 10
616.8558513192438
 20
838.8921453103217
 30
0.0
 10
615.1163522604845
 20
839.9037994510622
 30
0.0
 10
613.4081081414428
 20
839.4479084338037
 30
0.0
 10
612.5401548729664
 20
839.2318182471363
 30
0.0
 10
611.9082302871841
 20
838.723835663682
 30
0.0
 10
611.4843127140045
 20
837.9762318757271
 30
0.0
  0
SPLINE
  5
264
330
1F
100
AcDbEntity
  8
Default
370
   100
100
AcDbSpline
210
0.0
220
0.0
230
1.0
 70
    24
 71
     3
 72
     8
 73
     4
 74
     0
 42
0.0000000001
 43
0.0000000001
 40
3.0
 40
3.0
 40
3.0
 40
3.0
 40
4.0
 40
4.0
 40
4.0
 40
4.0
 10
611.4843127140045
 20
837.9762318757271
 30
0.0
 10
611.4843127140045
 20
837.9762318757271
 30
0.0
 10
610.2290855947758
 20
835.8244909396597
 30
0.0
 10
610.2290855947758
 20
835.8244909396597
 30
0.0
  0
SPLINE
  5
265
330
1F
100
AcDbEntity
  8
Default
370
   100
100
AcDbSpline
210
0.0
220
0.0
230
1.0
 70
     8
 71
     3
 72
    11
 73
     7
 74
     0
 42
0.0000000001
 43
0.0000000001
 40
4.0
 40
4.0
 40
4.0
 40
4.0
 40
5.0
 40
5.0
 40
5.0
 40
6.0
 40
6.0
 40
6.0
 40
6.0
 10
610.2290855947758
 20
835.8244909396597
 30
0.0
 10
610.0843069659696
 20
835.5922344048624
 30
0.0
 10
609.8924663014967
 20
835.4242840104035
 30
0.0
 10
609.6205124007365
 20
835.3522539481811
 30
0.0
 10
609.3650841002868
 20
835.2843552860362
 30
0.0
 10
609.0769638513968
 20
835.3522539481811
 30
0.0
 10
608.8369833947155
 20
835.4763755765994
 30
0.0
  0
SPLINE
  5
266
330
1F
100
AcDbEntity
  8
Default
370
   100
100
AcDbSpline
210
0.0
220
0.0
230
1.0
 70
    24
 71
     3
 72
     8
 73
     4
 74
     0
 42
0.0000000001
 43
0.0000000001
 40
6.0
 40
6.0
 40
6.0
 40
6.0
 40
7.0
 40
7.0
 40
7.0
 40
7.0
 10
608.8369833947155
 20
835.4763755765994
 30
0.0
 10
608.8369833947155
 20
835.4763755765994
 30
0.0
 10
607.7610231136366
 20
836.100396614407
 30
0.0
 10
607.7610231136366
 20
836.100396614407
 30
0.0
  0
SPLINE
  5
267
330
1F
100
AcDbEntity
  8
Default
370
   100
100
AcDbSpline
210
0.0
220
0.0
230
1.0
 70
     8
 71
     3
 72
    11
 73
     7
 74
     0
 42
0.0000000001
 43
0.0000000001
 40
7.0
 40
7.0
 40
7.0
 40
7.0
 40
8.0
 40
8.0
 40
8.0
 40
9.0
 40
9.0
 40
9.0
 40
9.0
 10
607.7610231136366
 20
836.100396614407
 30
0.0
 10
607.1653829981011
 20
836.4603672994291
 30
0.0
 10
606.7813424169748
 20
836.9403282127919
 30
0.0
 10
606.5927350221278
 20
837.5921912946008
 30
0.0
 10
606.4048461316423
 20
838.2641724985266
 30
0.0
 10
606.5007664638787
 20
838.9198077282325
 30
0.0
 10
606.848881826939
 20
839.495868599922
 30
0.0
  0
SPLINE
  5
268
330
1F
100
AcDbEntity
  8
Default
370
   100
100
AcDbSpline
210
0.0
220
0.0
230
1.0
 70
    24
 71
     3
 72
     8
 73
     4
 74
     0
 42
0.0000000001
 43
0.0000000001
 40
9.0
 40
9.0
 40
9.0
 40
9.0
 40
10.0
 40
10.0
 40
10.0
 40
10.0
 10
606.848881826939
 20
839.495868599922
 30
0.0
 10
606.848881826939
 20
839.495868599922
 30
0.0
 10
609.7124809589857
 20
844.4752834499701
 30
0.0
 10
609.7124809589857
 20
844.4752834499701
 30
0.0
  0
SPLINE
  5
269
330
1F
100
AcDbEntity
  8
Default
370
   100
100
AcDbSpline
210
0.0
220
0.0
230
1.0
 70
     8
 71
     3
 72
    11
 73
     7
 74
     0
 42
0.0000000001
 43
0.0000000001
 40
10.0
 40
10.0
 40
10.0
 40
10.0
 40
11.0
 40
11.0
 40
11.0
 40
12.0
 40
12.0
 40
12.0
 40
12.0
 10
609.7124809589857
 20
844.4752834499701
 30
0.0
 10
610.0843069659696
 20
845.0552960956469
 30
0.0
 10
610.5966005755918
 20
845.4513716248254
 30
0.0
 10
611.2644503794401
 20
845.631177341246
 30
0.0
 10
611.8927824434157
 20
845.8109830576667
 30
0.0
 10
612.524707029198
 20
845.7272772995727
 30
0.0
 10
613.1163953707462
 20
845.3872451105774
 30
0.0
  0
SPLINE
  5
26A
330
1F
100
AcDbEntity
  8
Default
370
   100
100
AcDbSpline
210
0.0
220
0.0
230
1.0
 70
    24
 71
     3
 72
     8
 73
     4
 74
     0
 42
0.0000000001
 43
0.0000000001
 40
12.0
 40
12.0
 40
12.0
 40
12.0
 40
13.0
 40
13.0
 40
13.0
 40
13.0
 10
613.1163953707462
 20
845.3872451105774
 30
0.0
 10
613.1163953707462
 20
845.3872451105774
 30
0.0
 10
648.1283943935803
 20
825.2132592794834
 30
0.0
 10
648.1283943935803
 20
825.2132592794834
 30
0.0
  0
SPLINE
  5
26B
330
1F
100
AcDbEntity
  8
Default
370
   100
100
AcDbSpline
210
0.0
220
0.0
230
1.0
 70
    11
 71
     3
 72
    17
 73
    13
 74
     0
 42
0.0000000001
 43
0.0000000001
 40
0.0
 40
0.0
 40
0.0
 40
0.0
 40
1.0
 40
1.0
 40
1.0
 40
2.0
 40
2.0
 40
2.0
 40
3.0
 40
3.0
 40
3.0
 40
4.0
 40
4.0
 40
4.0
 40
4.0
 10
611.4843127140045
 20
835.8244909396597
 30
0.0
 10
611.0726097149673
 20
837.375921481843
 30
0.0
 10
612.0124134195758
 20
839.0599160786902
 30
0.0
 10
613.5765974141726
 20
839.4717987038177
 30
0.0
 10
615.1605402787058
 20
839.9037994510622
 30
0.0
 10
616.8120225532032
 20
838.9401054764398
 30
0.0
 10
617.2276773262276
 20
837.3640661598812
 30
0.0
 10
617.6357878034582
 20
835.7842546954256
 30
0.0
 10
616.7117911947988
 20
834.1284613947603
 30
0.0
 10
615.1400629044082
 20
833.716758395723
 30
0.0
 10
613.5482164919003
 20
833.2888890485561
 30
0.0
 10
611.9082302871841
 20
834.2488108752816
 30
0.0
 10
611.4843127140045
 20
835.8244909396597
 30
0.0
  0
SPLINE
  5
26C
330
1F
100
AcDbEntity
  8
Default
370
   100
100
AcDbSpline
210
0.0
220
0.0
230
1.0
 70
    27
 71
     3
 72
     8
 73
     4
 74
     0
 42
0.0000000001
 43
0.0000000001
 40
4.0
 40
4.0
 40
4.0
 40
4.0
 40
5.0
 40
5.0
 40
5.0
 40
5.0
 10
611.4843127140045
 20
835.8244909396597
 30
0.0
 10
611.4843127140045
 20
835.8244909396597
 30
0.0
 10
611.4843127140045
 20
835.8244909396597
 30
0.0
 10
611.4843127140045
 20
835.8244909396597
 30
0.0
  0
SPLINE
  5
26D
330
1F
100
AcDbEntity
  8
Default
370
   100
100
AcDbSpline
210
0.0
220
0.0
230
1.0
 70
     8
 71
     3
 72
     8
 73
     4
 74
     0
 42
0.0000000001
 43
0.0000000001
 40
0.0
 40
0.0
 40
0.0
 40
0.0
 40
1.0
 40
1.0
 40
1.0
 40
1.0
 10
616.6995766206564
 20
843.3436390808888
 30
0.0
 10
617.0599065578591
 20
843.1036586242075
 30
0.0
 10
617.4356843388302
 20
843.0794091020128
 30
0.0
 10
617.8556501380226
 20
843.1875440083917
 30
0.0
  0
SPLINE
  5
26E
330
1F
100
AcDbEntity
  8
Default
370
   100
100
AcDbSpline
210
0.0
220
0.0
230
1.0
 70
     8
 71
     3
 72
     8
 73
     4
 74
     0
 42
0.0000000001
 43
0.0000000001
 40
1.0
 40
1.0
 40
1.0
 40
1.0
 40
2.0
 40
2.0
 40
2.0
 40
2.0
 10
617.8556501380226
 20
843.1875440083917
 30
0.0
 10
618.1240115169762
 20
843.271429392576
 30
0.0
 10
618.3517773995152
 20
843.391599247007
 30
0.0
 10
618.5558326381304
 20
843.6195447556363
 30
0.0
  0
SPLINE
  5
26F
330
1F
100
AcDbEntity
  8
Default
370
   100
100
AcDbSpline
210
0.0
220
0.0
230
1.0
 70
     8
 71
     3
 72
     8
 73
     4
 74
     0
 42
0.0000000001
 43
0.0000000001
 40
0.0
 40
0.0
 40
0.0
 40
0.0
 40
1.0
 40
1.0
 40
1.0
 40
1.0
 10
613.1925568330463
 20
797.1208165083558
 30
0.0
 10
614.9245115960117
 20
797.1448864044601
 30
0.0
 10
616.3881049800235
 20
797.5767075256142
 30
0.0
 10
617.8840310602949
 20
798.4444811680003
 30
0.0
  0
SPLINE
  5
270
330
1F
100
AcDbEntity
  8
Default
370
   100
100
AcDbSpline
210
0.0
220
0.0
230
1.0
 70
    24
 71
     3
 72
     8
 73
     4
 74
     0
 42
0.0000000001
 43
0.0000000001
 40
1.0
 40
1.0
 40
1.0
 40
1.0
 40
2.0
 40
2.0
 40
2.0
 40
2.0
 10
617.8840310602949
 20
798.4444811680003
 30
0.0
 10
617.8840310602949
 20
798.4444811680003
 30
0.0
 10
644.2247601985207
 20
813.6747977410218
 30
0.0
 10
644.2247601985207
 20
813.6747977410218
 30
0.0
  0
SPLINE
  5
271
330
1F
100
AcDbEntity
  8
Default
370
   100
100
AcDbSpline
210
0.0
220
0.0
230
1.0
 70
    24
 71
     3
 72
     8
 73
     4
 74
     0
 42
0.0000000001
 43
0.0000000001
 40
0.0
 40
0.0
 40
0.0
 40
0.0
 40
1.0
 40
1.0
 40
1.0
 40
1.0
 10
649.5000192193429
 20
804.2918492865248
 30
0.0
 10
649.5000192193429
 20
804.2918492865248
 30
0.0
 10
628.154332401024
 20
791.9693198637711
 30
0.0
 10
628.154332401024
 20
791.9693198637711
 30
0.0
  0
SPLINE
  5
272
330
1F
100
AcDbEntity
  8
Default
370
   100
100
AcDbSpline
210
0.0
220
0.0
230
1.0
 70
     8
 71
     3
 72
     8
 73
     4
 74
     0
 42
0.0000000001
 43
0.0000000001
 40
1.0
 40
1.0
 40
1.0
 40
1.0
 40
2.0
 40
2.0
 40
2.0
 40
2.0
 10
628.154332401024
 20
791.9693198637711
 30
0.0
 10
625.7789569824952
 20
790.6217649341128
 30
0.0
 10
624.2348911100153
 20
788.605821322335
 30
0.0
 10
623.5354271142688
 20
785.9340628547611
 30
0.0
  0
SPLINE
  5
273
330
1F
100
AcDbEntity
  8
Default
370
   100
100
AcDbSpline
210
0.0
220
0.0
230
1.0
 70
    27
 71
     3
 72
     8
 73
     4
 74
     0
 42
0.0000000001
 43
0.0000000001
 40
2.0
 40
2.0
 40
2.0
 40
2.0
 40
3.0
 40
3.0
 40
3.0
 40
3.0
 10
623.5354271142688
 20
785.9340628547611
 30
0.0
 10
623.5354271142688
 20
785.9340628547611
 30
0.0
 10
623.5354271142688
 20
785.9340628547611
 30
0.0
 10
623.5354271142688
 20
785.9340628547611
 30
0.0
  0
SPLINE
  5
274
330
1F
100
AcDbEntity
  8
Default
370
   100
100
AcDbSpline
210
0.0
220
0.0
230
1.0
 70
    24
 71
     3
 72
     8
 73
     4
 74
     0
 42
0.0000000001
 43
0.0000000001
 40
3.0
 40
3.0
 40
3.0
 40
3.0
 40
4.0
 40
4.0
 40
4.0
 40
4.0
 10
623.5354271142688
 20
785.9340628547611
 30
0.0
 10
623.5354271142688
 20
785.9340628547611
 30
0.0
 10
621.0551500589871
 20
776.7271479687878
 30
0.0
 10
621.0551500589871
 20
776.7271479687878
 30
0.0
  0
SPLINE
  5
275
330
1F
100
AcDbEntity
  8
Default
370
   100
100
AcDbSpline
210
0.0
220
0.0
230
1.0
 70
    11
 71
     3
 72
    17
 73
    13
 74
     0
 42
0.0000000001
 43
0.0000000001
 40
0.0
 40
0.0
 40
0.0
 40
0.0
 40
1.0
 40
1.0
 40
1.0
 40
2.0
 40
2.0
 40
2.0
 40
3.0
 40
3.0
 40
3.0
 40
4.0
 40
4.0
 40
4.0
 40
4.0
 10
607.2929175222356
 20
791.3214085559495
 30
0.0
 10
608.2090105829205
 20
794.6771831755015
 30
0.0
 10
611.6607055347089
 20
796.7087542571379
 30
0.0
 10
615.0401907981844
 20
795.820862492635
 30
0.0
 10
618.4315313836217
 20
794.8812384141168
 30
0.0
 10
620.4595099434516
 20
791.4214602882636
 30
0.0
 10
619.5394651087795
 20
788.0259883027486
 30
0.0
 10
618.6276830742626
 20
784.6421920131052
 30
0.0
 10
615.1400629044082
 20
782.6345112014826
 30
0.0
 10
611.7681219367265
 20
783.5500653838965
 30
0.0
 10
608.3767813512891
 20
784.4383164005801
 30
0.0
 10
606.3811354877187
 20
787.9257569443442
 30
0.0
 10
607.2929175222356
 20
791.3214085559495
 30
0.0
  0
SPLINE
  5
276
330
1F
100
AcDbEntity
  8
Default
370
   100
100
AcDbSpline
210
0.0
220
0.0
230
1.0
 70
    27
 71
     3
 72
     8
 73
     4
 74
     0
 42
0.0000000001
 43
0.0000000001
 40
4.0
 40
4.0
 40
4.0
 40
4.0
 40
5.0
 40
5.0
 40
5.0
 40
5.0
 10
607.2929175222356
 20
791.3214085559495
 30
0.0
 10
607.2929175222356
 20
791.3214085559495
 30
0.0
 10
607.2929175222356
 20
791.3214085559495
 30
0.0
 10
607.2929175222356
 20
791.3214085559495
 30
0.0
  0
SPLINE
  5
277
330
1F
100
AcDbEntity
  8
Default
370
   100
100
AcDbSpline
210
0.0
220
0.0
230
1.0
 70
    11
 71
     3
 72
    17
 73
    13
 74
     0
 42
0.0000000001
 43
0.0000000001
 40
0.0
 40
0.0
 40
0.0
 40
0.0
 40
1.0
 40
1.0
 40
1.0
 40
2.0
 40
2.0
 40
2.0
 40
3.0
 40
3.0
 40
3.0
 40
4.0
 40
4.0
 40
4.0
 40
4.0
 10
646.9202293100182
 20
817.6184885542251
 30
0.0
 10
648.4161553902895
 20
823.2016266938737
 30
0.0
 10
654.2033487685534
 20
826.5376424434892
 30
0.0
 10
659.7951089605377
 20
825.0214186150106
 30
0.0
 10
665.4141723182522
 20
823.541658882869
 30
0.0
 10
668.725758919583
 20
817.7783557746192
 30
0.0
 10
667.2298328393116
 20
812.1831826869185
 30
0.0
 10
665.7421695591955
 20
806.5517251289712
 30
0.0
 10
659.9628797289063
 20
803.2281035795884
 30
0.0
 10
654.3596234671408
 20
804.7238500337693
 30
0.0
 10
648.7520561792073
 20
806.215644713963
 30
0.0
 10
645.416758933953
 20
812.0030177183171
 30
0.0
 10
646.9202293100182
 20
817.6184885542251
 30
0.0
  0
SPLINE
  5
278
330
1F
100
AcDbEntity
  8
Default
370
   100
100
AcDbSpline
210
0.0
220
0.0
230
1.0
 70
    27
 71
     3
 72
     8
 73
     4
 74
     0
 42
0.0000000001
 43
0.0000000001
 40
4.0
 40
4.0
 40
4.0
 40
4.0
 40
5.0
 40
5.0
 40
5.0
 40
5.0
 10
646.9202293100182
 20
817.6184885542251
 30
0.0
 10
646.9202293100182
 20
817.6184885542251
 30
0.0
 10
646.9202293100182
 20
817.6184885542251
 30
0.0
 10
646.9202293100182
 20
817.6184885542251
 30
0.0
  0
SPLINE
  5
279
330
1F
100
AcDbEntity
  8
Default
370
   100
100
AcDbSpline
210
0.0
220
0.0
230
1.0
 70
    11
 71
     3
 72
    17
 73
    13
 74
     0
 42
0.0000000001
 43
0.0000000001
 40
0.0
 40
0.0
 40
0.0
 40
0.0
 40
1.0
 40
1.0
 40
1.0
 40
2.0
 40
2.0
 40
2.0
 40
3.0
 40
3.0
 40
3.0
 40
4.0
 40
4.0
 40
4.0
 40
4.0
 10
644.6123933014536
 20
818.2464613660201
 30
0.0
 10
646.4686493189276
 20
825.1054836252852
 30
0.0
 10
653.5394507386923
 20
829.193054936843
 30
0.0
 10
660.422722520152
 20
827.3653594677315
 30
0.0
 10
667.3178496235735
 20
825.5134144764255
 30
0.0
 10
671.3935656131696
 20
818.4384816565832
 30
0.0
 10
669.5656905179677
 20
811.5311399790193
 30
0.0
 10
667.7180565528296
 20
804.6599031456117
 30
0.0
 10
660.6145631846248
 20
800.5843667821059
 30
0.0
 10
653.7356024293331
 20
802.4361321473217
 30
0.0
 10
646.8641859698351
 20
804.2438891204065
 30
0.0
 10
642.7730221364707
 20
811.3391196884561
 30
0.0
 10
644.6123933014536
 20
818.2464613660201
 30
0.0
  0
SPLINE
  5
27A
330
1F
100
AcDbEntity
  8
Default
370
   100
100
AcDbSpline
210
0.0
220
0.0
230
1.0
 70
    27
 71
     3
 72
     8
 73
     4
 74
     0
 42
0.0000000001
 43
0.0000000001
 40
4.0
 40
4.0
 40
4.0
 40
4.0
 40
5.0
 40
5.0
 40
5.0
 40
5.0
 10
644.6123933014536
 20
818.2464613660201
 30
0.0
 10
644.6123933014536
 20
818.2464613660201
 30
0.0
 10
644.6123933014536
 20
818.2464613660201
 30
0.0
 10
644.6123933014536
 20
818.2464613660201
 30
0.0
  0
SPLINE
  5
27B
330
1F
100
AcDbEntity
  8
Default
370
   100
100
AcDbSpline
210
0.0
220
0.0
230
1.0
 70
    11
 71
     3
 72
    17
 73
    13
 74
     0
 42
0.0000000001
 43
0.0000000001
 40
0.0
 40
0.0
 40
0.0
 40
0.0
 40
1.0
 40
1.0
 40
1.0
 40
2.0
 40
2.0
 40
2.0
 40
3.0
 40
3.0
 40
3.0
 40
4.0
 40
4.0
 40
4.0
 40
4.0
 10
492.6501578906847
 20
367.8697854545974
 30
0.0
 10
494.4783922380672
 20
374.7253948181462
 30
0.0
 10
501.4891985436615
 20
378.7967997815744
 30
0.0
 10
508.3361858548745
 20
376.9570693644107
 30
0.0
 10
515.1673660701383
 20
375.117338947247
 30
0.0
 10
519.2470338337217
 20
368.0741999453933
 30
0.0
 10
517.4073034165581
 20
361.2268533819997
 30
0.0
 10
515.5675729993944
 20
354.3755550446188
 30
0.0
 10
508.5445521196577
 20
350.3364827774501
 30
0.0
 10
501.7133719043938
 20
352.2117791604991
 30
0.0
 10
494.8739288889747
 20
354.0076808116222
 30
0.0
 10
490.8104274735211
 20
361.0066317952546
 30
0.0
 10
492.6501578906847
 20
367.8697854545974
 30
0.0
  0
SPLINE
  5
27C
330
1F
100
AcDbEntity
  8
Default
370
   100
100
AcDbSpline
210
0.0
220
0.0
230
1.0
 70
    27
 71
     3
 72
     8
 73
     4
 74
     0
 42
0.0000000001
 43
0.0000000001
 40
4.0
 40
4.0
 40
4.0
 40
4.0
 40
5.0
 40
5.0
 40
5.0
 40
5.0
 10
492.6501578906847
 20
367.8697854545974
 30
0.0
 10
492.6501578906847
 20
367.8697854545974
 30
0.0
 10
492.6501578906847
 20
367.8697854545974
 30
0.0
 10
492.6501578906847
 20
367.8697854545974
 30
0.0
  0
SPLINE
  5
27D
330
1F
100
AcDbEntity
  8
Default
370
   100
100
AcDbSpline
210
0.0
220
0.0
230
1.0
 70
     8
 71
     3
 72
     8
 73
     4
 74
     0
 42
0.0000000001
 43
0.0000000001
 40
0.0
 40
0.0
 40
0.0
 40
0.0
 40
1.0
 40
1.0
 40
1.0
 40
1.0
 10
501.9292824649709
 20
365.3744198077279
 30
0.0
 10
502.3848142300487
 20
367.1020635445254
 30
0.0
 10
504.1368871151311
 20
368.0741999453933
 30
0.0
 10
505.8487237559795
 20
367.6463305982264
 30
0.0
  0
SPLINE
  5
27E
330
1F
100
AcDbEntity
  8
Default
370
   100
100
AcDbSpline
210
0.0
220
0.0
230
1.0
 70
     8
 71
     3
 72
    14
 73
    10
 74
     0
 42
0.0000000001
 43
0.0000000001
 40
1.0
 40
1.0
 40
1.0
 40
1.0
 40
2.0
 40
2.0
 40
2.0
 40
3.0
 40
3.0
 40
3.0
 40
4.0
 40
4.0
 40
4.0
 40
4.0
 10
505.8487237559795
 20
367.6463305982264
 30
0.0
 10
507.55624937066
 20
367.1742732328382
 30
0.0
 10
508.5761663115558
 20
365.4423184698728
 30
0.0
 10
508.120634546478
 20
363.7347928551923
 30
0.0
 10
507.6643842770389
 20
362.0146934141887
 30
0.0
 10
505.8965042960074
 20
361.0066317952546
 30
0.0
 10
504.1889786813269
 20
361.4707856126684
 30
0.0
 10
502.4929491364276
 20
361.9270358821075
 30
0.0
 10
501.4654878997379
 20
363.6866530629837
 30
0.0
 10
501.9292824649709
 20
365.3744198077279
 30
0.0
  0
SPLINE
  5
27F
330
1F
100
AcDbEntity
  8
Default
370
   100
100
AcDbSpline
210
0.0
220
0.0
230
1.0
 70
    27
 71
     3
 72
     8
 73
     4
 74
     0
 42
0.0000000001
 43
0.0000000001
 40
4.0
 40
4.0
 40
4.0
 40
4.0
 40
5.0
 40
5.0
 40
5.0
 40
5.0
 10
501.9292824649709
 20
365.3744198077279
 30
0.0
 10
501.9292824649709
 20
365.3744198077279
 30
0.0
 10
501.9292824649709
 20
365.3744198077279
 30
0.0
 10
501.9292824649709
 20
365.3744198077279
 30
0.0
  0
POLYLINE
  5
280
330
1F
100
AcDbEntity
  8
Default
370
   100
100
AcDb2dPolyline
 66
     1
 10
0.0
 20
0.0
 30
0.0
  0
VERTEX
  5
281
330
280
100
AcDbEntity
  8
Default
370
   100
100
AcDbVertex
100
AcDb2dVertex
 10
471.652586435426
 20
405.6498225294224
 30
0.0
  0
VERTEX
  5
282
330
280
100
AcDbEntity
  8
Default
370
   100
100
AcDbVertex
100
AcDb2dVertex
 10
499.1813625350969
 20
378.1048800816218
 30
0.0
  0
SEQEND
  5
283
330
280
100
AcDbEntity
  8
Default
370
   100
  0
POLYLINE
  5
284
330
1F
100
AcDbEntity
  8
Default
370
   100
100
AcDb2dPolyline
 66
     1
 10
0.0
 20
0.0
 30
0.0
  0
VERTEX
  5
285
330
284
100
AcDbEntity
  8
Default
370
   100
100
AcDbVertex
100
AcDb2dVertex
 10
471.652586435426
 20
405.6498225294224
 30
0.0
  0
VERTEX
  5
286
330
284
100
AcDbEntity
  8
Default
370
   100
100
AcDbVertex
100
AcDb2dVertex
 10
499.1813625350969
 20
378.1048800816218
 30
0.0
  0
SEQEND
  5
287
330
284
100
AcDbEntity
  8
Default
370
   100
  0
POLYLINE
  5
288
330
1F
100
AcDbEntity
  8
Default
370
   100
100
AcDb2dPolyline
 66
     1
 10
0.0
 20
0.0
 30
0.0
  0
VERTEX
  5
289
330
288
100
AcDbEntity
  8
Default
370
   100
100
AcDbVertex
100
AcDb2dVertex
 10
470.8845052731733
 20
392.6833335728344
 30
0.0
  0
VERTEX
  5
28A
330
288
100
AcDbEntity
  8
Default
370
   100
100
AcDbVertex
100
AcDb2dVertex
 10
473.9880848619014
 20
395.738773369354
 30
0.0
  0
SEQEND
  5
28B
330
288
100
AcDbEntity
  8
Default
370
   100
  0
SPLINE
  5
28C
330
1F
100
AcDbEntity
  8
Default
370
   100
100
AcDbSpline
210
0.0
220
0.0
230
1.0
 70
     8
 71
     3
 72
    14
 73
    10
 74
     0
 42
0.0000000001
 43
0.0000000001
 40
0.0
 40
0.0
 40
0.0
 40
0.0
 40
1.0
 40
1.0
 40
1.0
 40
2.0
 40
2.0
 40
2.0
 40
3.0
 40
3.0
 40
3.0
 40
3.0
 10
483.1432674338596
 20
394.1393826610524
 30
0.0
 10
484.2152759409513
 20
395.1628921237548
 30
0.0
 10
484.7430173943419
 20
396.4468594174363
 30
0.0
 10
484.7311620723801
 20
397.9625443676439
 30
0.0
 10
484.7430173943419
 20
400.9543965281866
 30
0.0
 10
482.3392610535409
 20
403.3700081909494
 30
0.0
 10
479.3398645972044
 20
403.3700081909494
 30
0.0
 10
477.8040615248798
 20
403.3700081909494
 30
0.0
 10
476.5642822494196
 20
402.846218511546
 30
0.0
 10
475.4603002982491
 20
401.7781617784416
 30
0.0
  0
POLYLINE
  5
28D
330
1F
100
AcDbEntity
  8
Default
370
   100
100
AcDb2dPolyline
 66
     1
 10
0.0
 20
0.0
 30
0.0
  0
VERTEX
  5
28E
330
28D
100
AcDbEntity
  8
Default
370
   100
100
AcDbVertex
100
AcDb2dVertex
 10
469.4446225330851
 20
400.2901392461449
 30
0.0
  0
VERTEX
  5
28F
330
28D
100
AcDbEntity
  8
Default
370
   100
100
AcDbVertex
100
AcDb2dVertex
 10
470.5884814763089
 20
400.8383580738331
 30
0.0
  0
SEQEND
  5
290
330
28D
100
AcDbEntity
  8
Default
370
   100
  0
POLYLINE
  5
291
330
1F
100
AcDbEntity
  8
Default
370
   100
100
AcDb2dPolyline
 66
     1
 10
0.0
 20
0.0
 30
0.0
  0
VERTEX
  5
292
330
291
100
AcDbEntity
  8
Default
370
   100
100
AcDbVertex
100
AcDb2dVertex
 10
473.9880848619014
 20
395.738773369354
 30
0.0
  0
VERTEX
  5
293
330
291
100
AcDbEntity
  8
Default
370
   100
100
AcDbVertex
100
AcDb2dVertex
 10
474.5442072375643
 20
396.870776990616
 30
0.0
  0
SEQEND
  5
294
330
291
100
AcDbEntity
  8
Default
370
   100
  0
SPLINE
  5
295
330
1F
100
AcDbEntity
  8
Default
370
   100
100
AcDbSpline
210
0.0
220
0.0
230
1.0
 70
    11
 71
     3
 72
    20
 73
    16
 74
     0
 42
0.0000000001
 43
0.0000000001
 40
0.0
 40
0.0
 40
0.0
 40
0.0
 40
1.0
 40
1.0
 40
1.0
 40
2.0
 40
2.0
 40
2.0
 40
3.0
 40
3.0
 40
3.0
 40
4.0
 40
4.0
 40
4.0
 40
5.0
 40
5.0
 40
5.0
 40
5.0
 10
468.9125700535266
 20
398.1946212763508
 30
0.0
 10
468.9369992018115
 20
399.8141301067694
 30
0.0
 10
470.2604842353657
 20
401.1501889666467
 30
0.0
 10
471.8965186660946
 20
401.1501889666467
 30
0.0
 10
473.5325530968236
 20
401.1501889666467
 30
0.0
 10
474.859989904365
 20
399.8141301067694
 30
0.0
 10
474.8283757124669
 20
398.1946212763508
 30
0.0
 10
474.859989904365
 20
396.5790642199195
 30
0.0
 10
473.5325530968236
 20
395.2430053600422
 30
0.0
 10
471.8965186660946
 20
395.2430053600422
 30
0.0
 10
470.2604842353657
 20
395.2430053600422
 30
0.0
 10
468.9125700535266
 20
396.5790642199195
 30
0.0
 10
468.9125700535266
 20
398.1946212763508
 30
0.0
 10
468.9125700535266
 20
398.1946212763508
 30
0.0
 10
468.9125700535266
 20
398.1946212763508
 30
0.0
 10
468.9125700535266
 20
398.1946212763508
 30
0.0
  0
SPLINE
  5
296
330
1F
100
AcDbEntity
  8
Default
370
   100
100
AcDbSpline
210
0.0
220
0.0
230
1.0
 70
     8
 71
     3
 72
    32
 73
    28
 74
     0
 42
0.0000000001
 43
0.0000000001
 40
0.0
 40
0.0
 40
0.0
 40
0.0
 40
1.0
 40
1.0
 40
1.0
 40
2.0
 40
2.0
 40
2.0
 40
3.0
 40
3.0
 40
3.0
 40
4.0
 40
4.0
 40
4.0
 40
5.0
 40
5.0
 40
5.0
 40
6.0
 40
6.0
 40
6.0
 40
7.0
 40
7.0
 40
7.0
 40
8.0
 40
8.0
 40
8.0
 40
9.0
 40
9.0
 40
9.0
 40
9.0
 10
471.6328275654897
 20
405.6498225294224
 30
0.0
 10
471.1726255220632
 20
406.1057135466809
 30
0.0
 10
470.5967442764641
 20
406.3500050295302
 30
0.0
 10
469.9091356026794
 20
406.3500050295302
 30
0.0
 10
469.2006903024164
 20
406.3500050295302
 30
0.0
 10
468.6449271789343
 20
406.1057135466809
 30
0.0
 10
468.157062717597
 20
405.6498225294224
 30
0.0
 10
468.157062717597
 20
405.6498225294224
 30
0.0
 10
464.101464850118
 20
401.5859618617882
 30
0.0
 10
464.101464850118
 20
401.5859618617882
 30
0.0
 10
463.6175521627679
 20
401.0822903045018
 30
0.0
 10
463.3775717060866
 20
400.5222161548517
 30
0.0
 10
463.4012823500101
 20
399.8543663510034
 30
0.0
 10
463.4012823500101
 20
399.1423285289338
 30
0.0
 10
463.6175521627679
 20
398.5545919613729
 30
0.0
 10
464.1097276502732
 20
398.0943899179464
 30
0.0
 10
464.1097276502732
 20
398.0943899179464
 30
0.0
 10
465.0136061368156
 20
397.2106295535211
 30
0.0
 10
465.0136061368156
 20
397.2106295535211
 30
0.0
 10
465.1810176530035
 20
397.0108853410737
 30
0.0
 10
465.413453813891
 20
396.9386756527609
 30
0.0
 10
465.6854077146511
 20
396.9386756527609
 30
0.0
 10
465.9490988152561
 20
396.9386756527609
 30
0.0
 10
466.1930310459248
 20
397.0108853410737
 30
0.0
 10
466.3852309625782
 20
397.2106295535211
 30
0.0
 10
466.3852309625782
 20
397.2106295535211
 30
0.0
 10
469.4446225330851
 20
400.2901392461449
 30
0.0
 10
469.4446225330851
 20
400.2901392461449
 30
0.0
  0
SPLINE
  5
297
330
1F
100
AcDbEntity
  8
Default
370
   100
100
AcDbSpline
210
0.0
220
0.0
230
1.0
 70
     8
 71
     3
 72
    14
 73
    10
 74
     0
 42
0.0000000001
 43
0.0000000001
 40
0.0
 40
0.0
 40
0.0
 40
0.0
 40
1.0
 40
1.0
 40
1.0
 40
2.0
 40
2.0
 40
2.0
 40
3.0
 40
3.0
 40
3.0
 40
3.0
 10
470.9326450653819
 20
392.6833335728344
 30
0.0
 10
470.7167345048048
 20
392.5155628044659
 30
0.0
 10
470.6330287467108
 20
392.2716305737973
 30
0.0
 10
470.644524816492
 20
391.9633922027903
 30
0.0
 10
470.6330287467108
 20
391.6953900760174
 30
0.0
 10
470.7167345048048
 20
391.4672649412979
 30
0.0
 10
470.8845052731733
 20
391.2635689548632
 30
0.0
 10
470.8845052731733
 20
391.2635689548632
 30
0.0
 10
492.494242444278
 20
369.7181379240969
 30
0.0
 10
492.494242444278
 20
369.7181379240969
 30
0.0
  0
SPLINE
  5
298
330
1F
100
AcDbEntity
  8
Default
100
AcDbSpline
210
0.0
220
0.0
230
1.0
 70
     8
 71
     3
 72
     8
 73
     4
 74
     0
 42
0.0000000001
 43
0.0000000001
 40
0.0
 40
0.0
 40
0.0
 40
0.0
 40
1.0
 40
1.0
 40
1.0
 40
1.0
 10
386.8411540208102
 20
630.4018919160196
 30
0.0
 10
386.5643357537007
 20
629.663709772231
 30
0.0
 10
386.1952447120623
 20
629.11007315733
 30
0.0
 10
385.6416081294341
 20
628.7409820672822
 30
0.0
  0
SPLINE
  5
299
330
1F
100
AcDbEntity
  8
Default
100
AcDbSpline
210
0.0
220
0.0
230
1.0
 70
     8
 71
     3
 72
     8
 73
     4
 74
     0
 42
0.0000000001
 43
0.0000000001
 40
0.0
 40
0.0
 40
0.0
 40
0.0
 40
1.0
 40
1.0
 40
1.0
 40
1.0
 10
385.6416081294341
 20
628.7409820672822
 30
0.0
 10
385.0879715468059
 20
628.3718909772344
 30
0.0
 10
384.4420621896487
 20
628.1873454160741
 30
0.0
 10
383.7038800579624
 20
628.1873453838012
 30
0.0
  0
SPLINE
  5
29A
330
1F
100
AcDbEntity
  8
Default
100
AcDbSpline
210
0.0
220
0.0
230
1.0
 70
     8
 71
     3
 72
     8
 73
     4
 74
     0
 42
0.0000000001
 43
0.0000000001
 40
0.0
 40
0.0
 40
0.0
 40
0.0
 40
1.0
 40
1.0
 40
1.0
 40
1.0
 10
383.7038800579624
 20
628.1873453838012
 30
0.0
 10
382.6888796268938
 20
628.187345339426
 30
0.0
 10
381.7661519461496
 20
628.556436364928
 30
0.0
 10
380.9356970116956
 20
629.386891226768
 30
0.0
  0
SPLINE
  5
29B
330
1F
100
AcDbEntity
  8
Default
100
AcDbSpline
210
0.0
220
0.0
230
1.0
 70
     8
 71
     3
 72
     8
 73
     4
 74
     0
 42
0.0000000001
 43
0.0000000001
 40
0.0
 40
0.0
 40
0.0
 40
0.0
 40
1.0
 40
1.0
 40
1.0
 40
1.0
 10
380.9356970116956
 20
629.386891226768
 30
0.0
 10
380.1975148437023
 20
630.2173460926421
 30
0.0
 10
379.828423733484
 20
631.2323465075742
 30
0.0
 10
379.8284236770065
 20
632.524165238025
 30
0.0
  0
SPLINE
  5
29C
330
1F
100
AcDbEntity
  8
Default
100
AcDbSpline
210
0.0
220
0.0
230
1.0
 70
     8
 71
     3
 72
     8
 73
     4
 74
     0
 42
0.0000000001
 43
0.0000000001
 40
0.0
 40
0.0
 40
0.0
 40
0.0
 40
1.0
 40
1.0
 40
1.0
 40
1.0
 10
379.8284236770065
 20
632.524165238025
 30
0.0
 10
379.8284236164948
 20
633.9082567349368
 30
0.0
 10
380.1975146379627
 20
634.9232571821418
 30
0.0
 10
381.0279694998027
 20
635.7537121165957
 30
0.0
  0
SPLINE
  5
29D
330
1F
100
AcDbEntity
  8
Default
100
AcDbSpline
210
0.0
220
0.0
230
1.0
 70
     8
 71
     3
 72
     8
 73
     4
 74
     0
 42
0.0000000001
 43
0.0000000001
 40
0.0
 40
0.0
 40
0.0
 40
0.0
 40
1.0
 40
1.0
 40
1.0
 40
1.0
 10
381.0279694998027
 20
635.7537121165957
 30
0.0
 10
381.766151595182
 20
636.5841670470157
 30
0.0
 10
382.6888792436533
 20
636.9532581532
 30
0.0
 10
383.7961524411826
 20
636.9532582016093
 30
0.0
  0
SPLINE
  5
29E
330
1F
100
AcDbEntity
  8
Default
100
AcDbSpline
210
0.0
220
0.0
230
1.0
 70
     8
 71
     3
 72
     8
 73
     4
 74
     0
 42
0.0000000001
 43
0.0000000001
 40
0.0
 40
0.0
 40
0.0
 40
0.0
 40
1.0
 40
1.0
 40
1.0
 40
1.0
 10
383.7961524411826
 20
636.9532582016093
 30
0.0
 10
384.5343345728689
 20
636.9532582338821
 30
0.0
 10
385.0879711797018
 20
636.7687127251653
 30
0.0
 10
385.6416077946029
 20
636.3996216835268
 30
0.0
  0
SPLINE
  5
29F
330
1F
100
AcDbEntity
  8
Default
100
AcDbSpline
210
0.0
220
0.0
230
1.0
 70
     8
 71
     3
 72
     8
 73
     4
 74
     0
 42
0.0000000001
 43
0.0000000001
 40
0.0
 40
0.0
 40
0.0
 40
0.0
 40
1.0
 40
1.0
 40
1.0
 40
1.0
 10
385.6416077946029
 20
636.3996216835268
 30
0.0
 10
386.195244409504
 20
636.0305306418884
 30
0.0
 10
386.5643354995518
 20
635.4768940592601
 30
0.0
 10
386.841153831207
 20
634.7387119396763
 30
0.0
  0
SPLINE
  5
2A0
330
1F
100
AcDbEntity
  8
Default
100
AcDbSpline
210
0.0
220
0.0
230
1.0
 70
     8
 71
     3
 72
     8
 73
     4
 74
     0
 42
0.0000000001
 43
0.0000000001
 40
0.0
 40
0.0
 40
0.0
 40
0.0
 40
1.0
 40
1.0
 40
1.0
 40
1.0
 10
386.841153831207
 20
634.7387119396763
 30
0.0
 10
387.1179720902482
 20
635.6614396163864
 30
0.0
 10
387.6716086607742
 20
636.3073490058164
 30
0.0
 10
388.317518005829
 20
636.7687128663591
 30
0.0
  0
SPLINE
  5
2A1
330
1F
100
AcDbEntity
  8
Default
100
AcDbSpline
210
0.0
220
0.0
230
1.0
 70
     8
 71
     3
 72
     8
 73
     4
 74
     0
 42
0.0000000001
 43
0.0000000001
 40
0.0
 40
0.0
 40
0.0
 40
0.0
 40
1.0
 40
1.0
 40
1.0
 40
1.0
 10
388.317518005829
 20
636.7687128663591
 30
0.0
 10
389.0557001133106
 20
637.3223494973968
 30
0.0
 10
389.7938822369286
 20
637.5068950625912
 30
0.0
 10
390.8088826679972
 20
637.5068951069663
 30
0.0
  0
SPLINE
  5
2A2
330
1F
100
AcDbEntity
  8
Default
100
AcDbSpline
210
0.0
220
0.0
230
1.0
 70
     8
 71
     3
 72
     8
 73
     4
 74
     0
 42
0.0000000001
 43
0.0000000001
 40
0.0
 40
0.0
 40
0.0
 40
0.0
 40
1.0
 40
1.0
 40
1.0
 40
1.0
 10
390.8088826679972
 20
637.5068951069663
 30
0.0
 10
392.1007013984481
 20
637.5068951634439
 30
0.0
 10
393.207974616148
 20
637.0455313795493
 30
0.0
 10
394.1307023210968
 20
636.1228037552826
 30
0.0
  0
SPLINE
  5
2A3
330
1F
100
AcDbEntity
  8
Default
100
AcDbSpline
210
0.0
220
0.0
230
1.0
 70
     8
 71
     3
 72
     8
 73
     4
 74
     0
 42
0.0000000001
 43
0.0000000001
 40
0.0
 40
0.0
 40
0.0
 40
0.0
 40
1.0
 40
1.0
 40
1.0
 40
1.0
 10
394.1307023210968
 20
636.1228037552826
 30
0.0
 10
394.961157259585
 20
635.2000761269819
 30
0.0
 10
395.4225211402982
 20
634.0928029496231
 30
0.0
 10
395.422521204844
 20
632.6164386862506
 30
0.0
  0
SPLINE
  5
2A4
330
1F
100
AcDbEntity
  8
Default
100
AcDbSpline
210
0.0
220
0.0
230
1.0
 70
     8
 71
     3
 72
     8
 73
     4
 74
     0
 42
0.0000000001
 43
0.0000000001
 40
0.0
 40
0.0
 40
0.0
 40
0.0
 40
1.0
 40
1.0
 40
1.0
 40
1.0
 10
395.422521204844
 20
632.6164386862506
 30
0.0
 10
395.4225212693897
 20
631.1400744228781
 30
0.0
 10
394.9611574895293
 20
629.9405284387175
 30
0.0
 10
394.1307026317234
 20
629.0178007378026
 30
0.0
  0
SPLINE
  5
2A5
330
1F
100
AcDbEntity
  8
Default
100
AcDbSpline
210
0.0
220
0.0
230
1.0
 70
     8
 71
     3
 72
     8
 73
     4
 74
     0
 42
0.0000000001
 43
0.0000000001
 40
0.0
 40
0.0
 40
0.0
 40
0.0
 40
1.0
 40
1.0
 40
1.0
 40
1.0
 10
394.1307026317234
 20
629.0178007378026
 30
0.0
 10
393.2079750074568
 20
628.0950730328537
 30
0.0
 10
392.1007018300979
 20
627.6337091521406
 30
0.0
 10
390.7166103331863
 20
627.6337090916289
 30
0.0
  0
SPLINE
  5
2A6
330
1F
100
AcDbEntity
  8
Default
100
AcDbSpline
210
0.0
220
0.0
230
1.0
 70
     8
 71
     3
 72
     8
 73
     4
 74
     0
 42
0.0000000001
 43
0.0000000001
 40
0.0
 40
0.0
 40
0.0
 40
0.0
 40
1.0
 40
1.0
 40
1.0
 40
1.0
 10
390.7166103331863
 20
627.6337090916289
 30
0.0
 10
389.7016099021177
 20
627.6337090472538
 30
0.0
 10
388.8711549918683
 20
627.910527310329
 30
0.0
 10
388.2252456064723
 20
628.3718911143942
 30
0.0
  0
SPLINE
  5
2A7
330
1F
100
AcDbEntity
  8
Default
100
AcDbSpline
210
0.0
220
0.0
230
1.0
 70
     8
 71
     3
 72
     8
 73
     4
 74
     0
 42
0.0000000001
 43
0.0000000001
 40
0.0
 40
0.0
 40
0.0
 40
0.0
 40
1.0
 40
1.0
 40
1.0
 40
1.0
 10
388.2252456064723
 20
628.3718911143942
 30
0.0
 10
387.5793362210763
 20
628.8332549184593
 30
0.0
 10
387.1179723564995
 20
629.571437029975
 30
0.0
 10
386.8411540208102
 20
630.4018919160196
 30
0.0
  0
SPLINE
  5
2A8
330
1F
100
AcDbEntity
  8
Default
100
AcDbSpline
210
0.0
220
0.0
230
1.0
 70
     8
 71
     3
 72
     8
 73
     4
 74
     0
 42
0.0000000001
 43
0.0000000001
 40
0.0
 40
0.0
 40
0.0
 40
0.0
 40
1.0
 40
1.0
 40
1.0
 40
1.0
 10
383.7038799772802
 20
630.0328007130167
 30
0.0
 10
384.4420621089664
 20
630.0328007452896
 30
0.0
 10
384.9956986956288
 20
630.3096190688766
 30
0.0
 10
385.4570625117962
 20
630.6787101548903
 30
0.0
  0
SPLINE
  5
2A9
330
1F
100
AcDbEntity
  8
Default
100
AcDbSpline
210
0.0
220
0.0
230
1.0
 70
     8
 71
     3
 72
     8
 73
     4
 74
     0
 42
0.0000000001
 43
0.0000000001
 40
0.0
 40
0.0
 40
0.0
 40
0.0
 40
1.0
 40
1.0
 40
1.0
 40
1.0
 10
385.4570625117962
 20
630.6787101548903
 30
0.0
 10
385.9184263239295
 20
631.1400740073647
 30
0.0
 10
386.1029718286123
 20
631.7859833806584
 30
0.0
 10
386.1029717923053
 20
632.6164382788054
 30
0.0
  0
SPLINE
  5
2AA
330
1F
100
AcDbEntity
  8
Default
100
AcDbSpline
210
0.0
220
0.0
230
1.0
 70
     8
 71
     3
 72
     8
 73
     4
 74
     0
 42
0.0000000001
 43
0.0000000001
 40
0.0
 40
0.0
 40
0.0
 40
0.0
 40
1.0
 40
1.0
 40
1.0
 40
1.0
 10
386.1029717923053
 20
632.6164382788054
 30
0.0
 10
386.1029717600324
 20
633.3546204104916
 30
0.0
 10
385.9184261988721
 20
634.0005297676488
 30
0.0
 10
385.4570623463976
 20
634.4618935797822
 30
0.0
  0
SPLINE
  5
2AB
330
1F
100
AcDbEntity
  8
Default
100
AcDbSpline
210
0.0
220
0.0
230
1.0
 70
     8
 71
     3
 72
     8
 73
     4
 74
     0
 42
0.0000000001
 43
0.0000000001
 40
0.0
 40
0.0
 40
0.0
 40
0.0
 40
1.0
 40
1.0
 40
1.0
 40
1.0
 10
385.4570623463976
 20
634.4618935797822
 30
0.0
 10
384.9956984939232
 20
634.9232573919155
 30
0.0
 10
384.4420618870903
 20
635.1078029006325
 30
0.0
 10
383.7961525218648
 20
635.1078028723937
 30
0.0
  0
SPLINE
  5
2AC
330
1F
100
AcDbEntity
  8
Default
100
AcDbSpline
210
0.0
220
0.0
230
1.0
 70
     8
 71
     3
 72
     8
 73
     4
 74
     0
 42
0.0000000001
 43
0.0000000001
 40
0.0
 40
0.0
 40
0.0
 40
0.0
 40
1.0
 40
1.0
 40
1.0
 40
1.0
 10
383.7961525218648
 20
635.1078028723937
 30
0.0
 10
383.1502431566394
 20
635.1078028441549
 30
0.0
 10
382.5966065659429
 20
634.9232572870287
 30
0.0
 10
382.1352427578437
 20
634.3696206680934
 30
0.0
  0
SPLINE
  5
2AD
330
1F
100
AcDbEntity
  8
Default
100
AcDbSpline
210
0.0
220
0.0
230
1.0
 70
     8
 71
     3
 72
     8
 73
     4
 74
     0
 42
0.0000000001
 43
0.0000000001
 40
0.0
 40
0.0
 40
0.0
 40
0.0
 40
1.0
 40
1.0
 40
1.0
 40
1.0
 10
382.1352427578437
 20
634.3696206680934
 30
0.0
 10
381.6738789457104
 20
633.908256815619
 30
0.0
 10
381.3970606705327
 20
633.354620204752
 30
0.0
 10
381.3970607028056
 20
632.6164380730658
 30
0.0
  0
SPLINE
  5
2AE
330
1F
100
AcDbEntity
  8
Default
100
AcDbSpline
210
0.0
220
0.0
230
1.0
 70
     8
 71
     3
 72
     8
 73
     4
 74
     0
 42
0.0000000001
 43
0.0000000001
 40
0.0
 40
0.0
 40
0.0
 40
0.0
 40
1.0
 40
1.0
 40
1.0
 40
1.0
 10
381.3970607028056
 20
632.6164380730658
 30
0.0
 10
381.3970607391126
 20
631.7859831749188
 30
0.0
 10
381.6738790626996
 20
631.2323465882564
 30
0.0
 10
382.0429701487133
 20
630.7709827720889
 30
0.0
  0
SPLINE
  5
2AF
330
1F
100
AcDbEntity
  8
Default
100
AcDbSpline
210
0.0
220
0.0
230
1.0
 70
     8
 71
     3
 72
     8
 73
     4
 74
     0
 42
0.0000000001
 43
0.0000000001
 40
0.0
 40
0.0
 40
0.0
 40
0.0
 40
1.0
 40
1.0
 40
1.0
 40
1.0
 10
382.0429701487133
 20
630.7709827720889
 30
0.0
 10
382.5043340011877
 20
630.3096189599556
 30
0.0
 10
383.0579706120547
 20
630.032800684778
 30
0.0
 10
383.7038799772802
 20
630.0328007130167
 30
0.0
  0
SPLINE
  5
2B0
330
1F
100
AcDbEntity
  8
Default
100
AcDbSpline
210
0.0
220
0.0
230
1.0
 70
     8
 71
     3
 72
     8
 73
     4
 74
     0
 42
0.0000000001
 43
0.0000000001
 40
0.0
 40
0.0
 40
0.0
 40
0.0
 40
1.0
 40
1.0
 40
1.0
 40
1.0
 10
390.716610252504
 20
629.4791644208445
 30
0.0
 10
391.2702468512687
 20
629.4791644450493
 30
0.0
 10
391.8238834459992
 20
629.5714372357146
 30
0.0
 10
392.2852472662008
 20
629.8482555552674
 30
0.0
  0
SPLINE
  5
2B1
330
1F
100
AcDbEntity
  8
Default
100
AcDbSpline
210
0.0
220
0.0
230
1.0
 70
     8
 71
     3
 72
     8
 73
     4
 74
     0
 42
0.0000000001
 43
0.0000000001
 40
0.0
 40
0.0
 40
0.0
 40
0.0
 40
1.0
 40
1.0
 40
1.0
 40
1.0
 10
392.2852472662008
 20
629.8482555552674
 30
0.0
 10
392.8388838568973
 20
630.0328011123937
 30
0.0
 10
393.2079749025698
 20
630.494164960834
 30
0.0
 10
393.4847931817816
 20
630.9555288052403
 30
0.0
  0
SPLINE
  5
2B2
330
1F
100
AcDbEntity
  8
Default
100
AcDbSpline
210
0.0
220
0.0
230
1.0
 70
     8
 71
     3
 72
     8
 73
     4
 74
     0
 42
0.0000000001
 43
0.0000000001
 40
0.0
 40
0.0
 40
0.0
 40
0.0
 40
1.0
 40
1.0
 40
1.0
 40
1.0
 10
393.4847931817816
 20
630.9555288052403
 30
0.0
 10
393.7616114569593
 20
631.5091654161073
 30
0.0
 10
393.8538842032495
 20
631.9705292524453
 30
0.0
 10
393.8538841750107
 20
632.6164386176707
 30
0.0
  0
SPLINE
  5
2B3
330
1F
100
AcDbEntity
  8
Default
100
AcDbSpline
210
0.0
220
0.0
230
1.0
 70
     8
 71
     3
 72
     8
 73
     4
 74
     0
 42
0.0000000001
 43
0.0000000001
 40
0.0
 40
0.0
 40
0.0
 40
0.0
 40
1.0
 40
1.0
 40
1.0
 40
1.0
 10
393.8538841750107
 20
632.6164386176707
 30
0.0
 10
393.8538841346696
 20
633.5391662822785
 30
0.0
 10
393.5770658030144
 20
634.2773484018625
 30
0.0
 10
393.0234291800451
 20
634.8309849764224
 30
0.0
  0
SPLINE
  5
2B4
330
1F
100
AcDbEntity
  8
Default
100
AcDbSpline
210
0.0
220
0.0
230
1.0
 70
     8
 71
     3
 72
     8
 73
     4
 74
     0
 42
0.0000000001
 43
0.0000000001
 40
0.0
 40
0.0
 40
0.0
 40
0.0
 40
1.0
 40
1.0
 40
1.0
 40
1.0
 10
393.0234291800451
 20
634.8309849764224
 30
0.0
 10
392.4697925570757
 20
635.3846215509824
 30
0.0
 10
391.7316104132871
 20
635.6614398180919
 30
0.0
 10
390.8088827486794
 20
635.6614397777507
 30
0.0
  0
SPLINE
  5
2B5
330
1F
100
AcDbEntity
  8
Default
100
AcDbSpline
210
0.0
220
0.0
230
1.0
 70
     8
 71
     3
 72
     8
 73
     4
 74
     0
 42
0.0000000001
 43
0.0000000001
 40
0.0
 40
0.0
 40
0.0
 40
0.0
 40
1.0
 40
1.0
 40
1.0
 40
1.0
 10
390.8088827486794
 20
635.6614397777507
 30
0.0
 10
389.8861550840716
 20
635.6614397374096
 30
0.0
 10
389.1479729644877
 20
635.3846214057544
 30
0.0
 10
388.5943363899277
 20
634.8309847827852
 30
0.0
  0
SPLINE
  5
2B6
330
1F
100
AcDbEntity
  8
Default
100
AcDbSpline
210
0.0
220
0.0
230
1.0
 70
     8
 71
     3
 72
     8
 73
     4
 74
     0
 42
0.0000000001
 43
0.0000000001
 40
0.0
 40
0.0
 40
0.0
 40
0.0
 40
1.0
 40
1.0
 40
1.0
 40
1.0
 10
388.5943363899277
 20
634.8309847827852
 30
0.0
 10
387.948427052941
 20
634.1850753893209
 30
0.0
 10
387.6716087858316
 20
633.4468932455322
 30
0.0
 10
387.6716088261727
 20
632.5241655809244
 30
0.0
  0
SPLINE
  5
2B7
330
1F
100
AcDbEntity
  8
Default
100
AcDbSpline
210
0.0
220
0.0
230
1.0
 70
     8
 71
     3
 72
     8
 73
     4
 74
     0
 42
0.0000000001
 43
0.0000000001
 40
0.0
 40
0.0
 40
0.0
 40
0.0
 40
1.0
 40
1.0
 40
1.0
 40
1.0
 10
387.6716088261727
 20
632.5241655809244
 30
0.0
 10
387.6716088665138
 20
631.6014379163167
 30
0.0
 10
387.948427198169
 20
630.8632557967329
 30
0.0
 10
388.5943365875991
 20
630.309619226207
 30
0.0
  0
SPLINE
  5
2B8
330
1F
100
AcDbEntity
  8
Default
100
AcDbSpline
210
0.0
220
0.0
230
1.0
 70
     8
 71
     3
 72
     8
 73
     4
 74
     0
 42
0.0000000001
 43
0.0000000001
 40
0.0
 40
0.0
 40
0.0
 40
0.0
 40
1.0
 40
1.0
 40
1.0
 40
1.0
 10
388.5943365875991
 20
630.309619226207
 30
0.0
 10
389.1479732105685
 20
629.755982651647
 30
0.0
 10
389.886155354357
 20
629.4791643845375
 30
0.0
 10
390.716610252504
 20
629.4791644208445
 30
0.0
  0
SPLINE
  5
2B9
330
1F
100
AcDbEntity
  8
Default
100
AcDbSpline
210
0.0
220
0.0
230
1.0
 70
     8
 71
     3
 72
     8
 73
     4
 74
     0
 42
0.0000000001
 43
0.0000000001
 40
0.0
 40
0.0
 40
0.0
 40
0.0
 40
1.0
 40
1.0
 40
1.0
 40
1.0
 10
387.6716085236143
 20
639.4446230654829
 30
0.0
 10
385.8261531943987
 20
639.4446229848007
 30
0.0
 10
384.3497889229581
 20
639.6291684531765
 30
0.0
 10
383.2425157092923
 20
639.9982594706103
 30
0.0
  0
SPLINE
  5
2BA
330
1F
100
AcDbEntity
  8
Default
100
AcDbSpline
210
0.0
220
0.0
230
1.0
 70
     8
 71
     3
 72
     8
 73
     4
 74
     0
 42
0.0000000001
 43
0.0000000001
 40
0.0
 40
0.0
 40
0.0
 40
0.0
 40
1.0
 40
1.0
 40
1.0
 40
1.0
 10
383.2425157092923
 20
639.9982594706103
 30
0.0
 10
382.1352424956265
 20
640.367350488044
 30
0.0
 10
381.3047875732748
 20
640.9209870505018
 30
0.0
 10
380.7511509422373
 20
641.6591691579832
 30
0.0
  0
SPLINE
  5
2BB
330
1F
100
AcDbEntity
  8
Default
100
AcDbSpline
210
0.0
220
0.0
230
1.0
 70
     8
 71
     3
 72
     8
 73
     4
 74
     0
 42
0.0000000001
 43
0.0000000001
 40
0.0
 40
0.0
 40
0.0
 40
0.0
 40
1.0
 40
1.0
 40
1.0
 40
1.0
 10
380.7511509422373
 20
641.6591691579832
 30
0.0
 10
380.1052415447389
 20
642.3973512614307
 30
0.0
 10
379.8284232050155
 20
643.3200789139362
 30
0.0
 10
379.8284231566062
 20
644.4273521114656
 30
0.0
  0
SPLINE
  5
2BC
330
1F
100
AcDbEntity
  8
Default
100
AcDbSpline
210
0.0
220
0.0
230
1.0
 70
     8
 71
     3
 72
     8
 73
     4
 74
     0
 42
0.0000000001
 43
0.0000000001
 40
0.0
 40
0.0
 40
0.0
 40
0.0
 40
1.0
 40
1.0
 40
1.0
 40
1.0
 10
379.8284231566062
 20
644.4273521114656
 30
0.0
 10
379.8284231202991
 20
645.2578070096125
 30
0.0
 10
380.0129686209478
 20
645.995989149367
 30
0.0
 10
380.2897868920914
 20
646.6418985266948
 30
0.0
  0
SPLINE
  5
2BD
330
1F
100
AcDbEntity
  8
Default
100
AcDbSpline
210
0.0
220
0.0
230
1.0
 70
     8
 71
     3
 72
     8
 73
     4
 74
     0
 42
0.0000000001
 43
0.0000000001
 40
0.0
 40
0.0
 40
0.0
 40
0.0
 40
1.0
 40
1.0
 40
1.0
 40
1.0
 10
380.2897868920914
 20
646.6418985266948
 30
0.0
 10
380.6588779296957
 20
647.2878079080567
 30
0.0
 10
381.1202417418291
 20
647.7491717605311
 30
0.0
 10
381.7661510909181
 20
648.118262854613
 30
0.0
  0
SPLINE
  5
2BE
330
1F
100
AcDbEntity
  8
Default
100
AcDbSpline
210
0.0
220
0.0
230
1.0
 70
     8
 71
     3
 72
     8
 73
     4
 74
     0
 42
0.0000000001
 43
0.0000000001
 40
0.0
 40
0.0
 40
0.0
 40
0.0
 40
1.0
 40
1.0
 40
1.0
 40
1.0
 10
381.7661510909181
 20
648.118262854613
 30
0.0
 10
382.4120604400071
 20
648.4873539486949
 30
0.0
 10
383.1502425555569
 20
648.8564450468109
 30
0.0
 10
384.0729702120964
 20
649.0409906200736
 30
0.0
  0
SPLINE
  5
2BF
330
1F
100
AcDbEntity
  8
Default
100
AcDbSpline
210
0.0
220
0.0
230
1.0
 70
     8
 71
     3
 72
     8
 73
     4
 74
     0
 42
0.0000000001
 43
0.0000000001
 40
0.0
 40
0.0
 40
0.0
 40
0.0
 40
1.0
 40
1.0
 40
1.0
 40
1.0
 10
384.0729702120964
 20
649.0409906200736
 30
0.0
 10
384.9034250981412
 20
649.317808955763
 30
0.0
 10
386.1029710580971
 20
649.4100817746671
 30
0.0
 10
387.6716080879304
 20
649.410081843247
 30
0.0
  0
SPLINE
  5
2C0
330
1F
100
AcDbEntity
  8
Default
100
AcDbSpline
210
0.0
220
0.0
230
1.0
 70
     8
 71
     3
 72
     8
 73
     4
 74
     0
 42
0.0000000001
 43
0.0000000001
 40
0.0
 40
0.0
 40
0.0
 40
0.0
 40
1.0
 40
1.0
 40
1.0
 40
1.0
 10
387.6716080879304
 20
649.410081843247
 30
0.0
 10
389.4247906506852
 20
649.4100819198951
 30
0.0
 10
390.9011549221258
 20
649.2255364515194
 30
0.0
 10
392.0084281357916
 20
648.8564454340856
 30
0.0
  0
SPLINE
  5
2C1
330
1F
100
AcDbEntity
  8
Default
100
AcDbSpline
210
0.0
220
0.0
230
1.0
 70
     8
 71
     3
 72
     8
 73
     4
 74
     0
 42
0.0000000001
 43
0.0000000001
 40
0.0
 40
0.0
 40
0.0
 40
0.0
 40
1.0
 40
1.0
 40
1.0
 40
1.0
 10
392.0084281357916
 20
648.8564454340856
 30
0.0
 10
393.1157013494574
 20
648.4873544166518
 30
0.0
 10
393.9461562718091
 20
647.9337178541941
 30
0.0
 10
394.5920656693074
 20
647.1955357507467
 30
0.0
  0
SPLINE
  5
2C2
330
1F
100
AcDbEntity
  8
Default
100
AcDbSpline
210
0.0
220
0.0
230
1.0
 70
     8
 71
     3
 72
     8
 73
     4
 74
     0
 42
0.0000000001
 43
0.0000000001
 40
0.0
 40
0.0
 40
0.0
 40
0.0
 40
1.0
 40
1.0
 40
1.0
 40
1.0
 10
394.5920656693074
 20
647.1955357507467
 30
0.0
 10
395.145702300345
 20
646.4573536432652
 30
0.0
 10
395.4225206400685
 20
645.5346259907597
 30
0.0
 10
395.4225206884778
 20
644.4273527932303
 30
0.0
  0
SPLINE
  5
2C3
330
1F
100
AcDbEntity
  8
Default
100
AcDbSpline
210
0.0
220
0.0
230
1.0
 70
     8
 71
     3
 72
     8
 73
     4
 74
     0
 42
0.0000000001
 43
0.0000000001
 40
0.0
 40
0.0
 40
0.0
 40
0.0
 40
1.0
 40
1.0
 40
1.0
 40
1.0
 10
395.4225206884778
 20
644.4273527932303
 30
0.0
 10
395.4225207530235
 20
642.9509885298578
 30
0.0
 10
394.961156969129
 20
641.8437153121579
 30
0.0
 10
393.8538838119407
 20
640.9209875991409
 30
0.0
  0
SPLINE
  5
2C4
330
1F
100
AcDbEntity
  8
Default
100
AcDbSpline
210
0.0
220
0.0
230
1.0
 70
     8
 71
     3
 72
     8
 73
     4
 74
     0
 42
0.0000000001
 43
0.0000000001
 40
0.0
 40
0.0
 40
0.0
 40
0.0
 40
1.0
 40
1.0
 40
1.0
 40
1.0
 10
393.8538838119407
 20
640.9209875991409
 30
0.0
 10
392.5620651218309
 20
639.9982598780555
 30
0.0
 10
390.5320642838985
 20
639.4446231905404
 30
0.0
 10
387.6716085236143
 20
639.4446230654829
 30
0.0
  0
SPLINE
  5
2C5
330
1F
100
AcDbEntity
  8
Default
100
AcDbSpline
210
0.0
220
0.0
230
1.0
 70
     8
 71
     3
 72
     8
 73
     4
 74
     0
 42
0.0000000001
 43
0.0000000001
 40
0.0
 40
0.0
 40
0.0
 40
0.0
 40
1.0
 40
1.0
 40
1.0
 40
1.0
 10
387.6716084429322
 20
641.2900783946984
 30
0.0
 10
390.1629731373732
 20
641.2900785036195
 30
0.0
 10
391.8238829215648
 20
641.5668968756158
 30
0.0
 10
392.6543377914731
 20
642.2128062771483
 30
0.0
  0
SPLINE
  5
2C6
330
1F
100
AcDbEntity
  8
Default
100
AcDbSpline
210
0.0
220
0.0
230
1.0
 70
     8
 71
     3
 72
     8
 73
     4
 74
     0
 42
0.0000000001
 43
0.0000000001
 40
0.0
 40
0.0
 40
0.0
 40
0.0
 40
1.0
 40
1.0
 40
1.0
 40
1.0
 10
392.6543377914731
 20
642.2128062771483
 30
0.0
 10
393.4847926654155
 20
642.76644291222
 30
0.0
 10
393.8538836989856
 20
643.5046250600426
 30
0.0
 10
393.8538836586445
 20
644.4273527246504
 30
0.0
  0
SPLINE
  5
2C7
330
1F
100
AcDbEntity
  8
Default
100
AcDbSpline
210
0.0
220
0.0
230
1.0
 70
     8
 71
     3
 72
     8
 73
     4
 74
     0
 42
0.0000000001
 43
0.0000000001
 40
0.0
 40
0.0
 40
0.0
 40
0.0
 40
1.0
 40
1.0
 40
1.0
 40
1.0
 10
393.8538836586445
 20
644.4273527246504
 30
0.0
 10
393.8538836183034
 20
645.3500803892582
 30
0.0
 10
393.4847925201875
 20
646.0882625048081
 30
0.0
 10
392.6543375978358
 20
646.6418990672657
 30
0.0
  0
SPLINE
  5
2C8
330
1F
100
AcDbEntity
  8
Default
100
AcDbSpline
210
0.0
220
0.0
230
1.0
 70
     8
 71
     3
 72
     8
 73
     4
 74
     0
 42
0.0000000001
 43
0.0000000001
 40
0.0
 40
0.0
 40
0.0
 40
0.0
 40
1.0
 40
1.0
 40
1.0
 40
1.0
 10
392.6543375978358
 20
646.6418990672657
 30
0.0
 10
391.82388267145
 20
647.2878083961841
 30
0.0
 10
390.1629728630536
 20
647.5646266229525
 30
0.0
 10
387.6716081686126
 20
647.5646265140314
 30
0.0
  0
SPLINE
  5
2C9
330
1F
100
AcDbEntity
  8
Default
100
AcDbSpline
210
0.0
220
0.0
230
1.0
 70
     8
 71
     3
 72
     8
 73
     4
 74
     0
 42
0.0000000001
 43
0.0000000001
 40
0.0
 40
0.0
 40
0.0
 40
0.0
 40
1.0
 40
1.0
 40
1.0
 40
1.0
 10
387.6716081686126
 20
647.5646265140314
 30
0.0
 10
385.0879707077107
 20
647.5646264010763
 30
0.0
 10
383.4270609235191
 20
647.28780802908
 30
0.0
 10
382.5966060536109
 20
646.6418986275477
 30
0.0
  0
SPLINE
  5
2CA
330
1F
100
AcDbEntity
  8
Default
100
AcDbSpline
210
0.0
220
0.0
230
1.0
 70
     8
 71
     3
 72
     8
 73
     4
 74
     0
 42
0.0000000001
 43
0.0000000001
 40
0.0
 40
0.0
 40
0.0
 40
0.0
 40
1.0
 40
1.0
 40
1.0
 40
1.0
 10
382.5966060536109
 20
646.6418986275477
 30
0.0
 10
381.8584239461293
 20
646.08826199651
 30
0.0
 10
381.3970601460983
 20
645.3500798446532
 30
0.0
 10
381.3970601864394
 20
644.4273521800454
 30
0.0
  0
SPLINE
  5
2CB
330
1F
100
AcDbEntity
  8
Default
100
AcDbSpline
210
0.0
220
0.0
230
1.0
 70
     8
 71
     3
 72
     8
 73
     4
 74
     0
 42
0.0000000001
 43
0.0000000001
 40
0.0
 40
0.0
 40
0.0
 40
0.0
 40
1.0
 40
1.0
 40
1.0
 40
1.0
 10
381.3970601864394
 20
644.4273521800454
 30
0.0
 10
381.3970602267805
 20
643.5046245154376
 30
0.0
 10
381.7661513248966
 20
642.7664423998879
 30
0.0
 10
382.5043334767533
 20
642.3050785998569
 30
0.0
  0
SPLINE
  5
2CC
330
1F
100
AcDbEntity
  8
Default
100
AcDbSpline
210
0.0
220
0.0
230
1.0
 70
     8
 71
     3
 72
     8
 73
     4
 74
     0
 42
0.0000000001
 43
0.0000000001
 40
0.0
 40
0.0
 40
0.0
 40
0.0
 40
1.0
 40
1.0
 40
1.0
 40
1.0
 10
382.5043334767533
 20
642.3050785998569
 30
0.0
 10
383.4270611695999
 20
641.6591692749724
 30
0.0
 10
385.1802437484911
 20
641.2900782857774
 30
0.0
 10
387.6716084429322
 20
641.2900783946984
 30
0.0
  0
SPLINE
  5
2CD
330
1F
100
AcDbEntity
  8
Default
100
AcDbSpline
210
0.0
220
0.0
230
1.0
 70
     8
 71
     3
 72
     8
 73
     4
 74
     0
 42
0.0000000001
 43
0.0000000001
 40
0.0
 40
0.0
 40
0.0
 40
0.0
 40
1.0
 40
1.0
 40
1.0
 40
1.0
 10
387.6716080072482
 20
651.2555371724626
 30
0.0
 10
385.8261526780325
 20
651.2555370917804
 30
0.0
 10
384.3497884065919
 20
651.4400825601562
 30
0.0
 10
383.2425151929261
 20
651.80917357759
 30
0.0
  0
SPLINE
  5
2CE
330
1F
100
AcDbEntity
  8
Default
100
AcDbSpline
210
0.0
220
0.0
230
1.0
 70
     8
 71
     3
 72
     8
 73
     4
 74
     0
 42
0.0000000001
 43
0.0000000001
 40
0.0
 40
0.0
 40
0.0
 40
0.0
 40
1.0
 40
1.0
 40
1.0
 40
1.0
 10
383.2425151929261
 20
651.80917357759
 30
0.0
 10
382.1352419792603
 20
652.1782645950237
 30
0.0
 10
381.3047870569087
 20
652.7319011574814
 30
0.0
 10
380.7511504258711
 20
653.4700832649629
 30
0.0
  0
SPLINE
  5
2CF
330
1F
100
AcDbEntity
  8
Default
100
AcDbSpline
210
0.0
220
0.0
230
1.0
 70
     8
 71
     3
 72
     8
 73
     4
 74
     0
 42
0.0000000001
 43
0.0000000001
 40
0.0
 40
0.0
 40
0.0
 40
0.0
 40
1.0
 40
1.0
 40
1.0
 40
1.0
 10
380.7511504258711
 20
653.4700832649629
 30
0.0
 10
380.1052410283727
 20
654.2082653684104
 30
0.0
 10
379.8284226886493
 20
655.1309930209159
 30
0.0
 10
379.8284226402399
 20
656.2382662184452
 30
0.0
  0
SPLINE
  5
2D0
330
1F
100
AcDbEntity
  8
Default
100
AcDbSpline
210
0.0
220
0.0
230
1.0
 70
     8
 71
     3
 72
     8
 73
     4
 74
     0
 42
0.0000000001
 43
0.0000000001
 40
0.0
 40
0.0
 40
0.0
 40
0.0
 40
1.0
 40
1.0
 40
1.0
 40
1.0
 10
379.8284226402399
 20
656.2382662184452
 30
0.0
 10
379.8284226039329
 20
657.0687211165922
 30
0.0
 10
380.0129681045816
 20
657.8069032563467
 30
0.0
 10
380.2897863757252
 20
658.4528126336744
 30
0.0
  0
SPLINE
  5
2D1
330
1F
100
AcDbEntity
  8
Default
100
AcDbSpline
210
0.0
220
0.0
230
1.0
 70
     8
 71
     3
 72
     8
 73
     4
 74
     0
 42
0.0000000001
 43
0.0000000001
 40
0.0
 40
0.0
 40
0.0
 40
0.0
 40
1.0
 40
1.0
 40
1.0
 40
1.0
 10
380.2897863757252
 20
658.4528126336744
 30
0.0
 10
380.6588774133295
 20
659.0987220150364
 30
0.0
 10
381.1202412254628
 20
659.5600858675108
 30
0.0
 10
381.7661505745519
 20
659.9291769615927
 30
0.0
  0
SPLINE
  5
2D2
330
1F
100
AcDbEntity
  8
Default
100
AcDbSpline
210
0.0
220
0.0
230
1.0
 70
     8
 71
     3
 72
     8
 73
     4
 74
     0
 42
0.0000000001
 43
0.0000000001
 40
0.0
 40
0.0
 40
0.0
 40
0.0
 40
1.0
 40
1.0
 40
1.0
 40
1.0
 10
381.7661505745519
 20
659.9291769615927
 30
0.0
 10
382.4120599236409
 20
660.2982680556746
 30
0.0
 10
383.1502420391907
 20
660.6673591537906
 30
0.0
 10
384.0729696957303
 20
660.8519047270532
 30
0.0
  0
SPLINE
  5
2D3
330
1F
100
AcDbEntity
  8
Default
100
AcDbSpline
210
0.0
220
0.0
230
1.0
 70
     8
 71
     3
 72
     8
 73
     4
 74
     0
 42
0.0000000001
 43
0.0000000001
 40
0.0
 40
0.0
 40
0.0
 40
0.0
 40
1.0
 40
1.0
 40
1.0
 40
1.0
 10
384.0729696957303
 20
660.8519047270532
 30
0.0
 10
384.9034245817749
 20
661.1287230627427
 30
0.0
 10
386.1029705417309
 20
661.2209958816468
 30
0.0
 10
387.6716075715642
 20
661.2209959502267
 30
0.0
  0
SPLINE
  5
2D4
330
1F
100
AcDbEntity
  8
Default
100
AcDbSpline
210
0.0
220
0.0
230
1.0
 70
     8
 71
     3
 72
     8
 73
     4
 74
     0
 42
0.0000000001
 43
0.0000000001
 40
0.0
 40
0.0
 40
0.0
 40
0.0
 40
1.0
 40
1.0
 40
1.0
 40
1.0
 10
387.6716075715642
 20
661.2209959502267
 30
0.0
 10
389.424790134319
 20
661.2209960268748
 30
0.0
 10
390.9011544057596
 20
661.036450558499
 30
0.0
 10
392.0084276194254
 20
660.6673595410653
 30
0.0
  0
SPLINE
  5
2D5
330
1F
100
AcDbEntity
  8
Default
100
AcDbSpline
210
0.0
220
0.0
230
1.0
 70
     8
 71
     3
 72
     8
 73
     4
 74
     0
 42
0.0000000001
 43
0.0000000001
 40
0.0
 40
0.0
 40
0.0
 40
0.0
 40
1.0
 40
1.0
 40
1.0
 40
1.0
 10
392.0084276194254
 20
660.6673595410653
 30
0.0
 10
393.1157008330912
 20
660.2982685236315
 30
0.0
 10
393.9461557554429
 20
659.7446319611738
 30
0.0
 10
394.5920651529412
 20
659.0064498577264
 30
0.0
  0
SPLINE
  5
2D6
330
1F
100
AcDbEntity
  8
Default
100
AcDbSpline
210
0.0
220
0.0
230
1.0
 70
     8
 71
     3
 72
     8
 73
     4
 74
     0
 42
0.0000000001
 43
0.0000000001
 40
0.0
 40
0.0
 40
0.0
 40
0.0
 40
1.0
 40
1.0
 40
1.0
 40
1.0
 10
394.5920651529412
 20
659.0064498577264
 30
0.0
 10
395.1457017839788
 20
658.2682677502448
 30
0.0
 10
395.4225201237022
 20
657.3455400977393
 30
0.0
 10
395.4225201721115
 20
656.23826690021
 30
0.0
  0
SPLINE
  5
2D7
330
1F
100
AcDbEntity
  8
Default
100
AcDbSpline
210
0.0
220
0.0
230
1.0
 70
     8
 71
     3
 72
     8
 73
     4
 74
     0
 42
0.0000000001
 43
0.0000000001
 40
0.0
 40
0.0
 40
0.0
 40
0.0
 40
1.0
 40
1.0
 40
1.0
 40
1.0
 10
395.4225201721115
 20
656.23826690021
 30
0.0
 10
395.4225202366574
 20
654.7619026368375
 30
0.0
 10
394.9611564527628
 20
653.6546294191376
 30
0.0
 10
393.8538832955745
 20
652.7319017061204
 30
0.0
  0
SPLINE
  5
2D8
330
1F
100
AcDbEntity
  8
Default
100
AcDbSpline
210
0.0
220
0.0
230
1.0
 70
     8
 71
     3
 72
     8
 73
     4
 74
     0
 42
0.0000000001
 43
0.0000000001
 40
0.0
 40
0.0
 40
0.0
 40
0.0
 40
1.0
 40
1.0
 40
1.0
 40
1.0
 10
393.8538832955745
 20
652.7319017061204
 30
0.0
 10
392.5620646054647
 20
651.8091739850352
 30
0.0
 10
390.5320637675323
 20
651.25553729752
 30
0.0
 10
387.6716080072482
 20
651.2555371724626
 30
0.0
  0
SPLINE
  5
2D9
330
1F
100
AcDbEntity
  8
Default
100
AcDbSpline
210
0.0
220
0.0
230
1.0
 70
     8
 71
     3
 72
     8
 73
     4
 74
     0
 42
0.0000000001
 43
0.0000000001
 40
0.0
 40
0.0
 40
0.0
 40
0.0
 40
1.0
 40
1.0
 40
1.0
 40
1.0
 10
387.671607926566
 20
653.1009925016781
 30
0.0
 10
390.162972621007
 20
653.1009926105992
 30
0.0
 10
391.8238824051986
 20
653.3778109825955
 30
0.0
 10
392.6543372751069
 20
654.023720384128
 30
0.0
  0
SPLINE
  5
2DA
330
1F
100
AcDbEntity
  8
Default
100
AcDbSpline
210
0.0
220
0.0
230
1.0
 70
     8
 71
     3
 72
     8
 73
     4
 74
     0
 42
0.0000000001
 43
0.0000000001
 40
0.0
 40
0.0
 40
0.0
 40
0.0
 40
1.0
 40
1.0
 40
1.0
 40
1.0
 10
392.6543372751069
 20
654.023720384128
 30
0.0
 10
393.4847921490492
 20
654.5773570191997
 30
0.0
 10
393.8538831826194
 20
655.3155391670223
 30
0.0
 10
393.8538831422783
 20
656.2382668316301
 30
0.0
  0
SPLINE
  5
2DB
330
1F
100
AcDbEntity
  8
Default
100
AcDbSpline
210
0.0
220
0.0
230
1.0
 70
     8
 71
     3
 72
     8
 73
     4
 74
     0
 42
0.0000000001
 43
0.0000000001
 40
0.0
 40
0.0
 40
0.0
 40
0.0
 40
1.0
 40
1.0
 40
1.0
 40
1.0
 10
393.8538831422783
 20
656.2382668316301
 30
0.0
 10
393.8538831019372
 20
657.1609944962379
 30
0.0
 10
393.4847920038212
 20
657.8991766117878
 30
0.0
 10
392.6543370814695
 20
658.4528131742453
 30
0.0
  0
SPLINE
  5
2DC
330
1F
100
AcDbEntity
  8
Default
100
AcDbSpline
210
0.0
220
0.0
230
1.0
 70
     8
 71
     3
 72
     8
 73
     4
 74
     0
 42
0.0000000001
 43
0.0000000001
 40
0.0
 40
0.0
 40
0.0
 40
0.0
 40
1.0
 40
1.0
 40
1.0
 40
1.0
 10
392.6543370814695
 20
658.4528131742453
 30
0.0
 10
391.8238821550838
 20
659.0987225031638
 30
0.0
 10
390.1629723466874
 20
659.3755407299321
 30
0.0
 10
387.6716076522464
 20
659.375540621011
 30
0.0
  0
SPLINE
  5
2DD
330
1F
100
AcDbEntity
  8
Default
100
AcDbSpline
210
0.0
220
0.0
230
1.0
 70
     8
 71
     3
 72
     8
 73
     4
 74
     0
 42
0.0000000001
 43
0.0000000001
 40
0.0
 40
0.0
 40
0.0
 40
0.0
 40
1.0
 40
1.0
 40
1.0
 40
1.0
 10
387.6716076522464
 20
659.375540621011
 30
0.0
 10
385.0879701913445
 20
659.375540508056
 30
0.0
 10
383.4270604071529
 20
659.0987221360597
 30
0.0
 10
382.5966055372446
 20
658.4528127345272
 30
0.0
  0
SPLINE
  5
2DE
330
1F
100
AcDbEntity
  8
Default
100
AcDbSpline
210
0.0
220
0.0
230
1.0
 70
     8
 71
     3
 72
     8
 73
     4
 74
     0
 42
0.0000000001
 43
0.0000000001
 40
0.0
 40
0.0
 40
0.0
 40
0.0
 40
1.0
 40
1.0
 40
1.0
 40
1.0
 10
382.5966055372446
 20
658.4528127345272
 30
0.0
 10
381.8584234297631
 20
657.8991761034897
 30
0.0
 10
381.3970596297321
 20
657.1609939516329
 30
0.0
 10
381.3970596700732
 20
656.2382662870251
 30
0.0
  0
SPLINE
  5
2DF
330
1F
100
AcDbEntity
  8
Default
100
AcDbSpline
210
0.0
220
0.0
230
1.0
 70
     8
 71
     3
 72
     8
 73
     4
 74
     0
 42
0.0000000001
 43
0.0000000001
 40
0.0
 40
0.0
 40
0.0
 40
0.0
 40
1.0
 40
1.0
 40
1.0
 40
1.0
 10
381.3970596700732
 20
656.2382662870251
 30
0.0
 10
381.3970597104143
 20
655.3155386224173
 30
0.0
 10
381.7661508085303
 20
654.5773565068675
 30
0.0
 10
382.504332960387
 20
654.1159927068366
 30
0.0
  0
SPLINE
  5
2E0
330
1F
100
AcDbEntity
  8
Default
100
AcDbSpline
210
0.0
220
0.0
230
1.0
 70
     8
 71
     3
 72
     8
 73
     4
 74
     0
 42
0.0000000001
 43
0.0000000001
 40
0.0
 40
0.0
 40
0.0
 40
0.0
 40
1.0
 40
1.0
 40
1.0
 40
1.0
 10
382.504332960387
 20
654.1159927068366
 30
0.0
 10
383.4270606532336
 20
653.4700833819521
 30
0.0
 10
385.1802432321249
 20
653.1009923927571
 30
0.0
 10
387.671607926566
 20
653.1009925016781
 30
0.0
  0
SPLINE
  5
2E1
330
1F
100
AcDbEntity
  8
Default
370
   100
100
AcDbSpline
210
0.0
220
0.0
230
1.0
 70
    24
 71
     3
 72
     8
 73
     4
 74
     0
 42
0.0000000001
 43
0.0000000001
 40
0.0
 40
0.0
 40
0.0
 40
0.0
 40
1.0
 40
1.0
 40
1.0
 40
1.0
 10
1103.987797460157
 20
869.260450645935
 30
0.0
 10
1103.987797460157
 20
869.260450645935
 30
0.0
 10
1114.938522431057
 20
869.260450645935
 30
0.0
 10
1114.938522431057
 20
869.260450645935
 30
0.0
  0
SPLINE
  5
2E2
330
1F
100
AcDbEntity
  8
Default
370
   100
100
AcDbSpline
210
0.0
220
0.0
230
1.0
 70
    24
 71
     3
 72
     8
 73
     4
 74
     0
 42
0.0000000001
 43
0.0000000001
 40
1.0
 40
1.0
 40
1.0
 40
1.0
 40
2.0
 40
2.0
 40
2.0
 40
2.0
 10
1114.938522431057
 20
869.260450645935
 30
0.0
 10
1114.938522431057
 20
869.260450645935
 30
0.0
 10
1109.471422745762
 20
869.260450645935
 30
0.0
 10
1109.471422745762
 20
869.260450645935
 30
0.0
  0
SPLINE
  5
2E3
330
1F
100
AcDbEntity
  8
Default
370
   100
100
AcDbSpline
210
0.0
220
0.0
230
1.0
 70
    24
 71
     3
 72
     8
 73
     4
 74
     0
 42
0.0000000001
 43
0.0000000001
 40
2.0
 40
2.0
 40
2.0
 40
2.0
 40
3.0
 40
3.0
 40
3.0
 40
3.0
 10
1109.471422745762
 20
869.260450645935
 30
0.0
 10
1109.471422745762
 20
869.260450645935
 30
0.0
 10
1120.541778692823
 20
869.2363807498307
 30
0.0
 10
1120.541778692823
 20
869.2363807498307
 30
0.0
  0
SPLINE
  5
2E4
330
1F
100
AcDbEntity
  8
Default
370
   100
100
AcDbSpline
210
0.0
220
0.0
230
1.0
 70
     8
 71
     3
 72
     8
 73
     4
 74
     0
 42
0.0000000001
 43
0.0000000001
 40
3.0
 40
3.0
 40
3.0
 40
3.0
 40
4.0
 40
4.0
 40
4.0
 40
4.0
 10
1120.541778692823
 20
869.2363807498307
 30
0.0
 10
1120.989766162107
 20
869.260450645935
 30
0.0
 10
1121.337881525167
 20
869.0925002514762
 30
0.0
 10
1121.673782314085
 20
868.8045596286765
 30
0.0
  0
SPLINE
  5
2E5
330
1F
100
AcDbEntity
  8
Default
370
   100
100
AcDbSpline
210
0.0
220
0.0
230
1.0
 70
    24
 71
     3
 72
     8
 73
     4
 74
     0
 42
0.0000000001
 43
0.0000000001
 40
4.0
 40
4.0
 40
4.0
 40
4.0
 40
5.0
 40
5.0
 40
5.0
 40
5.0
 10
1121.673782314085
 20
868.8045596286765
 30
0.0
 10
1121.673782314085
 20
868.8045596286765
 30
0.0
 10
1126.269336209097
 20
864.2170889077292
 30
0.0
 10
1126.269336209097
 20
864.2170889077292
 30
0.0
  0
SPLINE
  5
2E6
330
1F
100
AcDbEntity
  8
Default
370
   100
100
AcDbSpline
210
0.0
220
0.0
230
1.0
 70
     8
 71
     3
 72
     8
 73
     4
 74
     0
 42
0.0000000001
 43
0.0000000001
 40
5.0
 40
5.0
 40
5.0
 40
5.0
 40
6.0
 40
6.0
 40
6.0
 40
6.0
 10
1126.269336209097
 20
864.2170889077292
 30
0.0
 10
1126.533027309702
 20
863.9169337107872
 30
0.0
 10
1126.677087434147
 20
863.5810329218695
 30
0.0
 10
1126.701157330251
 20
863.2092069148855
 30
0.0
  0
SPLINE
  5
2E7
330
1F
100
AcDbEntity
  8
Default
370
   100
100
AcDbSpline
210
0.0
220
0.0
230
1.0
 70
    24
 71
     3
 72
     8
 73
     4
 74
     0
 42
0.0000000001
 43
0.0000000001
 40
6.0
 40
6.0
 40
6.0
 40
6.0
 40
7.0
 40
7.0
 40
7.0
 40
7.0
 10
1126.701157330251
 20
863.2092069148855
 30
0.0
 10
1126.701157330251
 20
863.2092069148855
 30
0.0
 10
1128.62531200987
 20
831.864813404417
 30
0.0
 10
1128.62531200987
 20
831.864813404417
 30
0.0
  0
SPLINE
  5
2E8
330
1F
100
AcDbEntity
  8
Default
370
   100
100
AcDbSpline
210
0.0
220
0.0
230
1.0
 70
     8
 71
     3
 72
     8
 73
     4
 74
     0
 42
0.0000000001
 43
0.0000000001
 40
0.0
 40
0.0
 40
0.0
 40
0.0
 40
1.0
 40
1.0
 40
1.0
 40
1.0
 10
1098.408251842315
 20
869.260450645935
 30
0.0
 10
1097.972838199354
 20
869.260450645935
 30
0.0
 10
1097.588797618228
 20
869.0925002514762
 30
0.0
 10
1097.280559247221
 20
868.8045596286765
 30
0.0
  0
SPLINE
  5
2E9
330
1F
100
AcDbEntity
  8
Default
370
   100
100
AcDbSpline
210
0.0
220
0.0
230
1.0
 70
    24
 71
     3
 72
     8
 73
     4
 74
     0
 42
0.0000000001
 43
0.0000000001
 40
1.0
 40
1.0
 40
1.0
 40
1.0
 40
2.0
 40
2.0
 40
2.0
 40
2.0
 10
1097.280559247221
 20
868.8045596286765
 30
0.0
 10
1097.280559247221
 20
868.8045596286765
 30
0.0
 10
1092.705123474326
 20
864.2170889077292
 30
0.0
 10
1092.705123474326
 20
864.2170889077292
 30
0.0
  0
SPLINE
  5
2EA
330
1F
100
AcDbEntity
  8
Default
370
   100
100
AcDbSpline
210
0.0
220
0.0
230
1.0
 70
     8
 71
     3
 72
     8
 73
     4
 74
     0
 42
0.0000000001
 43
0.0000000001
 40
2.0
 40
2.0
 40
2.0
 40
2.0
 40
3.0
 40
3.0
 40
3.0
 40
3.0
 10
1092.705123474326
 20
864.2170889077292
 30
0.0
 10
1092.413410703629
 20
863.9169337107872
 30
0.0
 10
1092.241688161273
 20
863.5810329218695
 30
0.0
 10
1092.241688161273
 20
863.2092069148855
 30
0.0
  0
SPLINE
  5
2EB
330
1F
100
AcDbEntity
  8
Default
370
   100
100
AcDbSpline
210
0.0
220
0.0
230
1.0
 70
    24
 71
     3
 72
     8
 73
     4
 74
     0
 42
0.0000000001
 43
0.0000000001
 40
3.0
 40
3.0
 40
3.0
 40
3.0
 40
4.0
 40
4.0
 40
4.0
 40
4.0
 10
1092.241688161273
 20
863.2092069148855
 30
0.0
 10
1092.241688161273
 20
863.2092069148855
 30
0.0
 10
1092.161215672805
 20
862.2810789061485
 30
0.0
 10
1092.161215672805
 20
862.2810789061485
 30
0.0
  0
SPLINE
  5
2EC
330
1F
100
AcDbEntity
  8
Default
370
   100
100
AcDbSpline
210
0.0
220
0.0
230
1.0
 70
    24
 71
     3
 72
     8
 73
     4
 74
     0
 42
0.0000000001
 43
0.0000000001
 40
4.0
 40
4.0
 40
4.0
 40
4.0
 40
5.0
 40
5.0
 40
5.0
 40
5.0
 10
1092.161215672805
 20
862.2810789061485
 30
0.0
 10
1092.161215672805
 20
862.2810789061485
 30
0.0
 10
1089.621302755534
 20
862.4533403267753
 30
0.0
 10
1089.621302755534
 20
862.4533403267753
 30
0.0
  0
SPLINE
  5
2ED
330
1F
100
AcDbEntity
  8
Default
370
   100
100
AcDbSpline
210
0.0
220
0.0
230
1.0
 70
    24
 71
     3
 72
     8
 73
     4
 74
     0
 42
0.0000000001
 43
0.0000000001
 40
5.0
 40
5.0
 40
5.0
 40
5.0
 40
6.0
 40
6.0
 40
6.0
 40
6.0
 10
1089.621302755534
 20
862.4533403267753
 30
0.0
 10
1089.621302755534
 20
862.4533403267753
 30
0.0
 10
1092.161215672805
 20
862.2810789061485
 30
0.0
 10
1092.161215672805
 20
862.2810789061485
 30
0.0
  0
SPLINE
  5
2EE
330
1F
100
AcDbEntity
  8
Default
370
   100
100
AcDbSpline
210
0.0
220
0.0
230
1.0
 70
    24
 71
     3
 72
     8
 73
     4
 74
     0
 42
0.0000000001
 43
0.0000000001
 40
6.0
 40
6.0
 40
6.0
 40
6.0
 40
7.0
 40
7.0
 40
7.0
 40
7.0
 10
1092.161215672805
 20
862.2810789061485
 30
0.0
 10
1092.161215672805
 20
862.2810789061485
 30
0.0
 10
1091.497317642944
 20
851.2223986549594
 30
0.0
 10
1091.497317642944
 20
851.2223986549594
 30
0.0
  0
SPLINE
  5
2EF
330
1F
100
AcDbEntity
  8
Default
370
   100
100
AcDbSpline
210
0.0
220
0.0
230
1.0
 70
    24
 71
     3
 72
     8
 73
     4
 74
     0
 42
0.0000000001
 43
0.0000000001
 40
7.0
 40
7.0
 40
7.0
 40
7.0
 40
8.0
 40
8.0
 40
8.0
 40
8.0
 10
1091.497317642944
 20
851.2223986549594
 30
0.0
 10
1091.497317642944
 20
851.2223986549594
 30
0.0
 10
1089.045421509935
 20
851.3346649614159
 30
0.0
 10
1089.045421509935
 20
851.3346649614159
 30
0.0
  0
SPLINE
  5
2F0
330
1F
100
AcDbEntity
  8
Default
370
   100
100
AcDbSpline
210
0.0
220
0.0
230
1.0
 70
    24
 71
     3
 72
     8
 73
     4
 74
     0
 42
0.0000000001
 43
0.0000000001
 40
8.0
 40
8.0
 40
8.0
 40
8.0
 40
9.0
 40
9.0
 40
9.0
 40
9.0
 10
1089.045421509935
 20
851.3346649614159
 30
0.0
 10
1089.045421509935
 20
851.3346649614159
 30
0.0
 10
1091.497317642944
 20
851.2223986549594
 30
0.0
 10
1091.497317642944
 20
851.2223986549594
 30
0.0
  0
SPLINE
  5
2F1
330
1F
100
AcDbEntity
  8
Default
370
   100
100
AcDbSpline
210
0.0
220
0.0
230
1.0
 70
    24
 71
     3
 72
     8
 73
     4
 74
     0
 42
0.0000000001
 43
0.0000000001
 40
9.0
 40
9.0
 40
9.0
 40
9.0
 40
10.0
 40
10.0
 40
10.0
 40
10.0
 10
1091.497317642944
 20
851.2223986549594
 30
0.0
 10
1091.497317642944
 20
851.2223986549594
 30
0.0
 10
1090.30962993368
 20
831.864813404417
 30
0.0
 10
1090.30962993368
 20
831.864813404417
 30
0.0
  0
SPLINE
  5
2F2
330
1F
100
AcDbEntity
  8
Default
370
   100
100
AcDbSpline
210
0.0
220
0.0
230
1.0
 70
     8
 71
     3
 72
     8
 73
     4
 74
     0
 42
0.0000000001
 43
0.0000000001
 40
0.0
 40
0.0
 40
0.0
 40
0.0
 40
1.0
 40
1.0
 40
1.0
 40
1.0
 10
1117.198218647414
 20
938.1244234002496
 30
0.0
 10
1118.39812093082
 20
941.0600525945189
 30
0.0
 10
1119.726276242723
 20
943.3917788730973
 30
0.0
 10
1121.566006659887
 20
945.9956386785263
 30
0.0
  0
SPLINE
  5
2F3
330
1F
100
AcDbEntity
  8
Default
370
   100
100
AcDbSpline
210
0.0
220
0.0
230
1.0
 70
    24
 71
     3
 72
     8
 73
     4
 74
     0
 42
0.0000000001
 43
0.0000000001
 40
1.0
 40
1.0
 40
1.0
 40
1.0
 40
2.0
 40
2.0
 40
2.0
 40
2.0
 10
1121.566006659887
 20
945.9956386785263
 30
0.0
 10
1121.566006659887
 20
945.9956386785263
 30
0.0
 10
1173.604044280775
 20
1018.97520441449
 30
0.0
 10
1173.604044280775
 20
1018.97520441449
 30
0.0
  0
SPLINE
  5
2F4
330
1F
100
AcDbEntity
  8
Default
370
   100
100
AcDbSpline
210
0.0
220
0.0
230
1.0
 70
     8
 71
     3
 72
    14
 73
    10
 74
     0
 42
0.0000000001
 43
0.0000000001
 40
2.0
 40
2.0
 40
2.0
 40
2.0
 40
3.0
 40
3.0
 40
3.0
 40
4.0
 40
4.0
 40
4.0
 40
5.0
 40
5.0
 40
5.0
 40
5.0
 10
1173.604044280775
 20
1018.97520441449
 30
0.0
 10
1174.608154125722
 20
1020.355092040408
 30
0.0
 10
1175.067637664787
 20
1021.810781876446
 30
0.0
 10
1175.067637664787
 20
1023.522618517294
 30
0.0
 10
1175.067637664787
 20
1027.830411415597
 30
0.0
 10
1171.576065720945
 20
1031.341742229375
 30
0.0
 10
1167.272943100991
 20
1031.341742229375
 30
0.0
 10
1164.384914820659
 20
1031.341742229375
 30
0.0
 10
1161.953136809767
 20
1029.922157237494
 30
0.0
 10
1160.501398747717
 20
1027.466309330497
 30
0.0
  0
SPLINE
  5
2F5
330
1F
100
AcDbEntity
  8
Default
370
   100
100
AcDbSpline
210
0.0
220
0.0
230
1.0
 70
    24
 71
     3
 72
     8
 73
     4
 74
     0
 42
0.0000000001
 43
0.0000000001
 40
5.0
 40
5.0
 40
5.0
 40
5.0
 40
6.0
 40
6.0
 40
6.0
 40
6.0
 10
1160.501398747717
 20
1027.466309330497
 30
0.0
 10
1160.501398747717
 20
1027.466309330497
 30
0.0
 10
1112.142821961156
 20
945.3676658667314
 30
0.0
 10
1112.142821961156
 20
945.3676658667314
 30
0.0
  0
LINE
  5
2F6
330
1F
100
AcDbEntity
  8
Default
370
   100
100
AcDbLine
 10
1068.275975189395
 20
931.5693284858235
 30
0.0
 11
1074.2593202583
 21
912.7274497406197
 31
0.0
  0
LINE
  5
2F7
330
1F
100
AcDbEntity
  8
Default
370
   100
100
AcDbLine
 10
1074.2593202583
 20
912.7274497406197
 30
0.0
 11
1077.486482597175
 21
913.5914512351083
 31
0.0
  0
LINE
  5
2F8
330
1F
100
AcDbEntity
  8
Default
370
   100
100
AcDbLine
 10
1077.486482597175
 20
913.5914512351083
 30
0.0
 11
703.5696279218679
 21
813.0028165370959
 31
0.0
  0
LINE
  5
2F9
330
1F
100
AcDbEntity
  8
Default
370
   100
100
AcDbLine
 10
703.5696279218679
 20
813.0028165370959
 30
0.0
 11
695.9628222485572
 21
833.4564801908346
 31
0.0
  0
LINE
  5
2FA
330
1F
100
AcDbEntity
  8
Default
370
   100
100
AcDbLine
 10
695.9628222485572
 20
833.4564801908346
 30
0.0
 11
1068.275975189395
 21
931.5693284858235
 31
0.0
  0
SPLINE
  5
2FB
330
1F
100
AcDbEntity
  8
Default
100
AcDbSpline
210
0.0
220
0.0
230
1.0
 70
     8
 71
     3
 72
     8
 73
     4
 74
     0
 42
0.0000000001
 43
0.0000000001
 40
0.0
 40
0.0
 40
0.0
 40
0.0
 40
1.0
 40
1.0
 40
1.0
 40
1.0
 10
804.598479921644
 20
193.315692984206
 30
0.0
 10
803.8602977899495
 20
193.5925112835914
 30
0.0
 10
803.3066611911787
 20
193.9616023494386
 30
0.0
 10
802.9375701253315
 20
194.5152389482094
 30
0.0
  0
SPLINE
  5
2FC
330
1F
100
AcDbEntity
  8
Default
100
AcDbSpline
210
0.0
220
0.0
230
1.0
 70
     8
 71
     3
 72
     8
 73
     4
 74
     0
 42
0.0000000001
 43
0.0000000001
 40
0.0
 40
0.0
 40
0.0
 40
0.0
 40
1.0
 40
1.0
 40
1.0
 40
1.0
 10
802.9375701253315
 20
194.5152389482094
 30
0.0
 10
802.5684790594844
 20
195.0688755469802
 30
0.0
 10
802.3839335265608
 20
195.7147849122128
 30
0.0
 10
802.3839335265608
 20
196.4529670439073
 30
0.0
  0
SPLINE
  5
2FD
330
1F
100
AcDbEntity
  8
Default
100
AcDbSpline
210
0.0
220
0.0
230
1.0
 70
     8
 71
     3
 72
     8
 73
     4
 74
     0
 42
0.0000000001
 43
0.0000000001
 40
0.0
 40
0.0
 40
0.0
 40
0.0
 40
1.0
 40
1.0
 40
1.0
 40
1.0
 10
802.3839335265608
 20
196.4529670439073
 30
0.0
 10
802.3839335265608
 20
197.4679674749871
 30
0.0
 10
802.7530245924079
 20
198.390695139605
 30
0.0
 10
803.5834794905642
 20
199.2211500377613
 30
0.0
  0
SPLINE
  5
2FE
330
1F
100
AcDbEntity
  8
Default
100
AcDbSpline
210
0.0
220
0.0
230
1.0
 70
     8
 71
     3
 72
     8
 73
     4
 74
     0
 42
0.0000000001
 43
0.0000000001
 40
0.0
 40
0.0
 40
0.0
 40
0.0
 40
1.0
 40
1.0
 40
1.0
 40
1.0
 10
803.5834794905642
 20
199.2211500377613
 30
0.0
 10
804.4139343887203
 20
199.9593321694557
 30
0.0
 10
805.4289348198001
 20
200.3284232353029
 30
0.0
 10
806.7207535502654
 20
200.3284232353029
 30
0.0
  0
SPLINE
  5
2FF
330
1F
100
AcDbEntity
  8
Default
100
AcDbSpline
210
0.0
220
0.0
230
1.0
 70
     8
 71
     3
 72
     8
 73
     4
 74
     0
 42
0.0000000001
 43
0.0000000001
 40
0.0
 40
0.0
 40
0.0
 40
0.0
 40
1.0
 40
1.0
 40
1.0
 40
1.0
 10
806.7207535502654
 20
200.3284232353029
 30
0.0
 10
808.1048450471924
 20
200.3284232353029
 30
0.0
 10
809.1198454782722
 20
199.9593321694557
 30
0.0
 10
809.9503003764283
 20
199.1288772712995
 30
0.0
  0
SPLINE
  5
300
330
1F
100
AcDbEntity
  8
Default
100
AcDbSpline
210
0.0
220
0.0
230
1.0
 70
     8
 71
     3
 72
     8
 73
     4
 74
     0
 42
0.0000000001
 43
0.0000000001
 40
0.0
 40
0.0
 40
0.0
 40
0.0
 40
1.0
 40
1.0
 40
1.0
 40
1.0
 10
809.9503003764283
 20
199.1288772712995
 30
0.0
 10
810.7807552745846
 20
198.390695139605
 30
0.0
 10
811.1498463404318
 20
197.4679674749871
 30
0.0
 10
811.1498463404318
 20
196.3606942774454
 30
0.0
  0
SPLINE
  5
301
330
1F
100
AcDbEntity
  8
Default
100
AcDbSpline
210
0.0
220
0.0
230
1.0
 70
     8
 71
     3
 72
     8
 73
     4
 74
     0
 42
0.0000000001
 43
0.0000000001
 40
0.0
 40
0.0
 40
0.0
 40
0.0
 40
1.0
 40
1.0
 40
1.0
 40
1.0
 10
811.1498463404318
 20
196.3606942774454
 30
0.0
 10
811.1498463404318
 20
195.622512145751
 30
0.0
 10
810.9653008075082
 20
195.0688755469802
 30
0.0
 10
810.596209741661
 20
194.5152389482094
 30
0.0
  0
SPLINE
  5
302
330
1F
100
AcDbEntity
  8
Default
100
AcDbSpline
210
0.0
220
0.0
230
1.0
 70
     8
 71
     3
 72
     8
 73
     4
 74
     0
 42
0.0000000001
 43
0.0000000001
 40
0.0
 40
0.0
 40
0.0
 40
0.0
 40
1.0
 40
1.0
 40
1.0
 40
1.0
 10
810.596209741661
 20
194.5152389482094
 30
0.0
 10
810.2271186758138
 20
193.9616023494386
 30
0.0
 10
809.673482077043
 20
193.5925112835914
 30
0.0
 10
808.9352999453486
 20
193.315692984206
 30
0.0
  0
SPLINE
  5
303
330
1F
100
AcDbEntity
  8
Default
100
AcDbSpline
210
0.0
220
0.0
230
1.0
 70
     8
 71
     3
 72
     8
 73
     4
 74
     0
 42
0.0000000001
 43
0.0000000001
 40
0.0
 40
0.0
 40
0.0
 40
0.0
 40
1.0
 40
1.0
 40
1.0
 40
1.0
 10
808.9352999453486
 20
193.315692984206
 30
0.0
 10
809.8580276099666
 20
193.0388746848206
 30
0.0
 10
810.5039369751992
 20
192.4852380860498
 30
0.0
 10
810.9653008075082
 20
191.8393287208172
 30
0.0
  0
SPLINE
  5
304
330
1F
100
AcDbEntity
  8
Default
100
AcDbSpline
210
0.0
220
0.0
230
1.0
 70
     8
 71
     3
 72
     8
 73
     4
 74
     0
 42
0.0000000001
 43
0.0000000001
 40
0.0
 40
0.0
 40
0.0
 40
0.0
 40
1.0
 40
1.0
 40
1.0
 40
1.0
 10
810.9653008075082
 20
191.8393287208172
 30
0.0
 10
811.518937406279
 20
191.1011465891228
 30
0.0
 10
811.7034829392026
 20
190.3629644574284
 30
0.0
 10
811.7034829392026
 20
189.3479640263486
 30
0.0
  0
SPLINE
  5
305
330
1F
100
AcDbEntity
  8
Default
100
AcDbSpline
210
0.0
220
0.0
230
1.0
 70
     8
 71
     3
 72
     8
 73
     4
 74
     0
 42
0.0000000001
 43
0.0000000001
 40
0.0
 40
0.0
 40
0.0
 40
0.0
 40
1.0
 40
1.0
 40
1.0
 40
1.0
 10
811.7034829392026
 20
189.3479640263486
 30
0.0
 10
811.7034829392026
 20
188.0561452958834
 30
0.0
 10
811.2421191068936
 20
186.9488720983418
 30
0.0
 10
810.3193914422756
 20
186.0261444337238
 30
0.0
  0
SPLINE
  5
306
330
1F
100
AcDbEntity
  8
Default
100
AcDbSpline
210
0.0
220
0.0
230
1.0
 70
     8
 71
     3
 72
     8
 73
     4
 74
     0
 42
0.0000000001
 43
0.0000000001
 40
0.0
 40
0.0
 40
0.0
 40
0.0
 40
1.0
 40
1.0
 40
1.0
 40
1.0
 10
810.3193914422756
 20
186.0261444337238
 30
0.0
 10
809.3966637776576
 20
185.1956895355676
 30
0.0
 10
808.289390580116
 20
184.7343257032585
 30
0.0
 10
806.8130263167271
 20
184.7343257032585
 30
0.0
  0
SPLINE
  5
307
330
1F
100
AcDbEntity
  8
Default
100
AcDbSpline
210
0.0
220
0.0
230
1.0
 70
     8
 71
     3
 72
     8
 73
     4
 74
     0
 42
0.0000000001
 43
0.0000000001
 40
0.0
 40
0.0
 40
0.0
 40
0.0
 40
1.0
 40
1.0
 40
1.0
 40
1.0
 10
806.8130263167271
 20
184.7343257032585
 30
0.0
 10
805.3366620533384
 20
184.7343257032585
 30
0.0
 10
804.137116089335
 20
185.1956895355676
 30
0.0
 10
803.214388424717
 20
186.0261444337238
 30
0.0
  0
SPLINE
  5
308
330
1F
100
AcDbEntity
  8
Default
100
AcDbSpline
210
0.0
220
0.0
230
1.0
 70
     8
 71
     3
 72
     8
 73
     4
 74
     0
 42
0.0000000001
 43
0.0000000001
 40
0.0
 40
0.0
 40
0.0
 40
0.0
 40
1.0
 40
1.0
 40
1.0
 40
1.0
 10
803.214388424717
 20
186.0261444337238
 30
0.0
 10
802.2916607600989
 20
186.9488720983418
 30
0.0
 10
801.83029692779
 20
188.0561452958834
 30
0.0
 10
801.83029692779
 20
189.4402367928104
 30
0.0
  0
SPLINE
  5
309
330
1F
100
AcDbEntity
  8
Default
100
AcDbSpline
210
0.0
220
0.0
230
1.0
 70
     8
 71
     3
 72
     8
 73
     4
 74
     0
 42
0.0000000001
 43
0.0000000001
 40
0.0
 40
0.0
 40
0.0
 40
0.0
 40
1.0
 40
1.0
 40
1.0
 40
1.0
 10
801.83029692779
 20
189.4402367928104
 30
0.0
 10
801.83029692779
 20
190.4552372238902
 30
0.0
 10
802.1071152271753
 20
191.2856921220464
 30
0.0
 10
802.5684790594844
 20
191.931601487279
 30
0.0
  0
SPLINE
  5
30A
330
1F
100
AcDbEntity
  8
Default
100
AcDbSpline
210
0.0
220
0.0
230
1.0
 70
     8
 71
     3
 72
     8
 73
     4
 74
     0
 42
0.0000000001
 43
0.0000000001
 40
0.0
 40
0.0
 40
0.0
 40
0.0
 40
1.0
 40
1.0
 40
1.0
 40
1.0
 10
802.5684790594844
 20
191.931601487279
 30
0.0
 10
803.0298428917934
 20
192.5775108525116
 30
0.0
 10
803.7680250234878
 20
193.0388746848206
 30
0.0
 10
804.598479921644
 20
193.315692984206
 30
0.0
  0
SPLINE
  5
30B
330
1F
100
AcDbEntity
  8
Default
100
AcDbSpline
210
0.0
220
0.0
230
1.0
 70
     8
 71
     3
 72
     8
 73
     4
 74
     0
 42
0.0000000001
 43
0.0000000001
 40
0.0
 40
0.0
 40
0.0
 40
0.0
 40
1.0
 40
1.0
 40
1.0
 40
1.0
 10
804.2293888557967
 20
196.4529670439073
 30
0.0
 10
804.2293888557967
 20
195.7147849122128
 30
0.0
 10
804.5062071551821
 20
195.161148313442
 30
0.0
 10
804.8752982210293
 20
194.699784481133
 30
0.0
  0
SPLINE
  5
30C
330
1F
100
AcDbEntity
  8
Default
100
AcDbSpline
210
0.0
220
0.0
230
1.0
 70
     8
 71
     3
 72
     8
 73
     4
 74
     0
 42
0.0000000001
 43
0.0000000001
 40
0.0
 40
0.0
 40
0.0
 40
0.0
 40
1.0
 40
1.0
 40
1.0
 40
1.0
 10
804.8752982210293
 20
194.699784481133
 30
0.0
 10
805.3366620533384
 20
194.238420648824
 30
0.0
 10
805.982571418571
 20
194.0538751159004
 30
0.0
 10
806.8130263167271
 20
194.0538751159004
 30
0.0
  0
SPLINE
  5
30D
330
1F
100
AcDbEntity
  8
Default
100
AcDbSpline
210
0.0
220
0.0
230
1.0
 70
     8
 71
     3
 72
     8
 73
     4
 74
     0
 42
0.0000000001
 43
0.0000000001
 40
0.0
 40
0.0
 40
0.0
 40
0.0
 40
1.0
 40
1.0
 40
1.0
 40
1.0
 10
806.8130263167271
 20
194.0538751159004
 30
0.0
 10
807.5512084484216
 20
194.0538751159004
 30
0.0
 10
808.1971178136541
 20
194.238420648824
 30
0.0
 10
808.6584816459632
 20
194.699784481133
 30
0.0
  0
SPLINE
  5
30E
330
1F
100
AcDbEntity
  8
Default
100
AcDbSpline
210
0.0
220
0.0
230
1.0
 70
     8
 71
     3
 72
     8
 73
     4
 74
     0
 42
0.0000000001
 43
0.0000000001
 40
0.0
 40
0.0
 40
0.0
 40
0.0
 40
1.0
 40
1.0
 40
1.0
 40
1.0
 10
808.6584816459632
 20
194.699784481133
 30
0.0
 10
809.1198454782722
 20
195.161148313442
 30
0.0
 10
809.3043910111958
 20
195.7147849122128
 30
0.0
 10
809.3043910111958
 20
196.3606942774454
 30
0.0
  0
SPLINE
  5
30F
330
1F
100
AcDbEntity
  8
Default
100
AcDbSpline
210
0.0
220
0.0
230
1.0
 70
     8
 71
     3
 72
     8
 73
     4
 74
     0
 42
0.0000000001
 43
0.0000000001
 40
0.0
 40
0.0
 40
0.0
 40
0.0
 40
1.0
 40
1.0
 40
1.0
 40
1.0
 10
809.3043910111958
 20
196.3606942774454
 30
0.0
 10
809.3043910111958
 20
197.006603642678
 30
0.0
 10
809.1198454782722
 20
197.5602402414488
 30
0.0
 10
808.5662088795013
 20
198.0216040737579
 30
0.0
  0
SPLINE
  5
310
330
1F
100
AcDbEntity
  8
Default
100
AcDbSpline
210
0.0
220
0.0
230
1.0
 70
     8
 71
     3
 72
     8
 73
     4
 74
     0
 42
0.0000000001
 43
0.0000000001
 40
0.0
 40
0.0
 40
0.0
 40
0.0
 40
1.0
 40
1.0
 40
1.0
 40
1.0
 10
808.5662088795013
 20
198.0216040737579
 30
0.0
 10
808.1048450471924
 20
198.4829679060668
 30
0.0
 10
807.5512084484216
 20
198.7597862054523
 30
0.0
 10
806.8130263167271
 20
198.7597862054523
 30
0.0
  0
SPLINE
  5
311
330
1F
100
AcDbEntity
  8
Default
100
AcDbSpline
210
0.0
220
0.0
230
1.0
 70
     8
 71
     3
 72
     8
 73
     4
 74
     0
 42
0.0000000001
 43
0.0000000001
 40
0.0
 40
0.0
 40
0.0
 40
0.0
 40
1.0
 40
1.0
 40
1.0
 40
1.0
 10
806.8130263167271
 20
198.7597862054523
 30
0.0
 10
805.982571418571
 20
198.7597862054523
 30
0.0
 10
805.4289348198001
 20
198.4829679060668
 30
0.0
 10
804.9675709874912
 20
198.1138768402197
 30
0.0
  0
SPLINE
  5
312
330
1F
100
AcDbEntity
  8
Default
100
AcDbSpline
210
0.0
220
0.0
230
1.0
 70
     8
 71
     3
 72
     8
 73
     4
 74
     0
 42
0.0000000001
 43
0.0000000001
 40
0.0
 40
0.0
 40
0.0
 40
0.0
 40
1.0
 40
1.0
 40
1.0
 40
1.0
 10
804.9675709874912
 20
198.1138768402197
 30
0.0
 10
804.5062071551821
 20
197.6525130079106
 30
0.0
 10
804.2293888557967
 20
197.0988764091398
 30
0.0
 10
804.2293888557967
 20
196.4529670439073
 30
0.0
  0
SPLINE
  5
313
330
1F
100
AcDbEntity
  8
Default
100
AcDbSpline
210
0.0
220
0.0
230
1.0
 70
     8
 71
     3
 72
     8
 73
     4
 74
     0
 42
0.0000000001
 43
0.0000000001
 40
0.0
 40
0.0
 40
0.0
 40
0.0
 40
1.0
 40
1.0
 40
1.0
 40
1.0
 10
803.6757522570259
 20
189.4402367928104
 30
0.0
 10
803.6757522570259
 20
188.8866001940396
 30
0.0
 10
803.7680250234878
 20
188.3329635952688
 30
0.0
 10
804.0448433228731
 20
187.8715997629598
 30
0.0
  0
SPLINE
  5
314
330
1F
100
AcDbEntity
  8
Default
100
AcDbSpline
210
0.0
220
0.0
230
1.0
 70
     8
 71
     3
 72
     8
 73
     4
 74
     0
 42
0.0000000001
 43
0.0000000001
 40
0.0
 40
0.0
 40
0.0
 40
0.0
 40
1.0
 40
1.0
 40
1.0
 40
1.0
 10
804.0448433228731
 20
187.8715997629598
 30
0.0
 10
804.2293888557967
 20
187.317963164189
 30
0.0
 10
804.6907526881057
 20
186.9488720983418
 30
0.0
 10
805.1521165204148
 20
186.6720537989564
 30
0.0
  0
SPLINE
  5
315
330
1F
100
AcDbEntity
  8
Default
100
AcDbSpline
210
0.0
220
0.0
230
1.0
 70
     8
 71
     3
 72
     8
 73
     4
 74
     0
 42
0.0000000001
 43
0.0000000001
 40
0.0
 40
0.0
 40
0.0
 40
0.0
 40
1.0
 40
1.0
 40
1.0
 40
1.0
 10
805.1521165204148
 20
186.6720537989564
 30
0.0
 10
805.7057531191856
 20
186.395235499571
 30
0.0
 10
806.1671169514946
 20
186.3029627331092
 30
0.0
 10
806.8130263167271
 20
186.3029627331092
 30
0.0
  0
SPLINE
  5
316
330
1F
100
AcDbEntity
  8
Default
100
AcDbSpline
210
0.0
220
0.0
230
1.0
 70
     8
 71
     3
 72
     8
 73
     4
 74
     0
 42
0.0000000001
 43
0.0000000001
 40
0.0
 40
0.0
 40
0.0
 40
0.0
 40
1.0
 40
1.0
 40
1.0
 40
1.0
 10
806.8130263167271
 20
186.3029627331092
 30
0.0
 10
807.7357539813452
 20
186.3029627331092
 30
0.0
 10
808.4739361130396
 20
186.5797810324946
 30
0.0
 10
809.0275727118104
 20
187.1334176312654
 30
0.0
  0
SPLINE
  5
317
330
1F
100
AcDbEntity
  8
Default
100
AcDbSpline
210
0.0
220
0.0
230
1.0
 70
     8
 71
     3
 72
     8
 73
     4
 74
     0
 42
0.0000000001
 43
0.0000000001
 40
0.0
 40
0.0
 40
0.0
 40
0.0
 40
1.0
 40
1.0
 40
1.0
 40
1.0
 10
809.0275727118104
 20
187.1334176312654
 30
0.0
 10
809.5812093105811
 20
187.6870542300362
 30
0.0
 10
809.8580276099666
 20
188.4252363617306
 30
0.0
 10
809.8580276099666
 20
189.3479640263486
 30
0.0
  0
SPLINE
  5
318
330
1F
100
AcDbEntity
  8
Default
100
AcDbSpline
210
0.0
220
0.0
230
1.0
 70
     8
 71
     3
 72
     8
 73
     4
 74
     0
 42
0.0000000001
 43
0.0000000001
 40
0.0
 40
0.0
 40
0.0
 40
0.0
 40
1.0
 40
1.0
 40
1.0
 40
1.0
 10
809.8580276099666
 20
189.3479640263486
 30
0.0
 10
809.8580276099666
 20
190.2706916909666
 30
0.0
 10
809.5812093105811
 20
191.008873822661
 30
0.0
 10
809.0275727118104
 20
191.5625104214318
 30
0.0
  0
SPLINE
  5
319
330
1F
100
AcDbEntity
  8
Default
100
AcDbSpline
210
0.0
220
0.0
230
1.0
 70
     8
 71
     3
 72
     8
 73
     4
 74
     0
 42
0.0000000001
 43
0.0000000001
 40
0.0
 40
0.0
 40
0.0
 40
0.0
 40
1.0
 40
1.0
 40
1.0
 40
1.0
 10
809.0275727118104
 20
191.5625104214318
 30
0.0
 10
808.3816633465777
 20
192.2084197866644
 30
0.0
 10
807.6434812148834
 20
192.4852380860498
 30
0.0
 10
806.7207535502654
 20
192.4852380860498
 30
0.0
  0
SPLINE
  5
31A
330
1F
100
AcDbEntity
  8
Default
100
AcDbSpline
210
0.0
220
0.0
230
1.0
 70
     8
 71
     3
 72
     8
 73
     4
 74
     0
 42
0.0000000001
 43
0.0000000001
 40
0.0
 40
0.0
 40
0.0
 40
0.0
 40
1.0
 40
1.0
 40
1.0
 40
1.0
 10
806.7207535502654
 20
192.4852380860498
 30
0.0
 10
805.7980258856473
 20
192.4852380860498
 30
0.0
 10
805.0598437539529
 20
192.2084197866644
 30
0.0
 10
804.5062071551821
 20
191.5625104214318
 30
0.0
  0
SPLINE
  5
31B
330
1F
100
AcDbEntity
  8
Default
100
AcDbSpline
210
0.0
220
0.0
230
1.0
 70
     8
 71
     3
 72
     8
 73
     4
 74
     0
 42
0.0000000001
 43
0.0000000001
 40
0.0
 40
0.0
 40
0.0
 40
0.0
 40
1.0
 40
1.0
 40
1.0
 40
1.0
 10
804.5062071551821
 20
191.5625104214318
 30
0.0
 10
803.9525705564114
 20
191.008873822661
 30
0.0
 10
803.6757522570259
 20
190.2706916909666
 30
0.0
 10
803.6757522570259
 20
189.4402367928104
 30
0.0
  0
SPLINE
  5
31C
330
1F
100
AcDbEntity
  8
Default
100
AcDbSpline
210
0.0
220
0.0
230
1.0
 70
     8
 71
     3
 72
     8
 73
     4
 74
     0
 42
0.0000000001
 43
0.0000000001
 40
0.0
 40
0.0
 40
0.0
 40
0.0
 40
1.0
 40
1.0
 40
1.0
 40
1.0
 10
813.6412110349004
 20
192.4852380860498
 30
0.0
 10
813.6412110349004
 20
194.3306934152858
 30
0.0
 10
813.825756567824
 20
195.8070576786747
 30
0.0
 10
814.1948476336712
 20
196.9143308762162
 30
0.0
  0
SPLINE
  5
31D
330
1F
100
AcDbEntity
  8
Default
100
AcDbSpline
210
0.0
220
0.0
230
1.0
 70
     8
 71
     3
 72
     8
 73
     4
 74
     0
 42
0.0000000001
 43
0.0000000001
 40
0.0
 40
0.0
 40
0.0
 40
0.0
 40
1.0
 40
1.0
 40
1.0
 40
1.0
 10
814.1948476336712
 20
196.9143308762162
 30
0.0
 10
814.5639386995184
 20
198.0216040737579
 30
0.0
 10
815.1175752982892
 20
198.8520589719141
 30
0.0
 10
815.8557574299837
 20
199.4056955706849
 30
0.0
  0
SPLINE
  5
31E
330
1F
100
AcDbEntity
  8
Default
100
AcDbSpline
210
0.0
220
0.0
230
1.0
 70
     8
 71
     3
 72
     8
 73
     4
 74
     0
 42
0.0000000001
 43
0.0000000001
 40
0.0
 40
0.0
 40
0.0
 40
0.0
 40
1.0
 40
1.0
 40
1.0
 40
1.0
 10
815.8557574299837
 20
199.4056955706849
 30
0.0
 10
816.593939561678
 20
200.0516049359175
 30
0.0
 10
817.516667226296
 20
200.3284232353029
 30
0.0
 10
818.6239404238377
 20
200.3284232353029
 30
0.0
  0
SPLINE
  5
31F
330
1F
100
AcDbEntity
  8
Default
100
AcDbSpline
210
0.0
220
0.0
230
1.0
 70
     8
 71
     3
 72
     8
 73
     4
 74
     0
 42
0.0000000001
 43
0.0000000001
 40
0.0
 40
0.0
 40
0.0
 40
0.0
 40
1.0
 40
1.0
 40
1.0
 40
1.0
 10
818.6239404238377
 20
200.3284232353029
 30
0.0
 10
819.4543953219938
 20
200.3284232353029
 30
0.0
 10
820.1925774536883
 20
200.1438777023793
 30
0.0
 10
820.8384868189208
 20
199.8670594029939
 30
0.0
  0
SPLINE
  5
320
330
1F
100
AcDbEntity
  8
Default
100
AcDbSpline
210
0.0
220
0.0
230
1.0
 70
     8
 71
     3
 72
     8
 73
     4
 74
     0
 42
0.0000000001
 43
0.0000000001
 40
0.0
 40
0.0
 40
0.0
 40
0.0
 40
1.0
 40
1.0
 40
1.0
 40
1.0
 10
820.8384868189208
 20
199.8670594029939
 30
0.0
 10
821.4843961841535
 20
199.4979683371467
 30
0.0
 10
821.9457600164625
 20
199.0366045048377
 30
0.0
 10
822.3148510823097
 20
198.390695139605
 30
0.0
  0
SPLINE
  5
321
330
1F
100
AcDbEntity
  8
Default
100
AcDbSpline
210
0.0
220
0.0
230
1.0
 70
     8
 71
     3
 72
     8
 73
     4
 74
     0
 42
0.0000000001
 43
0.0000000001
 40
0.0
 40
0.0
 40
0.0
 40
0.0
 40
1.0
 40
1.0
 40
1.0
 40
1.0
 10
822.3148510823097
 20
198.390695139605
 30
0.0
 10
822.6839421481569
 20
197.7447857743724
 30
0.0
 10
823.0530332140041
 20
197.006603642678
 30
0.0
 10
823.2375787469277
 20
196.08387597806
 30
0.0
  0
SPLINE
  5
322
330
1F
100
AcDbEntity
  8
Default
100
AcDbSpline
210
0.0
220
0.0
230
1.0
 70
     8
 71
     3
 72
     8
 73
     4
 74
     0
 42
0.0000000001
 43
0.0000000001
 40
0.0
 40
0.0
 40
0.0
 40
0.0
 40
1.0
 40
1.0
 40
1.0
 40
1.0
 10
823.2375787469277
 20
196.08387597806
 30
0.0
 10
823.5143970463131
 20
195.2534210799038
 30
0.0
 10
823.6066698127748
 20
194.0538751159004
 30
0.0
 10
823.6066698127748
 20
192.4852380860498
 30
0.0
  0
SPLINE
  5
323
330
1F
100
AcDbEntity
  8
Default
100
AcDbSpline
210
0.0
220
0.0
230
1.0
 70
     8
 71
     3
 72
     8
 73
     4
 74
     0
 42
0.0000000001
 43
0.0000000001
 40
0.0
 40
0.0
 40
0.0
 40
0.0
 40
1.0
 40
1.0
 40
1.0
 40
1.0
 10
823.6066698127748
 20
192.4852380860498
 30
0.0
 10
823.6066698127748
 20
190.7320555232756
 30
0.0
 10
823.4221242798512
 20
189.2556912598868
 30
0.0
 10
823.0530332140041
 20
188.1484180623452
 30
0.0
  0
SPLINE
  5
324
330
1F
100
AcDbEntity
  8
Default
100
AcDbSpline
210
0.0
220
0.0
230
1.0
 70
     8
 71
     3
 72
     8
 73
     4
 74
     0
 42
0.0000000001
 43
0.0000000001
 40
0.0
 40
0.0
 40
0.0
 40
0.0
 40
1.0
 40
1.0
 40
1.0
 40
1.0
 10
823.0530332140041
 20
188.1484180623452
 30
0.0
 10
822.6839421481569
 20
187.0411448648036
 30
0.0
 10
822.1303055493861
 20
186.2106899666474
 30
0.0
 10
821.3921234176917
 20
185.5647806014148
 30
0.0
  0
SPLINE
  5
325
330
1F
100
AcDbEntity
  8
Default
100
AcDbSpline
210
0.0
220
0.0
230
1.0
 70
     8
 71
     3
 72
     8
 73
     4
 74
     0
 42
0.0000000001
 43
0.0000000001
 40
0.0
 40
0.0
 40
0.0
 40
0.0
 40
1.0
 40
1.0
 40
1.0
 40
1.0
 10
821.3921234176917
 20
185.5647806014148
 30
0.0
 10
820.6539412859972
 20
185.011144002644
 30
0.0
 10
819.7312136213793
 20
184.7343257032585
 30
0.0
 10
818.6239404238377
 20
184.7343257032585
 30
0.0
  0
SPLINE
  5
326
330
1F
100
AcDbEntity
  8
Default
100
AcDbSpline
210
0.0
220
0.0
230
1.0
 70
     8
 71
     3
 72
     8
 73
     4
 74
     0
 42
0.0000000001
 43
0.0000000001
 40
0.0
 40
0.0
 40
0.0
 40
0.0
 40
1.0
 40
1.0
 40
1.0
 40
1.0
 10
818.6239404238377
 20
184.7343257032585
 30
0.0
 10
817.1475761604488
 20
184.7343257032585
 30
0.0
 10
816.0403029629073
 20
185.1956895355676
 30
0.0
 10
815.1175752982892
 20
186.3029627331092
 30
0.0
  0
SPLINE
  5
327
330
1F
100
AcDbEntity
  8
Default
100
AcDbSpline
210
0.0
220
0.0
230
1.0
 70
     8
 71
     3
 72
     8
 73
     4
 74
     0
 42
0.0000000001
 43
0.0000000001
 40
0.0
 40
0.0
 40
0.0
 40
0.0
 40
1.0
 40
1.0
 40
1.0
 40
1.0
 10
815.1175752982892
 20
186.3029627331092
 30
0.0
 10
814.1948476336712
 20
187.5947814635744
 30
0.0
 10
813.6412110349004
 20
189.624782325734
 30
0.0
 10
813.6412110349004
 20
192.4852380860498
 30
0.0
  0
SPLINE
  5
328
330
1F
100
AcDbEntity
  8
Default
100
AcDbSpline
210
0.0
220
0.0
230
1.0
 70
     8
 71
     3
 72
     8
 73
     4
 74
     0
 42
0.0000000001
 43
0.0000000001
 40
0.0
 40
0.0
 40
0.0
 40
0.0
 40
1.0
 40
1.0
 40
1.0
 40
1.0
 10
815.4866663641365
 20
192.4852380860498
 30
0.0
 10
815.4866663641365
 20
189.9938733915812
 30
0.0
 10
815.7634846635218
 20
188.3329635952688
 30
0.0
 10
816.4093940287545
 20
187.5025086971126
 30
0.0
  0
SPLINE
  5
329
330
1F
100
AcDbEntity
  8
Default
100
AcDbSpline
210
0.0
220
0.0
230
1.0
 70
     8
 71
     3
 72
     8
 73
     4
 74
     0
 42
0.0000000001
 43
0.0000000001
 40
0.0
 40
0.0
 40
0.0
 40
0.0
 40
1.0
 40
1.0
 40
1.0
 40
1.0
 10
816.4093940287545
 20
187.5025086971126
 30
0.0
 10
816.9630306275252
 20
186.6720537989564
 30
0.0
 10
817.7012127592196
 20
186.3029627331092
 30
0.0
 10
818.6239404238377
 20
186.3029627331092
 30
0.0
  0
SPLINE
  5
32A
330
1F
100
AcDbEntity
  8
Default
100
AcDbSpline
210
0.0
220
0.0
230
1.0
 70
     8
 71
     3
 72
     8
 73
     4
 74
     0
 42
0.0000000001
 43
0.0000000001
 40
0.0
 40
0.0
 40
0.0
 40
0.0
 40
1.0
 40
1.0
 40
1.0
 40
1.0
 10
818.6239404238377
 20
186.3029627331092
 30
0.0
 10
819.5466680884557
 20
186.3029627331092
 30
0.0
 10
820.28485022015
 20
186.6720537989564
 30
0.0
 10
820.8384868189208
 20
187.5025086971126
 30
0.0
  0
SPLINE
  5
32B
330
1F
100
AcDbEntity
  8
Default
100
AcDbSpline
210
0.0
220
0.0
230
1.0
 70
     8
 71
     3
 72
     8
 73
     4
 74
     0
 42
0.0000000001
 43
0.0000000001
 40
0.0
 40
0.0
 40
0.0
 40
0.0
 40
1.0
 40
1.0
 40
1.0
 40
1.0
 10
820.8384868189208
 20
187.5025086971126
 30
0.0
 10
821.4843961841535
 20
188.3329635952688
 30
0.0
 10
821.7612144835389
 20
189.9938733915812
 30
0.0
 10
821.7612144835389
 20
192.4852380860498
 30
0.0
  0
SPLINE
  5
32C
330
1F
100
AcDbEntity
  8
Default
100
AcDbSpline
210
0.0
220
0.0
230
1.0
 70
     8
 71
     3
 72
     8
 73
     4
 74
     0
 42
0.0000000001
 43
0.0000000001
 40
0.0
 40
0.0
 40
0.0
 40
0.0
 40
1.0
 40
1.0
 40
1.0
 40
1.0
 10
821.7612144835389
 20
192.4852380860498
 30
0.0
 10
821.7612144835389
 20
195.0688755469802
 30
0.0
 10
821.4843961841535
 20
196.7297853432926
 30
0.0
 10
820.8384868189208
 20
197.5602402414488
 30
0.0
  0
SPLINE
  5
32D
330
1F
100
AcDbEntity
  8
Default
100
AcDbSpline
210
0.0
220
0.0
230
1.0
 70
     8
 71
     3
 72
     8
 73
     4
 74
     0
 42
0.0000000001
 43
0.0000000001
 40
0.0
 40
0.0
 40
0.0
 40
0.0
 40
1.0
 40
1.0
 40
1.0
 40
1.0
 10
820.8384868189208
 20
197.5602402414488
 30
0.0
 10
820.28485022015
 20
198.2984223731433
 30
0.0
 10
819.5466680884557
 20
198.7597862054523
 30
0.0
 10
818.6239404238377
 20
198.7597862054523
 30
0.0
  0
SPLINE
  5
32E
330
1F
100
AcDbEntity
  8
Default
100
AcDbSpline
210
0.0
220
0.0
230
1.0
 70
     8
 71
     3
 72
     8
 73
     4
 74
     0
 42
0.0000000001
 43
0.0000000001
 40
0.0
 40
0.0
 40
0.0
 40
0.0
 40
1.0
 40
1.0
 40
1.0
 40
1.0
 10
818.6239404238377
 20
198.7597862054523
 30
0.0
 10
817.7012127592196
 20
198.7597862054523
 30
0.0
 10
816.9630306275252
 20
198.390695139605
 30
0.0
 10
816.5016667952162
 20
197.6525130079106
 30
0.0
  0
SPLINE
  5
32F
330
1F
100
AcDbEntity
  8
Default
100
AcDbSpline
210
0.0
220
0.0
230
1.0
 70
     8
 71
     3
 72
     8
 73
     4
 74
     0
 42
0.0000000001
 43
0.0000000001
 40
0.0
 40
0.0
 40
0.0
 40
0.0
 40
1.0
 40
1.0
 40
1.0
 40
1.0
 10
816.5016667952162
 20
197.6525130079106
 30
0.0
 10
815.8557574299837
 20
196.7297853432926
 30
0.0
 10
815.4866663641365
 20
194.9766027805184
 30
0.0
 10
815.4866663641365
 20
192.4852380860498
 30
0.0
  0
SPLINE
  5
330
330
1F
100
AcDbEntity
  8
Default
100
AcDbSpline
210
0.0
220
0.0
230
1.0
 70
     8
 71
     3
 72
     8
 73
     4
 74
     0
 42
0.0000000001
 43
0.0000000001
 40
0.0
 40
0.0
 40
0.0
 40
0.0
 40
1.0
 40
1.0
 40
1.0
 40
1.0
 10
825.4521251420109
 20
192.4852380860498
 30
0.0
 10
825.4521251420109
 20
194.3306934152858
 30
0.0
 10
825.6366706749345
 20
195.8070576786747
 30
0.0
 10
826.0057617407817
 20
196.9143308762162
 30
0.0
  0
SPLINE
  5
331
330
1F
100
AcDbEntity
  8
Default
100
AcDbSpline
210
0.0
220
0.0
230
1.0
 70
     8
 71
     3
 72
     8
 73
     4
 74
     0
 42
0.0000000001
 43
0.0000000001
 40
0.0
 40
0.0
 40
0.0
 40
0.0
 40
1.0
 40
1.0
 40
1.0
 40
1.0
 10
826.0057617407817
 20
196.9143308762162
 30
0.0
 10
826.374852806629
 20
198.0216040737579
 30
0.0
 10
826.9284894053997
 20
198.8520589719141
 30
0.0
 10
827.6666715370941
 20
199.4056955706849
 30
0.0
  0
SPLINE
  5
332
330
1F
100
AcDbEntity
  8
Default
100
AcDbSpline
210
0.0
220
0.0
230
1.0
 70
     8
 71
     3
 72
     8
 73
     4
 74
     0
 42
0.0000000001
 43
0.0000000001
 40
0.0
 40
0.0
 40
0.0
 40
0.0
 40
1.0
 40
1.0
 40
1.0
 40
1.0
 10
827.6666715370941
 20
199.4056955706849
 30
0.0
 10
828.4048536687885
 20
200.0516049359175
 30
0.0
 10
829.3275813334066
 20
200.3284232353029
 30
0.0
 10
830.4348545309481
 20
200.3284232353029
 30
0.0
  0
SPLINE
  5
333
330
1F
100
AcDbEntity
  8
Default
100
AcDbSpline
210
0.0
220
0.0
230
1.0
 70
     8
 71
     3
 72
     8
 73
     4
 74
     0
 42
0.0000000001
 43
0.0000000001
 40
0.0
 40
0.0
 40
0.0
 40
0.0
 40
1.0
 40
1.0
 40
1.0
 40
1.0
 10
830.4348545309481
 20
200.3284232353029
 30
0.0
 10
831.2653094291044
 20
200.3284232353029
 30
0.0
 10
832.0034915607987
 20
200.1438777023793
 30
0.0
 10
832.6494009260314
 20
199.8670594029939
 30
0.0
  0
SPLINE
  5
334
330
1F
100
AcDbEntity
  8
Default
100
AcDbSpline
210
0.0
220
0.0
230
1.0
 70
     8
 71
     3
 72
     8
 73
     4
 74
     0
 42
0.0000000001
 43
0.0000000001
 40
0.0
 40
0.0
 40
0.0
 40
0.0
 40
1.0
 40
1.0
 40
1.0
 40
1.0
 10
832.6494009260314
 20
199.8670594029939
 30
0.0
 10
833.295310291264
 20
199.4979683371467
 30
0.0
 10
833.756674123573
 20
199.0366045048377
 30
0.0
 10
834.1257651894201
 20
198.390695139605
 30
0.0
  0
SPLINE
  5
335
330
1F
100
AcDbEntity
  8
Default
100
AcDbSpline
210
0.0
220
0.0
230
1.0
 70
     8
 71
     3
 72
     8
 73
     4
 74
     0
 42
0.0000000001
 43
0.0000000001
 40
0.0
 40
0.0
 40
0.0
 40
0.0
 40
1.0
 40
1.0
 40
1.0
 40
1.0
 10
834.1257651894201
 20
198.390695139605
 30
0.0
 10
834.4948562552673
 20
197.7447857743724
 30
0.0
 10
834.8639473211146
 20
197.006603642678
 30
0.0
 10
835.0484928540382
 20
196.08387597806
 30
0.0
  0
SPLINE
  5
336
330
1F
100
AcDbEntity
  8
Default
100
AcDbSpline
210
0.0
220
0.0
230
1.0
 70
     8
 71
     3
 72
     8
 73
     4
 74
     0
 42
0.0000000001
 43
0.0000000001
 40
0.0
 40
0.0
 40
0.0
 40
0.0
 40
1.0
 40
1.0
 40
1.0
 40
1.0
 10
835.0484928540382
 20
196.08387597806
 30
0.0
 10
835.3253111534236
 20
195.2534210799038
 30
0.0
 10
835.4175839198854
 20
194.0538751159004
 30
0.0
 10
835.4175839198854
 20
192.4852380860498
 30
0.0
  0
SPLINE
  5
337
330
1F
100
AcDbEntity
  8
Default
100
AcDbSpline
210
0.0
220
0.0
230
1.0
 70
     8
 71
     3
 72
     8
 73
     4
 74
     0
 42
0.0000000001
 43
0.0000000001
 40
0.0
 40
0.0
 40
0.0
 40
0.0
 40
1.0
 40
1.0
 40
1.0
 40
1.0
 10
835.4175839198854
 20
192.4852380860498
 30
0.0
 10
835.4175839198854
 20
190.7320555232756
 30
0.0
 10
835.2330383869618
 20
189.2556912598868
 30
0.0
 10
834.8639473211146
 20
188.1484180623452
 30
0.0
  0
SPLINE
  5
338
330
1F
100
AcDbEntity
  8
Default
100
AcDbSpline
210
0.0
220
0.0
230
1.0
 70
     8
 71
     3
 72
     8
 73
     4
 74
     0
 42
0.0000000001
 43
0.0000000001
 40
0.0
 40
0.0
 40
0.0
 40
0.0
 40
1.0
 40
1.0
 40
1.0
 40
1.0
 10
834.8639473211146
 20
188.1484180623452
 30
0.0
 10
834.4948562552673
 20
187.0411448648036
 30
0.0
 10
833.9412196564965
 20
186.2106899666474
 30
0.0
 10
833.2030375248022
 20
185.5647806014148
 30
0.0
  0
SPLINE
  5
339
330
1F
100
AcDbEntity
  8
Default
100
AcDbSpline
210
0.0
220
0.0
230
1.0
 70
     8
 71
     3
 72
     8
 73
     4
 74
     0
 42
0.0000000001
 43
0.0000000001
 40
0.0
 40
0.0
 40
0.0
 40
0.0
 40
1.0
 40
1.0
 40
1.0
 40
1.0
 10
833.2030375248022
 20
185.5647806014148
 30
0.0
 10
832.4648553931078
 20
185.011144002644
 30
0.0
 10
831.5421277284897
 20
184.7343257032585
 30
0.0
 10
830.4348545309481
 20
184.7343257032585
 30
0.0
  0
SPLINE
  5
33A
330
1F
100
AcDbEntity
  8
Default
100
AcDbSpline
210
0.0
220
0.0
230
1.0
 70
     8
 71
     3
 72
     8
 73
     4
 74
     0
 42
0.0000000001
 43
0.0000000001
 40
0.0
 40
0.0
 40
0.0
 40
0.0
 40
1.0
 40
1.0
 40
1.0
 40
1.0
 10
830.4348545309481
 20
184.7343257032585
 30
0.0
 10
828.9584902675593
 20
184.7343257032585
 30
0.0
 10
827.8512170700177
 20
185.1956895355676
 30
0.0
 10
826.9284894053997
 20
186.3029627331092
 30
0.0
  0
SPLINE
  5
33B
330
1F
100
AcDbEntity
  8
Default
100
AcDbSpline
210
0.0
220
0.0
230
1.0
 70
     8
 71
     3
 72
     8
 73
     4
 74
     0
 42
0.0000000001
 43
0.0000000001
 40
0.0
 40
0.0
 40
0.0
 40
0.0
 40
1.0
 40
1.0
 40
1.0
 40
1.0
 10
826.9284894053997
 20
186.3029627331092
 30
0.0
 10
826.0057617407817
 20
187.5947814635744
 30
0.0
 10
825.4521251420109
 20
189.624782325734
 30
0.0
 10
825.4521251420109
 20
192.4852380860498
 30
0.0
  0
SPLINE
  5
33C
330
1F
100
AcDbEntity
  8
Default
100
AcDbSpline
210
0.0
220
0.0
230
1.0
 70
     8
 71
     3
 72
     8
 73
     4
 74
     0
 42
0.0000000001
 43
0.0000000001
 40
0.0
 40
0.0
 40
0.0
 40
0.0
 40
1.0
 40
1.0
 40
1.0
 40
1.0
 10
827.2975804712469
 20
192.4852380860498
 30
0.0
 10
827.2975804712469
 20
189.9938733915812
 30
0.0
 10
827.5743987706323
 20
188.3329635952688
 30
0.0
 10
828.2203081358649
 20
187.5025086971126
 30
0.0
  0
SPLINE
  5
33D
330
1F
100
AcDbEntity
  8
Default
100
AcDbSpline
210
0.0
220
0.0
230
1.0
 70
     8
 71
     3
 72
     8
 73
     4
 74
     0
 42
0.0000000001
 43
0.0000000001
 40
0.0
 40
0.0
 40
0.0
 40
0.0
 40
1.0
 40
1.0
 40
1.0
 40
1.0
 10
828.2203081358649
 20
187.5025086971126
 30
0.0
 10
828.7739447346357
 20
186.6720537989564
 30
0.0
 10
829.5121268663302
 20
186.3029627331092
 30
0.0
 10
830.4348545309481
 20
186.3029627331092
 30
0.0
  0
SPLINE
  5
33E
330
1F
100
AcDbEntity
  8
Default
100
AcDbSpline
210
0.0
220
0.0
230
1.0
 70
     8
 71
     3
 72
     8
 73
     4
 74
     0
 42
0.0000000001
 43
0.0000000001
 40
0.0
 40
0.0
 40
0.0
 40
0.0
 40
1.0
 40
1.0
 40
1.0
 40
1.0
 10
830.4348545309481
 20
186.3029627331092
 30
0.0
 10
831.3575821955661
 20
186.3029627331092
 30
0.0
 10
832.0957643272606
 20
186.6720537989564
 30
0.0
 10
832.6494009260314
 20
187.5025086971126
 30
0.0
  0
SPLINE
  5
33F
330
1F
100
AcDbEntity
  8
Default
100
AcDbSpline
210
0.0
220
0.0
230
1.0
 70
     8
 71
     3
 72
     8
 73
     4
 74
     0
 42
0.0000000001
 43
0.0000000001
 40
0.0
 40
0.0
 40
0.0
 40
0.0
 40
1.0
 40
1.0
 40
1.0
 40
1.0
 10
832.6494009260314
 20
187.5025086971126
 30
0.0
 10
833.295310291264
 20
188.3329635952688
 30
0.0
 10
833.5721285906494
 20
189.9938733915812
 30
0.0
 10
833.5721285906494
 20
192.4852380860498
 30
0.0
  0
SPLINE
  5
340
330
1F
100
AcDbEntity
  8
Default
100
AcDbSpline
210
0.0
220
0.0
230
1.0
 70
     8
 71
     3
 72
     8
 73
     4
 74
     0
 42
0.0000000001
 43
0.0000000001
 40
0.0
 40
0.0
 40
0.0
 40
0.0
 40
1.0
 40
1.0
 40
1.0
 40
1.0
 10
833.5721285906494
 20
192.4852380860498
 30
0.0
 10
833.5721285906494
 20
195.0688755469802
 30
0.0
 10
833.295310291264
 20
196.7297853432926
 30
0.0
 10
832.6494009260314
 20
197.5602402414488
 30
0.0
  0
SPLINE
  5
341
330
1F
100
AcDbEntity
  8
Default
100
AcDbSpline
210
0.0
220
0.0
230
1.0
 70
     8
 71
     3
 72
     8
 73
     4
 74
     0
 42
0.0000000001
 43
0.0000000001
 40
0.0
 40
0.0
 40
0.0
 40
0.0
 40
1.0
 40
1.0
 40
1.0
 40
1.0
 10
832.6494009260314
 20
197.5602402414488
 30
0.0
 10
832.0957643272606
 20
198.2984223731433
 30
0.0
 10
831.3575821955661
 20
198.7597862054523
 30
0.0
 10
830.4348545309481
 20
198.7597862054523
 30
0.0
  0
SPLINE
  5
342
330
1F
100
AcDbEntity
  8
Default
100
AcDbSpline
210
0.0
220
0.0
230
1.0
 70
     8
 71
     3
 72
     8
 73
     4
 74
     0
 42
0.0000000001
 43
0.0000000001
 40
0.0
 40
0.0
 40
0.0
 40
0.0
 40
1.0
 40
1.0
 40
1.0
 40
1.0
 10
830.4348545309481
 20
198.7597862054523
 30
0.0
 10
829.5121268663302
 20
198.7597862054523
 30
0.0
 10
828.7739447346357
 20
198.390695139605
 30
0.0
 10
828.3125809023268
 20
197.6525130079106
 30
0.0
  0
SPLINE
  5
343
330
1F
100
AcDbEntity
  8
Default
100
AcDbSpline
210
0.0
220
0.0
230
1.0
 70
     8
 71
     3
 72
     8
 73
     4
 74
     0
 42
0.0000000001
 43
0.0000000001
 40
0.0
 40
0.0
 40
0.0
 40
0.0
 40
1.0
 40
1.0
 40
1.0
 40
1.0
 10
828.3125809023268
 20
197.6525130079106
 30
0.0
 10
827.6666715370941
 20
196.7297853432926
 30
0.0
 10
827.2975804712469
 20
194.9766027805184
 30
0.0
 10
827.2975804712469
 20
192.4852380860498
 30
0.0
  0
ARC
  5
344
330
1F
100
AcDbEntity
  8
Default
100
AcDbCircle
 10
446.2760614099192
 20
-78.20329842575708
 30
0.0
 40
6.0
100
AcDbArc
 50
271.0000000000018
 51
0.0000000000018999
  0
LINE
  5
345
330
1F
100
AcDbEntity
  8
Default
100
AcDbLine
 10
452.2760614099192
 20
-78.20329842575688
 30
0.0
 11
452.2760614099192
 21
7.201401574242936
 31
0.0
  0
ARC
  5
346
330
1F
100
AcDbEntity
  8
Default
100
AcDbCircle
 10
446.2760614099192
 20
7.201401574242936
 30
0.0
 40
6.0
100
AcDbArc
 50
0.0
 51
24.18319100000006
  0
SPLINE
  5
347
330
1F
100
AcDbEntity
  8
Default
100
AcDbSpline
210
0.0
220
0.0
230
1.0
 70
    12
 71
     2
 72
     6
 73
     3
 74
     0
 42
0.0000000001
 43
0.0000000001
 40
2.026776889121583
 40
2.026776889121583
 40
2.026776889121583
 40
3.141572810189948
 40
3.141572810189948
 40
3.141572810189948
 10
451.7495034320419
 20
9.659334126300017
 30
0.0
 41
0.8793161963335
 10
450.4439853592178
 20
12.55212633318833
 30
0.0
 41
0.7921312048177871
 10
447.2768186116575
 20
12.60746609734836
 30
0.0000000000000004
 41
0.9999926000287467
  0
SPLINE
  5
348
330
1F
100
AcDbEntity
  8
Default
100
AcDbSpline
210
1.099964176481438E-10
220
6.301684152990679E-9
230
-1.0
 70
     8
 71
     3
 72
    18
 73
    14
 74
     0
 42
0.0000000001
 43
0.0000000001
 40
-1.0
 40
-1.0
 40
-1.0
 40
-1.0
 40
-0.9919790644028409
 40
-0.9919790644028409
 40
-0.4959895322014205
 40
-0.4959895322014205
 40
-0.2479947661007104
 40
-0.2479947661007104
 40
-0.1239973830503553
 40
-0.1239973830503553
 40
-0.0619986915251777
 40
-0.0619986915251777
 40
0.0
 40
0.0
 40
0.0
 40
0.0
 10
447.2768186116575
 20
12.60746609734836
 30
0.0000000000000004
 10
447.2768265408983
 20
12.60746602241783
 30
0.0000000000000008
 10
447.2768301114741
 20
12.60746596009321
 30
0.0000000000000008
 10
447.2767906683772
 20
12.60746664857504
 30
0.0000000000000008
 10
447.2607250933019
 20
12.60774707423104
 30
0.0000000000000008
 10
447.1556495668896
 20
12.60958117436689
 30
0.0000000000000008
 10
447.1078758101768
 20
12.61041506839223
 30
0.0000000000000008
 10
446.9752080659953
 20
12.61273079248082
 30
0.0000000000000008
 10
446.9216715705421
 20
12.613665275485
 30
0.0000000000000008
 10
446.8002094047223
 20
12.61578540547561
 30
0.0000000000000008
 10
446.7532718166339
 20
12.61660470412335
 30
0.0000000000000008
 10
446.623120447858
 20
12.61887650471579
 30
0.0000000000000008
 10
446.5345268135764
 20
12.62042291235446
 30
0.0000000000000008
 10
446.3807761407471
 20
12.62310664033146
 30
0.0000000000000007
  0
SPLINE
  5
349
330
1F
100
AcDbEntity
  8
Default
100
AcDbSpline
210
0.0
220
0.0
230
1.0
 70
    24
 71
     3
 72
    10
 73
     6
 74
     0
 42
0.0000000001
 43
0.0000000001
 40
-1.0
 40
-1.0
 40
-1.0
 40
-1.0
 40
-0.0320415987386918
 40
-0.0320415987386918
 40
0.0
 40
0.0
 40
0.0
 40
0.0
 10
446.3807761407471
 20
12.62310664033146
 30
0.0000000000000007
 10
441.3458713432971
 20
12.71099123047833
 30
0.0000000000000004
 10
436.3109665303526
 20
12.79887582089566
 30
0.0000000000000001
 10
431.1093950354735
 20
12.88966958906752
 30
-0.0000000000000002
 10
430.9427283688068
 20
12.89257876655552
 30
-0.0000000000000002
 10
430.7760617021234
 20
12.89548794404391
 30
-0.0000000000000002
  0
LINE
  5
34A
330
1F
100
AcDbEntity
  8
Default
100
AcDbLine
 10
430.7760617021234
 20
12.89548794404391
 30
-0.0000000000000002
 11
430.7760614099192
 21
12.82984857424293
 31
0.0
  0
LINE
  5
34B
330
1F
100
AcDbEntity
  8
Default
100
AcDbLine
 10
430.7760614099192
 20
12.82984857424293
 30
0.0
 11
430.7760614099192
 21
-84.47476542575708
 31
0.0
  0
LINE
  5
34C
330
1F
100
AcDbEntity
  8
Default
100
AcDbLine
 10
430.7760614099192
 20
-84.47476542575708
 30
0.0
 11
431.8856942179167
 21
-84.45539301561217
 31
-0.0
  0
SPLINE
  5
34D
330
1F
100
AcDbEntity
  8
Default
100
AcDbSpline
210
0.0
220
0.0
230
1.0
 70
     8
 71
     3
 72
    10
 73
     6
 74
     0
 42
0.0000000001
 43
0.0000000001
 40
-1.0
 40
-1.0
 40
-1.0
 40
-1.0
 40
-0.7066884229159515
 40
-0.7066884229159515
 40
0.0
 40
0.0
 40
0.0
 40
0.0
 10
431.8856942179167
 20
-84.45539301561217
 30
-0.0
 10
431.8940143032996
 20
-84.45462643316935
 30
-0.0000000000000001
 10
431.9078123538241
 20
-84.45391471475483
 30
-0.0000000000000001
 10
431.9731673653764
 20
-84.45057223747068
 30
-0.0000000000000001
 10
432.0518009863382
 20
-84.44659497076148
 30
-0.0000000000000001
 10
434.0987647370398
 20
-84.41229941280784
 30
-0.0
  0
LINE
  5
34E
330
1F
100
AcDbEntity
  8
Default
100
AcDbLine
 10
434.0987647370398
 20
-84.41229941280784
 30
-0.0
 11
446.3807764099192
 21
-84.20238442575709
 31
0.0
  0
LINE
  5
34F
330
1F
100
AcDbEntity
  8
Default
100
AcDbLine
 10
446.3807764099192
 20
-84.20238442575709
 30
0.0
 11
446.3807763544851
 21
12.55705853704961
 31
0.0
  0
SPLINE
  5
350
330
1F
100
AcDbEntity
  8
Default
100
AcDbSpline
210
0.0
220
0.0
230
1.0
 70
    12
 71
     2
 72
     6
 73
     3
 74
     0
 42
0.0000000001
 43
0.0000000001
 40
2.966387332535249
 40
2.966387332535249
 40
2.966387332535249
 40
3.141592653589793
 40
3.141592653589793
 40
3.141592653589793
 10
446.3807763544851
 20
12.55705853704961
 30
0.0
 41
0.9419496414491052
 10
446.3813564661165
 20
12.62309692566804
 30
0.0
 41
0.9673309420790697
 10
446.3807764421076
 20
12.62310705002483
 30
0.0
 41
1.0
  0
LINE
  5
351
330
1F
100
AcDbEntity
  8
Default
  6
Continuous
370
    13
100
AcDbLine
 10
431.8533694099192
 20
-84.45457842575709
 30
0.0
 11
431.8536134099191
 21
-84.45500042575708
 31
0.0
  0
POLYLINE
  5
352
330
1F
100
AcDbEntity
  8
Default
100
AcDb2dPolyline
 66
     1
 10
0.0
 20
0.0
 30
0.0
  0
VERTEX
  5
353
330
352
100
AcDbEntity
  8
Default
100
AcDbVertex
100
AcDb2dVertex
 10
430.7760614099192
 20
12.49905157424291
 30
0.0
  0
VERTEX
  5
354
330
352
100
AcDbEntity
  8
Default
100
AcDbVertex
100
AcDb2dVertex
 10
428.7760614099192
 20
12.49905157424291
 30
0.0
  0
VERTEX
  5
355
330
352
100
AcDbEntity
  8
Default
100
AcDbVertex
100
AcDb2dVertex
 10
428.7760614099192
 20
-83.50094842575709
 30
0.0
  0
VERTEX
  5
356
330
352
100
AcDbEntity
  8
Default
100
AcDbVertex
100
AcDb2dVertex
 10
430.7760614099192
 20
-83.50094842575709
 30
0.0
  0
SEQEND
  5
357
330
352
100
AcDbEntity
  8
Default
  0
POLYLINE
  5
358
330
1F
100
AcDbEntity
  8
Default
370
   100
100
AcDb2dPolyline
 66
     1
 10
0.0
 20
0.0
 30
0.0
  0
VERTEX
  5
359
330
358
100
AcDbEntity
  8
Default
370
   100
100
AcDbVertex
100
AcDb2dVertex
 10
507.4488329686425
 20
8.499051574242912
 30
0.0
  0
VERTEX
  5
35A
330
358
100
AcDbEntity
  8
Default
370
   100
100
AcDbVertex
100
AcDb2dVertex
 10
521.1032898511959
 20
8.499051574242912
 30
0.0
  0
SEQEND
  5
35B
330
358
100
AcDbEntity
  8
Default
370
   100
  0
LINE
  5
35C
330
1F
100
AcDbEntity
  8
Default
  6
Continuous
370
    18
100
AcDbLine
 10
451.7567704099192
 20
9.643138574242926
 30
0.0
 11
451.7570964099192
 21
9.64235657424291
 31
0.0
  0
SPLINE
  5
35D
330
1F
100
AcDbEntity
  8
Default
  6
Continuous
370
    18
100
AcDbSpline
210
0.0
220
0.0
230
1.0
 70
     8
 71
     3
 72
    19
 73
    15
 74
     0
 42
0.0000000001
 43
0.0000000001
 40
0.0
 40
0.0
 40
0.0
 40
0.0
 40
0.0122321123180294
 40
0.06834547118474
 40
0.0985840444781038
 40
0.1453457433546267
 40
0.2064670136773549
 40
0.3229807382713394
 40
0.437727251211852
 40
0.5413693860946566
 40
0.6565692926575559
 40
0.7768244509450349
 40
0.8993071833441489
 40
1.0
 40
1.0
 40
1.0
 40
1.0
 10
502.0054017873592
 20
-30.61530893792457
 30
0.0000000000000041
 10
502.0065066657441
 20
-30.61511526735501
 30
0.0000000000000041
 10
502.0163494853942
 20
-30.61371806881209
 30
0.0000000000000041
 10
502.0579495929206
 20
-30.60791296720561
 30
0.0000000000000042
 10
502.1690845061754
 20
-30.5983403243232
 30
0.0000000000000042
 10
502.3296557895058
 20
-30.59405312230444
 30
0.0000000000000042
 10
502.5976714149971
 20
-30.6136461213606
 30
0.0000000000000042
 10
502.9450385607462
 20
-30.69595448497449
 30
0.0000000000000042
 10
503.3135167979179
 20
-30.87132015501339
 30
0.0000000000000042
 10
503.6386739417002
 20
-31.11460684446456
 30
0.0000000000000042
 10
503.9145359779231
 20
-31.42299481835909
 30
0.0000000000000043
 10
504.1286847496273
 20
-31.8028374782001
 30
0.0000000000000043
 10
504.254116680671
 20
-32.20493687940478
 30
0.0000000000000043
 10
504.2706793563054
 20
-32.47375104758328
 30
0.0000000000000043
 10
504.2661664378983
 20
-32.59764535787451
 30
0.0000000000000043
  0
LINE
  5
35E
330
1F
100
AcDbEntity
  8
Default
  6
Continuous
370
    13
100
AcDbLine
 10
505.0058134099192
 20
-29.50686042575705
 30
0.0
 11
503.1517644099192
 21
-29.50686042575705
 31
0.0
  0
LINE
  5
35F
330
1F
100
AcDbEntity
  8
Default
  6
Continuous
370
    13
100
AcDbLine
 10
505.0058134099192
 20
-6.000948425757088
 30
0.0
 11
505.0058134099192
 21
-29.50686042575705
 31
0.0
  0
POLYLINE
  5
360
330
1F
100
AcDbEntity
  8
Default
100
AcDb2dPolyline
 66
     1
 10
0.0
 20
0.0
 30
0.0
  0
VERTEX
  5
361
330
360
100
AcDbEntity
  8
Default
100
AcDbVertex
100
AcDb2dVertex
 10
457.4959814099192
 20
-50.50094842575709
 30
0.0
  0
VERTEX
  5
362
330
360
100
AcDbEntity
  8
Default
100
AcDbVertex
100
AcDb2dVertex
 10
457.4959814099192
 20
-51.50094842575709
 30
0.0
  0
SEQEND
  5
363
330
360
100
AcDbEntity
  8
Default
  0
ARC
  5
364
330
1F
100
AcDbEntity
  8
Default
100
AcDbCircle
 10
514.3760614099192
 20
-33.60094842575711
 30
0.0
 40
9.9
100
AcDbArc
 50
270.0
 51
0.0
  0
LINE
  5
365
330
1F
100
AcDbEntity
  8
Default
100
AcDbLine
 10
514.3760614099192
 20
-43.50094842575711
 30
0.0
 11
514.1760614099192
 21
-43.50094842575711
 31
0.0
  0
ARC
  5
366
330
1F
100
AcDbEntity
  8
Default
100
AcDbCircle
 10
514.1760614099192
 20
-33.60094842575711
 30
0.0
 40
9.9
100
AcDbArc
 50
180.0
 51
270.0
  0
LINE
  5
367
330
1F
100
AcDbEntity
  8
Default
100
AcDbLine
 10
504.2760614099192
 20
-33.60094842575711
 30
0.0
 11
524.2760614099192
 21
-33.60094842575711
 31
0.0
  0
POLYLINE
  5
368
330
1F
100
AcDbEntity
  8
Default
100
AcDb2dPolyline
 66
     1
 10
0.0
 20
0.0
 30
0.0
  0
VERTEX
  5
369
330
368
100
AcDbEntity
  8
Default
100
AcDbVertex
100
AcDb2dVertex
 10
524.2760614099192
 20
-33.60094842575711
 30
0.0
  0
VERTEX
  5
36A
330
368
100
AcDbEntity
  8
Default
100
AcDbVertex
100
AcDb2dVertex
 10
524.2760614099192
 20
7.499051574242912
 30
0.0
  0
SEQEND
  5
36B
330
368
100
AcDbEntity
  8
Default
  0
ARC
  5
36C
330
1F
100
AcDbEntity
  8
Default
100
AcDbCircle
 10
523.2760614099192
 20
7.499051574242912
 30
0.0
 40
1.0
100
AcDbArc
 50
0.0
 51
90.0
  0
LINE
  5
36D
330
1F
100
AcDbEntity
  8
Default
100
AcDbLine
 10
523.2760614099192
 20
8.499051574242912
 30
0.0
 11
505.2760614099192
 21
8.499051574242912
 31
0.0
  0
ARC
  5
36E
330
1F
100
AcDbEntity
  8
Default
100
AcDbCircle
 10
505.2760614099192
 20
7.499051574242912
 30
0.0
 40
1.0
100
AcDbArc
 50
90.0
 51
180.0
  0
LINE
  5
36F
330
1F
100
AcDbEntity
  8
Default
100
AcDbLine
 10
504.2760614099192
 20
7.499051574242912
 30
0.0
 11
504.2712025438648
 21
-1.539700040568135
 31
0.0000000000000021
  0
SPLINE
  5
370
330
1F
100
AcDbEntity
  8
Default
100
AcDbSpline
210
0.0
220
0.0
230
1.0
 70
     8
 71
     3
 72
    15
 73
    11
 74
     0
 42
0.0000000001
 43
0.0000000001
 40
0.0
 40
0.0
 40
0.0
 40
0.0
 40
0.0637640900701389
 40
0.1915508151149177
 40
0.3189340700248516
 40
0.4524299635122979
 40
0.593297627582373
 40
0.737360295463254
 40
0.8936444645506292
 40
1.0
 40
1.0
 40
1.0
 40
1.0
 10
504.2712025438648
 20
-1.539700040568135
 30
0.0000000000000021
 10
504.2692875102431
 20
-1.605874598735806
 30
0.0000000000000043
 10
504.2661602967527
 20
-1.802237105066687
 30
0.0000000000000043
 10
504.1886161576914
 20
-2.124447247287776
 30
0.0000000000000043
 10
504.0295313934469
 20
-2.492230354940716
 30
0.0000000000000043
 10
503.7894342944795
 20
-2.831655889269314
 30
0.0000000000000043
 10
503.4711014648875
 20
-3.125449141468494
 30
0.0000000000000042
 10
503.0760417002878
 20
-3.353163542767277
 30
0.0000000000000042
 10
502.6713235062966
 20
-3.479157937182335
 30
0.0000000000000042
 10
502.4030028633728
 20
-3.495587567362888
 30
0.0000000000000042
 10
502.29212578274
 20
-3.496786585339919
 30
0.0000000000000021
  0
LINE
  5
371
330
1F
100
AcDbEntity
  8
Default
100
AcDbLine
 10
502.29212578274
 20
-3.496786585339919
 30
0.0000000000000021
 11
453.2760614099192
 21
-3.500948425757088
 31
0.0
  0
LINE
  5
372
330
1F
100
AcDbEntity
  8
Default
100
AcDbLine
 10
453.2760614099192
 20
-3.500948425757088
 30
0.0
 11
453.2760614099192
 21
-6.000948425757088
 31
0.0
  0
LINE
  5
373
330
1F
100
AcDbEntity
  8
Default
100
AcDbLine
 10
453.2760614099192
 20
-6.000948425757088
 30
0.0
 11
503.1517641906995
 21
-6.00094828304492
 31
0.0000000000000021
  0
SPLINE
  5
374
330
1F
100
AcDbEntity
  8
Default
100
AcDbSpline
210
0.0
220
0.0
230
1.0
 70
     8
 71
     3
 72
    16
 73
    12
 74
     0
 42
0.0000000001
 43
0.0000000001
 40
0.0
 40
0.0
 40
0.0
 40
0.0
 40
0.2014374018654962
 40
0.2014374018654962
 40
0.4064993010209497
 40
0.4064993010209497
 40
0.6230676135981551
 40
0.6230676135981551
 40
0.8438251275003361
 40
0.8438251275003361
 40
1.0
 40
1.0
 40
1.0
 40
1.0
 10
503.1517641906995
 20
-6.00094828304492
 30
0.0000000000000021
 10
503.1517639714799
 20
-5.731110996043071
 30
0.0000000000000042
 10
503.1177024284651
 20
-5.457116583860397
 30
0.0000000000000042
 10
503.0017850104413
 20
-4.951656993015945
 30
0.0000000000000042
 10
502.9185071052366
 20
-4.712613023452093
 30
0.0000000000000042
 10
502.7363087138779
 20
-4.282751297322989
 30
0.0000000000000042
 10
502.6344714923263
 20
-4.088727029418692
 30
0.0000000000000042
 10
502.4550588148594
 20
-3.774623662110969
 30
0.0000000000000042
 10
502.375683806879
 20
-3.651549981772519
 30
0.0000000000000042
 10
502.2944883919296
 20
-3.527917237803479
 30
0.0000000000000042
 10
502.2764961991078
 20
-3.501333788770467
 30
0.0000000000000042
 10
502.2762995800105
 20
-3.501191129133588
 30
0.0000000000000042
  0
ARC
  5
375
330
1F
100
AcDbEntity
  8
Default
  6
Continuous
370
    18
100
AcDbCircle
 10
453.2760614099192
 20
-2.500948425757088
 30
0.0
 40
1.0
100
AcDbArc
 50
180.0
 51
270.0
  0
POLYLINE
  5
376
330
1F
100
AcDbEntity
  8
Default
370
   100
100
AcDb2dPolyline
 66
     1
 10
0.0
 20
0.0
 30
0.0
  0
VERTEX
  5
377
330
376
100
AcDbEntity
  8
Default
370
   100
100
AcDbVertex
100
AcDb2dVertex
 10
937.3831616700178
 20
60.98112489042796
 30
0.0
  0
VERTEX
  5
378
330
376
100
AcDbEntity
  8
Default
370
   100
100
AcDbVertex
100
AcDb2dVertex
 10
553.4909516943031
 20
60.98112489042796
 30
0.0
  0
SEQEND
  5
379
330
376
100
AcDbEntity
  8
Default
370
   100
  0
ARC
  5
37A
330
1F
100
AcDbEntity
  8
Default
  6
Continuous
370
    13
100
AcDbCircle
 10
457.4959814099192
 20
-41.50094842575709
 30
0.0
 40
9.000000000000002
100
AcDbArc
 50
270.0
 51
297.0000000000002
  0
LINE
  5
37B
330
1F
100
AcDbEntity
  8
Default
  6
Continuous
370
    13
100
AcDbLine
 10
457.4959814099192
 20
-50.50094842575709
 30
0.0
 11
453.2760614099192
 21
-50.50094842575709
 31
0.0
  0
LINE
  5
37C
330
1F
100
AcDbEntity
  8
Default
  6
Continuous
370
    13
100
AcDbLine
 10
452.2760614099192
 20
-50.50094842575709
 30
0.0
 11
453.2760614099192
 21
-50.50094842575709
 31
0.0
  0
LINE
  5
37D
330
1F
100
AcDbEntity
  8
Default
  6
Continuous
370
    13
100
AcDbLine
 10
453.2760614099192
 20
-50.50094842575709
 30
0.0
 11
453.2760614099192
 21
-51.50094842575709
 31
0.0
  0
LINE
  5
37E
330
1F
100
AcDbEntity
  8
Default
  6
Continuous
370
    13
100
AcDbLine
 10
453.2760614099192
 20
-51.50094842575709
 30
0.0
 11
457.4959814099192
 21
-51.50094842575709
 31
0.0
  0
ARC
  5
37F
330
1F
100
AcDbEntity
  8
Default
  6
Continuous
370
    13
100
AcDbCircle
 10
457.4959814099192
 20
-41.50094842575709
 30
0.0
 40
10.0
100
AcDbArc
 50
270.0
 51
297.0
  0
LINE
  5
380
330
1F
100
AcDbEntity
  8
Default
100
AcDbLine
 10
461.5818959075751
 20
-49.5200071434524
 30
0.0
 11
462.0358864073146
 21
-50.41101366764077
 31
0.0
  0
LINE
  5
381
330
1F
100
AcDbEntity
  8
Default
100
AcDbLine
 10
462.0358864073146
 20
-50.41101366764077
 30
0.0
 11
498.9724724125239
 21
-31.59088318387332
 31
0.0
  0
LINE
  5
382
330
1F
100
AcDbEntity
  8
Default
100
AcDbLine
 10
498.9724724125239
 20
-31.59088318387332
 30
0.0
 11
498.5184819127842
 21
-30.699876659685
 31
0.0
  0
LINE
  5
383
330
1F
100
AcDbEntity
  8
Default
100
AcDbLine
 10
498.5184819127842
 20
-30.699876659685
 30
0.0
 11
461.5818959075751
 21
-49.5200071434524
 31
0.0
  0
LINE
  5
384
330
1F
100
AcDbEntity
  8
Default
  6
Continuous
370
    13
100
AcDbLine
 10
503.1517644099192
 20
-29.50686042575705
 30
0.0
 11
503.1517643003093
 21
-6.000948354401004
 31
0.000000000000001
  0
LINE
  5
385
330
1F
100
AcDbEntity
  8
Default
  6
Continuous
370
    13
100
AcDbLine
 10
503.1517643003093
 20
-6.000948354401004
 30
0.000000000000001
 11
505.0058135932538
 21
-6.000948140332753
 31
0.0000000000000043
  0
SPLINE
  5
386
330
1F
100
AcDbEntity
  8
Default
  6
Continuous
370
    13
100
AcDbSpline
210
0.0
220
0.0
230
1.0
 70
     8
 71
     3
 72
    10
 73
     6
 74
     0
 42
0.0000000001
 43
0.0000000001
 40
-1.0
 40
-1.0
 40
-1.0
 40
-1.0
 40
-0.4996870922564346
 40
-0.4996870922564346
 40
0.0
 40
0.0
 40
0.0
 40
0.0
 10
505.0058135932538
 20
-6.000948140332753
 30
0.0000000000000043
 10
505.0058135932538
 20
-4.902767853759997
 30
0.0000000000000043
 10
504.853197004115
 20
-3.813923413854695
 30
0.0000000000000043
 10
504.4794162157441
 20
-2.11170885477037
 30
0.0000000000000043
 10
504.2768340037069
 20
-1.503319170271766
 30
0.0000000000000043
 10
504.2760639406154
 20
-1.500955115043269
 30
0.0000000000000043
  0
SPLINE
  5
387
330
1F
100
AcDbEntity
  8
Default
  6
Continuous
370
    13
100
AcDbSpline
210
0.0
220
0.0
230
1.0
 70
    12
 71
     2
 72
     8
 73
     5
 74
     0
 42
0.0000000001
 43
0.0000000001
 40
1.417189414035516
 40
1.417189414035516
 40
1.417189414035516
 40
1.570796338703035
 40
1.570796338703035
 40
3.141592653589793
 40
3.141592653589793
 40
3.141592653589793
 10
504.3544929378137
 20
-32.58290656357642
 30
0.0
 41
0.9483181300700855
 10
504.354172080292
 20
-32.4405570877962
 30
0.0
 41
0.9713582070809319
 10
504.3338448867785
 20
-32.29964304580631
 30
0.0
 41
1.0
 10
504.0482957198387
 20
-30.32013282597577
 30
0.0
 41
0.7071068061130514
 10
502.084631472618
 20
-30.60339612538907
 30
0.0
 41
0.9999999501469965
  0
ARC
  5
388
330
1F
100
AcDbEntity
  8
Default
  6
Continuous
370
    13
100
AcDbCircle
 10
503.5123774099192
 20
-40.50094842575709
 30
0.0
 40
10.0
100
AcDbArc
 50
98.20843199999882
 51
116.9999999999989
  0
SPLINE
  5
389
330
1F
100
AcDbEntity
  8
Default
  6
Continuous
370
    13
100
AcDbSpline
210
0.0
220
0.0
230
1.0
 70
     8
 71
     3
 72
    18
 73
    14
 74
     0
 42
0.0000000001
 43
0.0000000001
 40
0.0
 40
0.0
 40
0.0
 40
0.0
 40
0.0065189796668063
 40
0.0065189796668063
 40
0.2186747074765619
 40
0.2186747074765619
 40
0.3719134185308023
 40
0.3719134185308023
 40
0.6031418807804689
 40
0.6031418807804689
 40
0.8213590097760581
 40
0.8213590097760581
 40
1.0
 40
1.0
 40
1.0
 40
1.0
 10
505.0058135932538
 20
-29.50686073821191
 30
0.0000000000000043
 10
505.0058135932538
 20
-29.51654792669456
 30
0.0000000000000043
 10
505.005797792731
 20
-29.52623520673251
 30
0.0000000000000043
 10
505.0047481220819
 20
-29.84808184607198
 30
0.0000000000000043
 10
504.986773791757
 20
-30.16284867996592
 30
0.0000000000000043
 10
504.9311814403542
 20
-30.67920030546748
 30
0.0000000000000043
 10
504.9001709201958
 20
-30.89087365435876
 30
0.0000000000000043
 10
504.8095898722061
 20
-31.38901532088397
 30
0.0000000000000043
 10
504.7421532412493
 20
-31.66670576938145
 30
0.0000000000000043
 10
504.6078509452559
 20
-32.11624658147059
 30
0.0000000000000043
 10
504.5393851540392
 20
-32.29956018752034
 30
0.0000000000000043
 10
504.4311616186545
 20
-32.51877993925575
 30
0.0000000000000043
 10
504.3872492808877
 20
-32.57723632268642
 30
0.0000000000000043
 10
504.3544942856311
 20
-32.58290630802821
 30
0.0000000000000043
  0
SPLINE
  5
38A
330
1F
100
AcDbEntity
  8
Default
  6
Continuous
370
    13
100
AcDbSpline
210
0.0
220
0.0
230
1.0
 70
     8
 71
     3
 72
    10
 73
     6
 74
     0
 42
0.0000000001
 43
0.0000000001
 40
0.0
 40
0.0
 40
0.0
 40
0.0
 40
0.9986169831152831
 40
0.9986169831152831
 40
1.0
 40
1.0
 40
1.0
 40
1.0
 10
504.3544942856311
 20
-32.58290630802821
 30
0.0000000000000043
 10
504.3023174084003
 20
-32.59193827786248
 30
0.0000000000000043
 10
504.2760509041757
 20
-32.59705734427837
 30
0.0000000000000043
 10
504.2760614158079
 20
-32.5970552956715
 30
0.0000000000000043
 10
504.2760618305505
 20
-32.59705521485217
 30
0.0000000000000043
 10
504.2760623984853
 20
-32.59705516865947
 30
0.0000000000000021
  0
LINE
  5
38B
330
1F
100
AcDbEntity
  8
Default
  6
Continuous
370
    13
100
AcDbLine
 10
504.2760623984853
 20
-32.59705516865947
 30
0.0000000000000021
 11
504.2760614099192
 21
-33.60094842575711
 31
0.0
  0
SPLINE
  5
38C
330
1F
100
AcDbEntity
  8
Default
  6
Continuous
370
    13
100
AcDbSpline
210
0.0
220
0.0
230
1.0
 70
     8
 71
     3
 72
    10
 73
     6
 74
     0
 42
0.0000000001
 43
0.0000000001
 40
0.0
 40
0.0
 40
0.0
 40
0.0
 40
0.2461546959923445
 40
0.2461546959923445
 40
1.0
 40
1.0
 40
1.0
 40
1.0
 10
501.9796133471226
 20
-30.61908117679377
 30
0.0000000000000041
 10
501.9712045279737
 20
-30.6203968570527
 30
0.0000000000000041
 10
501.9669791799431
 20
-30.62108259020869
 30
0.0000000000000041
 10
501.9669925976057
 20
-30.62108041265179
 30
0.0000000000000041
 10
502.0066230433936
 20
-30.6146487742476
 30
0.0000000000000041
 10
502.0846316010255
 20
-30.60339584995211
 30
0.0000000000000042
  0
SPLINE
  5
38D
330
1F
100
AcDbEntity
  8
Default
  6
Continuous
370
    13
100
AcDbSpline
210
0.0
220
0.0
230
1.0
 70
     8
 71
     3
 72
    18
 73
    14
 74
     0
 42
0.0000000001
 43
0.0000000001
 40
0.0
 40
0.0
 40
0.0
 40
0.0
 40
0.1910003316455035
 40
0.1910003316455035
 40
0.4423876944540734
 40
0.4423876944540734
 40
0.6883232317693023
 40
0.6883232317693023
 40
0.8278885457727375
 40
0.8278885457727375
 40
0.9484548375671565
 40
0.9484548375671565
 40
1.0
 40
1.0
 40
1.0
 40
1.0
 10
502.0846316010255
 20
-30.60339584995211
 30
0.0000000000000042
 10
502.1376878509662
 20
-30.59574235676985
 30
0.0000000000000042
 10
502.2111792358874
 20
-30.5668242137499
 30
0.0000000000000042
 10
502.3908683089363
 20
-30.47802005786747
 30
0.0000000000000042
 10
502.5037304523183
 20
-30.4097653336471
 30
0.0000000000000042
 10
502.721244248848
 20
-30.24899981458032
 30
0.0000000000000042
 10
502.828982665135
 20
-30.15523690916558
 30
0.0000000000000042
 10
502.9755190036829
 20
-29.97811857723036
 30
0.0000000000000042
 10
503.0245765848573
 20
-29.90649812393144
 30
0.0000000000000042
 10
503.0972099151849
 20
-29.75996611721189
 30
0.0000000000000042
 10
503.1237203670583
 20
-29.68530019205389
 30
0.0000000000000042
 10
503.1451338323753
 20
-29.574897531989
 30
0.0000000000000042
 10
503.1495382447342
 20
-29.54089810707682
 30
0.0000000000000042
 10
503.1517638630946
 20
-29.50686102070856
 30
0.0
  0
ARC
  5
38E
330
1F
100
AcDbEntity
  8
Default
  6
Continuous
370
    13
100
AcDbCircle
 10
503.5123774099192
 20
-40.50094842575709
 30
0.0
 40
11.0
100
AcDbArc
 50
91.87866699999952
 51
116.9999999999995
  0
LINE
  5
38F
330
1F
100
AcDbEntity
  8
Default
100
AcDbLine
 10
452.2760614099192
 20
-6.000948425757088
 30
0.0
 11
453.2760614099192
 21
-6.000948425757088
 31
0.0
  0
LINE
  5
390
330
1F
100
AcDbEntity
  8
Default
100
AcDbLine
 10
453.2760614099192
 20
-6.000948425757088
 30
0.0
 11
453.2760614099192
 21
-51.50094842575709
 31
0.0
  0
ARC
  5
391
330
1F
100
AcDbEntity
  8
Default
100
AcDbCircle
 10
453.2760614099192
 20
-52.50094842575709
 30
0.0
 40
1.0
100
AcDbArc
 50
90.0
 51
180.0
  0
POLYLINE
  5
392
330
1F
100
AcDbEntity
  8
Default
100
AcDb2dPolyline
 66
     1
 10
0.0
 20
0.0
 30
-0.0000000000000002
  0
VERTEX
  5
393
330
392
100
AcDbEntity
  8
Default
100
AcDbVertex
100
AcDb2dVertex
 10
426.6742999294293
 20
323.6320986152709
 30
-0.0000000000000002
  0
VERTEX
  5
394
330
392
100
AcDbEntity
  8
Default
100
AcDbVertex
100
AcDb2dVertex
 10
426.6742996372251
 20
323.56645924547
 30
0.0
  0
SEQEND
  5
395
330
392
100
AcDbEntity
  8
Default
  0
ENDSEC
  0
SECTION
  2
OBJECTS
  0
DICTIONARY
  5
C
330
0
100
AcDbDictionary
281
     1
  3
ACAD_GROUP
350
D
  3
ACAD_LAYOUT
350
1A
  3
ACAD_MLEADERSTYLE
350
399
  3
ACAD_MLINESTYLE
350
17
  3
ACAD_PLOTSETTINGS
350
19
  3
ACAD_PLOTSTYLENAME
350
E
  3
ACAD_SCALELIST
350
77
  3
ACAD_TABLESTYLE
350
398
  3
ACAD_VISUALSTYLE
350
2A
  3
AcDbVariableDictionary
350
396
  0
DICTIONARY
  5
D
102
{ACAD_REACTORS
330
C
102
}
330
C
100
AcDbDictionary
281
     1
  0
DICTIONARY
  5
1A
102
{ACAD_REACTORS
330
C
102
}
330
C
100
AcDbDictionary
281
     1
  3
Layout1
350
1E
  3
Layout2
350
26
  3
Model
350
22
  0
DICTIONARY
  5
399
102
{ACAD_REACTORS
330
C
102
}
330
C
100
AcDbDictionary
281
     1
  0
DICTIONARY
  5
17
102
{ACAD_REACTORS
330
C
102
}
330
C
100
AcDbDictionary
281
     1
  3
Standard
350
18
  0
DICTIONARY
  5
19
102
{ACAD_REACTORS
330
C
102
}
330
C
100
AcDbDictionary
281
     1
  0
ACDBDICTIONARYWDFLT
  5
E
102
{ACAD_REACTORS
330
C
102
}
330
C
100
AcDbDictionary
281
     1
  3
Normal
350
F
100
AcDbDictionaryWithDefault
340
F
  0
DICTIONARY
  5
77
102
{ACAD_REACTORS
330
C
102
}
330
C
100
AcDbDictionary
281
     1
  3
A0
350
78
  3
A1
350
79
  3
A2
350
7A
  3
A3
350
7B
  3
A4
350
7C
  3
A5
350
7D
  3
A6
350
7E
  3
A7
350
7F
  3
A8
350
80
  3
A9
350
81
  3
B0
350
82
  3
B1
350
83
  3
B2
350
84
  3
B3
350
85
  3
B4
350
86
  3
B5
350
87
  3
B6
350
88
  3
B7
350
89
  3
B8
350
8A
  3
B9
350
8B
  3
C0
350
8C
  3
C1
350
8D
  3
C2
350
8E
  3
C3
350
8F
  3
C4
350
90
  3
C5
350
91
  3
C6
350
92
  3
C7
350
93
  3
C8
350
94
  3
C9
350
95
  3
D0
350
96
  3
D1
350
97
  3
D2
350
98
  0
DICTIONARY
  5
398
102
{ACAD_REACTORS
330
C
102
}
330
C
100
AcDbDictionary
281
     1
  0
DICTIONARY
  5
2A
102
{ACAD_REACTORS
330
C
102
}
330
C
100
AcDbDictionary
281
     1
  3
2dWireframe
350
2F
  3
3D Hidden
350
31
  3
3dWireframe
350
30
  3
Basic
350
32
  3
Brighten
350
36
  3
ColorChange
350
3A
  3
Conceptual
350
34
  3
Dim
350
35
  3
Facepattern
350
39
  3
Flat
350
2B
  3
FlatWithEdges
350
2C
  3
Gouraud
350
2D
  3
GouraudWithEdges
350
2E
  3
Linepattern
350
38
  3
Realistic
350
33
  3
Thicken
350
37
  0
DICTIONARY
  5
396
102
{ACAD_REACTORS
330
C
102
}
330
C
100
AcDbDictionary
281
     1
  3
CANNOSCALE
350
397
  0
LAYOUT
  5
1E
102
{ACAD_REACTORS
330
1A
102
}
330
1A
100
AcDbPlotSettings
  1

  2
none_device
  4

  6

 40
0.0
 41
0.0
 42
0.0
 43
0.0
 44
0.0
 45
0.0
 46
0.0
 47
0.0
 48
0.0
 49
0.0
140
0.0
141
0.0
142
1.0
143
1.0
 70
   688
 72
     0
 73
     0
 74
     5
  7

 75
    16
 76
     0
 77
     2
 78
   300
147
1.0
148
0.0
149
0.0
100
AcDbLayout
  1
Layout1
 70
     1
 71
     1
 10
0.0
 20
0.0
 11
12.0
 21
9.0
 12
0.0
 22
0.0
 32
0.0
 14
1.000000000000000E+20
 24
1.000000000000000E+20
 34
1.000000000000000E+20
 15
-1.000000000000000E+20
 25
-1.000000000000000E+20
 35
-1.000000000000000E+20
146
0.0
 13
0.0
 23
0.0
 33
0.0
 16
1.0
 26
0.0
 36
0.0
 17
0.0
 27
1.0
 37
0.0
 76
     0
330
1B
  0
LAYOUT
  5
26
102
{ACAD_REACTORS
330
1A
102
}
330
1A
100
AcDbPlotSettings
  1

  2
none_device
  4

  6

 40
0.0
 41
0.0
 42
0.0
 43
0.0
 44
0.0
 45
0.0
 46
0.0
 47
0.0
 48
0.0
 49
0.0
140
0.0
141
0.0
142
1.0
143
1.0
 70
   688
 72
     0
 73
     0
 74
     5
  7

 75
    16
 76
     0
 77
     2
 78
   300
147
1.0
148
0.0
149
0.0
100
AcDbLayout
  1
Layout2
 70
     1
 71
     2
 10
0.0
 20
0.0
 11
0.0
 21
0.0
 12
0.0
 22
0.0
 32
0.0
 14
0.0
 24
0.0
 34
0.0
 15
0.0
 25
0.0
 35
0.0
146
0.0
 13
0.0
 23
0.0
 33
0.0
 16
1.0
 26
0.0
 36
0.0
 17
0.0
 27
1.0
 37
0.0
 76
     0
330
23
  0
LAYOUT
  5
22
102
{ACAD_REACTORS
330
1A
102
}
330
1A
100
AcDbPlotSettings
  1

  2
none_device
  4

  6

 40
0.0
 41
0.0
 42
0.0
 43
0.0
 44
0.0
 45
0.0
 46
0.0
 47
0.0
 48
0.0
 49
0.0
140
0.0
141
0.0
142
1.0
143
1.0
 70
  1712
 72
     0
 73
     0
 74
     0
  7

 75
     0
 76
     0
 77
     2
 78
   300
147
1.0
148
0.0
149
0.0
100
AcDbLayout
  1
Model
 70
     1
 71
     0
 10
0.0
 20
0.0
 11
12.0
 21
9.0
 12
0.0
 22
0.0
 32
0.0
 14
379.8284226402399
 24
-311.407460135366
 34
-0.0000000000000002
 15
1549.915099188878
 25
1031.857628360804
 35
0.0000000000000043
146
0.0
 13
0.0
 23
0.0
 33
0.0
 16
1.0
 26
0.0
 36
0.0
 17
0.0
 27
1.0
 37
0.0
 76
     0
330
1F
331
29
  0
MLINESTYLE
  5
18
102
{ACAD_REACTORS
330
17
102
}
330
17
100
AcDbMlineStyle
  2
Standard
 70
     0
  3

 62
   256
 51
90.0
 52
90.0
 71
     2
 49
0.5
 62
   256
  6
BYLAYER
 49
-0.5
 62
   256
  6
BYLAYER
  0
ACDBPLACEHOLDER
  5
F
102
{ACAD_REACTORS
330
E
102
}
330
E
  0
SCALE
  5
78
102
{ACAD_REACTORS
330
77
102
}
330
77
100
AcDbScale
 70
     0
300
1:1
140
1.0
141
1.0
290
     1
  0
SCALE
  5
79
102
{ACAD_REACTORS
330
77
102
}
330
77
100
AcDbScale
 70
     0
300
1:2
140
1.0
141
2.0
290
     0
  0
SCALE
  5
7A
102
{ACAD_REACTORS
330
77
102
}
330
77
100
AcDbScale
 70
     0
300
1:4
140
1.0
141
4.0
290
     0
  0
SCALE
  5
7B
102
{ACAD_REACTORS
330
77
102
}
330
77
100
AcDbScale
 70
     0
300
1:5
140
1.0
141
5.0
290
     0
  0
SCALE
  5
7C
102
{ACAD_REACTORS
330
77
102
}
330
77
100
AcDbScale
 70
     0
300
1:8
140
1.0
141
8.0
290
     0
  0
SCALE
  5
7D
102
{ACAD_REACTORS
330
77
102
}
330
77
100
AcDbScale
 70
     0
300
1:10
140
1.0
141
10.0
290
     0
  0
SCALE
  5
7E
102
{ACAD_REACTORS
330
77
102
}
330
77
100
AcDbScale
 70
     0
300
1:16
140
1.0
141
16.0
290
     0
  0
SCALE
  5
7F
102
{ACAD_REACTORS
330
77
102
}
330
77
100
AcDbScale
 70
     0
300
1:20
140
1.0
141
20.0
290
     0
  0
SCALE
  5
80
102
{ACAD_REACTORS
330
77
102
}
330
77
100
AcDbScale
 70
     0
300
1:30
140
1.0
141
30.0
290
     0
  0
SCALE
  5
81
102
{ACAD_REACTORS
330
77
102
}
330
77
100
AcDbScale
 70
     0
300
1:40
140
1.0
141
40.0
290
     0
  0
SCALE
  5
82
102
{ACAD_REACTORS
330
77
102
}
330
77
100
AcDbScale
 70
     0
300
1:50
140
1.0
141
50.0
290
     0
  0
SCALE
  5
83
102
{ACAD_REACTORS
330
77
102
}
330
77
100
AcDbScale
 70
     0
300
1:100
140
1.0
141
100.0
290
     0
  0
SCALE
  5
84
102
{ACAD_REACTORS
330
77
102
}
330
77
100
AcDbScale
 70
     0
300
2:1
140
2.0
141
1.0
290
     0
  0
SCALE
  5
85
102
{ACAD_REACTORS
330
77
102
}
330
77
100
AcDbScale
 70
     0
300
4:1
140
4.0
141
1.0
290
     0
  0
SCALE
  5
86
102
{ACAD_REACTORS
330
77
102
}
330
77
100
AcDbScale
 70
     0
300
8:1
140
8.0
141
1.0
290
     0
  0
SCALE
  5
87
102
{ACAD_REACTORS
330
77
102
}
330
77
100
AcDbScale
 70
     0
300
10:1
140
10.0
141
1.0
290
     0
  0
SCALE
  5
88
102
{ACAD_REACTORS
330
77
102
}
330
77
100
AcDbScale
 70
     0
300
100:1
140
100.0
141
1.0
290
     0
  0
SCALE
  5
89
102
{ACAD_REACTORS
330
77
102
}
330
77
100
AcDbScale
 70
     0
300
1/128" = 1'-0"
140
0.0078125
141
12.0
290
     0
  0
SCALE
  5
8A
102
{ACAD_REACTORS
330
77
102
}
330
77
100
AcDbScale
 70
     0
300
1/64" = 1'-0"
140
0.015625
141
12.0
290
     0
  0
SCALE
  5
8B
102
{ACAD_REACTORS
330
77
102
}
330
77
100
AcDbScale
 70
     0
300
1/32" = 1'-0"
140
0.03125
141
12.0
290
     0
  0
SCALE
  5
8C
102
{ACAD_REACTORS
330
77
102
}
330
77
100
AcDbScale
 70
     0
300
1/16" = 1'-0"
140
0.0625
141
12.0
290
     0
  0
SCALE
  5
8D
102
{ACAD_REACTORS
330
77
102
}
330
77
100
AcDbScale
 70
     0
300
3/32" = 1'-0"
140
0.09375
141
12.0
290
     0
  0
SCALE
  5
8E
102
{ACAD_REACTORS
330
77
102
}
330
77
100
AcDbScale
 70
     0
300
1/8" = 1'-0"
140
0.125
141
12.0
290
     0
  0
SCALE
  5
8F
102
{ACAD_REACTORS
330
77
102
}
330
77
100
AcDbScale
 70
     0
300
3/16" = 1'-0"
140
0.1875
141
12.0
290
     0
  0
SCALE
  5
90
102
{ACAD_REACTORS
330
77
102
}
330
77
100
AcDbScale
 70
     0
300
1/4" = 1'-0"
140
0.25
141
12.0
290
     0
  0
SCALE
  5
91
102
{ACAD_REACTORS
330
77
102
}
330
77
100
AcDbScale
 70
     0
300
3/8" = 1'-0"
140
0.375
141
12.0
290
     0
  0
SCALE
  5
92
102
{ACAD_REACTORS
330
77
102
}
330
77
100
AcDbScale
 70
     0
300
1/2" = 1'-0"
140
0.5
141
12.0
290
     0
  0
SCALE
  5
93
102
{ACAD_REACTORS
330
77
102
}
330
77
100
AcDbScale
 70
     0
300
3/4" = 1'-0"
140
0.75
141
12.0
290
     0
  0
SCALE
  5
94
102
{ACAD_REACTORS
330
77
102
}
330
77
100
AcDbScale
 70
     0
300
1" = 1'-0"
140
1.0
141
12.0
290
     0
  0
SCALE
  5
95
102
{ACAD_REACTORS
330
77
102
}
330
77
100
AcDbScale
 70
     0
300
1-1/2" = 1'-0"
140
1.5
141
12.0
290
     0
  0
SCALE
  5
96
102
{ACAD_REACTORS
330
77
102
}
330
77
100
AcDbScale
 70
     0
300
3" = 1'-0"
140
3.0
141
12.0
290
     0
  0
SCALE
  5
97
102
{ACAD_REACTORS
330
77
102
}
330
77
100
AcDbScale
 70
     0
300
6" = 1'-0"
140
6.0
141
12.0
290
     0
  0
SCALE
  5
98
102
{ACAD_REACTORS
330
77
102
}
330
77
100
AcDbScale
 70
     0
300
1'-0" = 1'-0"
140
12.0
141
12.0
290
     0
  0
VISUALSTYLE
  5
2F
102
{ACAD_REACTORS
330
2A
102
}
330
2A
100
AcDbVisualStyle
  2
2dWireframe
 70
     4
 71
     0
 72
     2
 73
     0
 90
        0
 40
-0.6
 41
-30.0
 62
     5
 63
     7
421
 16777215
 74
     1
 91
        4
 64
     7
 65
   257
 75
     1
175
     1
 42
1.0
 92
        0
 66
   257
 43
1.0
 76
     1
 77
     6
 78
     2
 67
     7
 79
     5
170
     0
171
     0
290
     0
174
     0
 93
        1
 44
0.0
173
     0
291
     0
 45
0.0
1001
ACAD
1000
AcDbSavedByObjectVersion
1070
     0
  0
VISUALSTYLE
  5
31
102
{ACAD_REACTORS
330
2A
102
}
330
2A
100
AcDbVisualStyle
  2
3D Hidden
 70
     6
 71
     1
 72
     2
 73
     2
 90
        0
 40
-0.6
 41
-30.0
 62
     5
 63
     7
421
 16777215
 74
     2
 91
        2
 64
     7
 65
   257
 75
     2
175
     1
 42
40.0
 92
        0
 66
   257
 43
1.0
 76
     1
 77
     6
 78
     2
 67
     7
 79
     3
170
     0
171
     0
290
     0
174
     0
 93
        1
 44
0.0
173
     0
291
     0
 45
0.0
1001
ACAD
1000
AcDbSavedByObjectVersion
1070
     0
  0
VISUALSTYLE
  5
30
102
{ACAD_REACTORS
330
2A
102
}
330
2A
100
AcDbVisualStyle
  2
3dWireframe
 70
     5
 71
     0
 72
     2
 73
     0
 90
        0
 40
-0.6
 41
-30.0
 62
     5
 63
     7
421
 16777215
 74
     1
 91
        4
 64
     7
 65
   257
 75
     1
175
     1
 42
1.0
 92
        0
 66
   257
 43
1.0
 76
     1
 77
     6
 78
     2
 67
     7
 79
     5
170
     0
171
     0
290
     0
174
     0
 93
        1
 44
0.0
173
     0
291
     0
 45
0.0
1001
ACAD
1000
AcDbSavedByObjectVersion
1070
     0
  0
VISUALSTYLE
  5
32
102
{ACAD_REACTORS
330
2A
102
}
330
2A
100
AcDbVisualStyle
  2
Basic
 70
     7
 71
     1
 72
     0
 73
     1
 90
        0
 40
-0.6
 41
-30.0
 62
     5
 63
     7
421
 16777215
 74
     0
 91
        4
 64
     7
 65
   257
 75
     1
175
     1
 42
1.0
 92
        8
 66
     7
 43
1.0
 76
     1
 77
     6
 78
     2
 67
     7
 79
     5
170
     0
171
     0
290
     0
174
     0
 93
        1
 44
0.0
173
     0
291
     1
 45
0.0
1001
ACAD
1000
AcDbSavedByObjectVersion
1070
     0
  0
VISUALSTYLE
  5
36
102
{ACAD_REACTORS
330
2A
102
}
330
2A
100
AcDbVisualStyle
  2
Brighten
 70
    12
 71
     2
 72
     2
 73
     0
 90
        0
 40
-0.6
 41
-30.0
 62
     5
 63
     7
421
 16777215
 74
     1
 91
        4
 64
     7
 65
   257
 75
     1
175
     1
 42
1.0
 92
        8
 66
     7
 43
1.0
 76
     1
 77
     6
 78
     2
 67
     7
 79
     5
170
     0
171
     0
290
     0
174
     0
 93
        1
 44
50.0
173
     0
291
     1
 45
0.0
1001
ACAD
1000
AcDbSavedByObjectVersion
1070
     0
  0
VISUALSTYLE
  5
3A
102
{ACAD_REACTORS
330
2A
102
}
330
2A
100
AcDbVisualStyle
  2
ColorChange
 70
    16
 71
     2
 72
     2
 73
     3
 90
        0
 40
-0.6
 41
-30.0
 62
     5
 63
     8
421
  8421504
 74
     1
 91
        4
 64
     7
 65
   257
 75
     1
175
     1
 42
1.0
 92
        8
 66
     8
424
  8421504
 43
1.0
 76
     1
 77
     6
 78
     2
 67
     7
 79
     5
170
     0
171
     0
290
     0
174
     0
 93
        1
 44
0.0
173
     0
291
     1
 45
0.0
1001
ACAD
1000
AcDbSavedByObjectVersion
1070
     0
  0
VISUALSTYLE
  5
34
102
{ACAD_REACTORS
330
2A
102
}
330
2A
100
AcDbVisualStyle
  2
Conceptual
 70
     9
 71
     3
 72
     2
 73
     0
 90
        0
 40
-0.6
 41
-30.0
 62
     5
 63
     7
421
 16777215
 74
     2
 91
        2
 64
     7
 65
   257
 75
     1
175
     1
 42
40.0
 92
        8
 66
     7
 43
1.0
 76
     1
 77
     6
 78
     2
 67
     7
 79
     3
170
     0
171
     0
290
     0
174
     0
 93
        1
 44
0.0
173
     0
291
     0
 45
0.0
1001
ACAD
1000
AcDbSavedByObjectVersion
1070
     0
  0
VISUALSTYLE
  5
35
102
{ACAD_REACTORS
330
2A
102
}
330
2A
100
AcDbVisualStyle
  2
Dim
 70
    11
 71
     2
 72
     2
 73
     0
 90
        0
 40
-0.6
 41
-30.0
 62
     5
 63
     7
421
 16777215
 74
     1
 91
        4
 64
     7
 65
   257
 75
     1
175
     1
 42
1.0
 92
        8
 66
     7
 43
1.0
 76
     1
 77
     6
 78
     2
 67
     7
 79
     5
170
     0
171
     0
290
     0
174
     0
 93
        1
 44
-50.0
173
     0
291
     1
 45
0.0
1001
ACAD
1000
AcDbSavedByObjectVersion
1070
     0
  0
VISUALSTYLE
  5
39
102
{ACAD_REACTORS
330
2A
102
}
330
2A
100
AcDbVisualStyle
  2
Facepattern
 70
    15
 71
     2
 72
     2
 73
     0
 90
        0
 40
-0.6
 41
-30.0
 62
     5
 63
     7
421
 16777215
 74
     1
 91
        4
 64
     7
 65
   257
 75
     1
175
     1
 42
1.0
 92
        8
 66
     7
 43
1.0
 76
     1
 77
     6
 78
     2
 67
     7
 79
     5
170
     0
171
     0
290
     0
174
     0
 93
        1
 44
0.0
173
     0
291
     1
 45
0.0
1001
ACAD
1000
AcDbSavedByObjectVersion
1070
     0
  0
VISUALSTYLE
  5
2B
102
{ACAD_REACTORS
330
2A
102
}
330
2A
100
AcDbVisualStyle
  2
Flat
 70
     0
 71
     2
 72
     1
 73
     1
 90
        2
 40
-0.6
 41
30.0
 62
     5
 63
     7
421
 16777215
 74
     0
 91
        4
 64
     7
 65
   257
 75
     1
175
     1
 42
1.0
 92
        8
 66
     7
 43
1.0
 76
     1
 77
     6
 78
     2
 67
     7
 79
     5
170
     0
171
     0
290
     0
174
     0
 93
       13
 44
0.0
173
     0
291
     1
 45
0.0
1001
ACAD
1000
AcDbSavedByObjectVersion
1070
     0
  0
VISUALSTYLE
  5
2C
102
{ACAD_REACTORS
330
2A
102
}
330
2A
100
AcDbVisualStyle
  2
FlatWithEdges
 70
     1
 71
     2
 72
     1
 73
     1
 90
        2
 40
-0.6
 41
30.0
 62
     5
 63
     7
421
 16777215
 74
     1
 91
        4
 64
     7
 65
   257
 75
     1
175
     1
 42
1.0
 92
        0
 66
   257
 43
1.0
 76
     1
 77
     6
 78
     2
 67
     7
 79
     5
170
     0
171
     0
290
     0
174
     0
 93
       13
 44
0.0
173
     0
291
     1
 45
0.0
1001
ACAD
1000
AcDbSavedByObjectVersion
1070
     0
  0
VISUALSTYLE
  5
2D
102
{ACAD_REACTORS
330
2A
102
}
330
2A
100
AcDbVisualStyle
  2
Gouraud
 70
     2
 71
     2
 72
     2
 73
     1
 90
        2
 40
-0.6
 41
30.0
 62
     5
 63
     7
421
 16777215
 74
     0
 91
        4
 64
     7
 65
   257
 75
     1
175
     1
 42
1.0
 92
        0
 66
     7
 43
1.0
 76
     1
 77
     6
 78
     2
 67
     7
 79
     5
170
     0
171
     0
290
     0
174
     0
 93
       13
 44
0.0
173
     0
291
     1
 45
0.0
1001
ACAD
1000
AcDbSavedByObjectVersion
1070
     0
  0
VISUALSTYLE
  5
2E
102
{ACAD_REACTORS
330
2A
102
}
330
2A
100
AcDbVisualStyle
  2
GouraudWithEdges
 70
     3
 71
     2
 72
     2
 73
     1
 90
        2
 40
-0.6
 41
30.0
 62
     5
 63
     7
421
 16777215
 74
     1
 91
        4
 64
     7
 65
   257
 75
     1
175
     1
 42
1.0
 92
        0
 66
   257
 43
1.0
 76
     1
 77
     6
 78
     2
 67
     7
 79
     5
170
     0
171
     0
290
     0
174
     0
 93
       13
 44
0.0
173
     0
291
     1
 45
0.0
1001
ACAD
1000
AcDbSavedByObjectVersion
1070
     0
  0
VISUALSTYLE
  5
38
102
{ACAD_REACTORS
330
2A
102
}
330
2A
100
AcDbVisualStyle
  2
Linepattern
 70
    14
 71
     2
 72
     2
 73
     0
 90
        0
 40
-0.6
 41
-30.0
 62
     5
 63
     7
421
 16777215
 74
     1
 91
        4
 64
     7
 65
   257
 75
     7
175
     7
 42
1.0
 92
        8
 66
     7
 43
1.0
 76
     1
 77
     6
 78
     2
 67
     7
 79
     5
170
     0
171
     0
290
     0
174
     0
 93
        1
 44
0.0
173
     0
291
     1
 45
0.0
1001
ACAD
1000
AcDbSavedByObjectVersion
1070
     0
  0
VISUALSTYLE
  5
33
102
{ACAD_REACTORS
330
2A
102
}
330
2A
100
AcDbVisualStyle
  2
Realistic
 70
     8
 71
     2
 72
     2
 73
     0
 90
        0
 40
-0.6
 41
-30.0
 62
     5
 63
     7
421
 16777215
 74
     1
 91
        0
 64
     7
 65
   257
 75
     1
175
     1
 42
1.0
 92
        8
 66
     8
424
  7895160
 43
1.0
 76
     1
 77
     6
 78
     2
 67
     7
 79
     5
170
     0
171
     0
290
     0
174
     0
 93
       13
 44
0.0
173
     0
291
     0
 45
0.0
1001
ACAD
1000
AcDbSavedByObjectVersion
1070
     0
  0
VISUALSTYLE
  5
37
102
{ACAD_REACTORS
330
2A
102
}
330
2A
100
AcDbVisualStyle
  2
Thicken
 70
    13
 71
     2
 72
     2
 73
     0
 90
        0
 40
-0.6
 41
-30.0
 62
     5
 63
     7
421
 16777215
 74
     1
 91
        4
 64
     7
 65
   257
 75
     1
175
     1
 42
1.0
 92
       12
 66
     7
 43
1.0
 76
     1
 77
     6
 78
     2
 67
     7
 79
     5
170
     0
171
     0
290
     0
174
     0
 93
        1
 44
0.0
173
     0
291
     1
 45
0.0
1001
ACAD
1000
AcDbSavedByObjectVersion
1070
     0
  0
DICTIONARYVAR
  5
397
102
{ACAD_REACTORS
330
396
102
}
330
396
100
DictionaryVariables
280
     0
  1
1:1
  0
ENDSEC
  0
EOF
