  0
SECTION
  2
HEADER
  9
$ACADVER
  1
AC1018
  9
$ACADMAINTVER
 70
    39
  9
$DWGCODEPAGE
  3
ANSI_1252
  9
$INSBASE
 10
0.0
 20
0.0
 30
0.0
  9
$EXTMIN
 10
-900.5472261470339
 20
-1276.205378972606
 30
0.0
  9
$EXTMAX
 10
1260.536034840985
 20
642.6652069838202
 30
0.0
  9
$LIMMIN
 10
0.0
 20
0.0
  9
$LIMMAX
 10
0.0
 20
0.0
  9
$ORTHOMODE
 70
     0
  9
$REGENMODE
 70
     1
  9
$FILLMODE
 70
     1
  9
$QTEXTMODE
 70
     0
  9
$MIRRTEXT
 70
     1
  9
$LTSCALE
 40
1.0
  9
$ATTMODE
 70
     1
  9
$TEXTSIZE
 40
0.0
  9
$TRACEWID
 40
0.05
  9
$TEXTSTYLE
  7
STANDARD
  9
$CLAYER
  8
0
  9
$CELTYPE
  6
CONTINUOUS
  9
$CECOLOR
 62
   256
  9
$CELTSCALE
 40
1.0
  9
$DISPSILH
 70
     0
  9
$DIMSCALE
 40
1.0
  9
$DIMASZ
 40
6.0
  9
$DIMEXO
 40
1.0
  9
$DIMDLI
 40
0.38
  9
$DIMRND
 40
0.0
  9
$DIMDLE
 40
1.0
  9
$DIMEXE
 40
0.18
  9
$DIMTP
 40
0.0
  9
$DIMTM
 40
0.0
  9
$DIMTXT
 40
3.5
  9
$DIMCEN
 40
0.09
  9
$DIMTSZ
 40
0.0
  9
$DIMTOL
 70
     0
  9
$DIMLIM
 70
     0
  9
$DIMTIH
 70
     1
  9
$DIMTOH
 70
     1
  9
$DIMSE1
 70
     0
  9
$DIMSE2
 70
     0
  9
$DIMTAD
 70
     1
  9
$DIMZIN
 70
     0
  9
$DIMBLK
  1

  9
$DIMASO
 70
     1
  9
$DIMSHO
 70
     1
  9
$DIMPOST
  1

  9
$DIMAPOST
  1

  9
$DIMALT
 70
     0
  9
$DIMALTD
 70
     2
  9
$DIMALTF
 40
0.0394
  9
$DIMLFAC
 40
1.0
  9
$DIMTOFL
 70
     0
  9
$DIMTVP
 40
0.0
  9
$DIMTIX
 70
     0
  9
$DIMSOXD
 70
     0
  9
$DIMSAH
 70
     0
  9
$DIMBLK1
  1

  9
$DIMBLK2
  1

  9
$DIMSTYLE
  2
STANDARD
  9
$DIMCLRD
 70
     0
  9
$DIMCLRE
 70
     0
  9
$DIMCLRT
 70
     0
  9
$DIMTFAC
 40
1.0
  9
$DIMGAP
 40
1.0
  9
$DIMJUST
 70
     0
  9
$DIMSD1
 70
     0
  9
$DIMSD2
 70
     0
  9
$DIMTOLJ
 70
     1
  9
$DIMTZIN
 70
     0
  9
$DIMALTZ
 70
     0
  9
$DIMALTTZ
 70
     0
  9
$DIMUPT
 70
     0
  9
$DIMDEC
 70
     4
  9
$DIMTDEC
 70
     4
  9
$DIMALTU
 70
     2
  9
$DIMALTTD
 70
     2
  9
$DIMTXSTY
  7
STANDARD
  9
$DIMAUNIT
 70
     0
  9
$DIMADEC
 70
     0
  9
$DIMALTRND
 40
0.0
  9
$DIMAZIN
 70
     0
  9
$DIMDSEP
 70
    46
  9
$DIMATFIT
 70
     3
  9
$DIMFRAC
 70
     0
  9
$DIMLDRBLK
  1

  9
$DIMLUNIT
 70
     2
  9
$DIMLWD
 70
    -2
  9
$DIMLWE
 70
    -2
  9
$DIMTMOVE
 70
     0
  9
$LUNITS
 70
     2
  9
$LUPREC
 70
     2
  9
$SKETCHINC
 40
0.1
  9
$FILLETRAD
 40
0.0
  9
$AUNITS
 70
     0
  9
$AUPREC
 70
     2
  9
$MENU
  1
acad
  9
$ELEVATION
 40
0.0
  9
$PELEVATION
 40
0.0
  9
$THICKNESS
 40
0.0
  9
$LIMCHECK
 70
     0
  9
$CHAMFERA
 40
0.0
  9
$CHAMFERB
 40
0.0
  9
$CHAMFERC
 40
0.0
  9
$CHAMFERD
 40
0.0
  9
$SKPOLY
 70
     0
  9
$TDCREATE
 40
2444972.083333333
  9
$TDUCREATE
 40
2444972.000000000
  9
$TDUPDATE
 40
2455022.466731366
  9
$TDUUPDATE
 40
2455022.383398032
  9
$TDINDWG
 40
0.0003303588
  9
$TDUSRTIMER
 40
0.0003303588
  9
$USRTIMER
 70
     1
  9
$ANGBASE
 50
0.0
  9
$ANGDIR
 70
     0
  9
$PDMODE
 70
     0
  9
$PDSIZE
 40
-1.0
  9
$PLINEWID
 40
0.0
  9
$SPLFRAME
 70
     0
  9
$SPLINETYPE
 70
     6
  9
$SPLINESEGS
 70
     8
  9
$HANDSEED
  5
3DD
  9
$SURFTAB1
 70
     6
  9
$SURFTAB2
 70
     6
  9
$SURFTYPE
 70
     6
  9
$SURFU
 70
     6
  9
$SURFV
 70
     6
  9
$UCSBASE
  2

  9
$UCSNAME
  2

  9
$UCSORG
 10
0.0
 20
0.0
 30
0.0
  9
$UCSXDIR
 10
1.0
 20
0.0
 30
0.0
  9
$UCSYDIR
 10
0.0
 20
1.0
 30
0.0
  9
$UCSORTHOREF
  2

  9
$UCSORTHOVIEW
 70
     0
  9
$UCSORGTOP
 10
0.0
 20
0.0
 30
0.0
  9
$UCSORGBOTTOM
 10
0.0
 20
0.0
 30
0.0
  9
$UCSORGLEFT
 10
0.0
 20
0.0
 30
0.0
  9
$UCSORGRIGHT
 10
0.0
 20
0.0
 30
0.0
  9
$UCSORGFRONT
 10
0.0
 20
0.0
 30
0.0
  9
$UCSORGBACK
 10
0.0
 20
0.0
 30
0.0
  9
$PUCSBASE
  2

  9
$PUCSNAME
  2

  9
$PUCSORG
 10
0.0
 20
0.0
 30
0.0
  9
$PUCSXDIR
 10
1.0
 20
0.0
 30
0.0
  9
$PUCSYDIR
 10
0.0
 20
1.0
 30
0.0
  9
$PUCSORTHOREF
  2

  9
$PUCSORTHOVIEW
 70
     0
  9
$PUCSORGTOP
 10
0.0
 20
0.0
 30
0.0
  9
$PUCSORGBOTTOM
 10
0.0
 20
0.0
 30
0.0
  9
$PUCSORGLEFT
 10
0.0
 20
0.0
 30
0.0
  9
$PUCSORGRIGHT
 10
0.0
 20
0.0
 30
0.0
  9
$PUCSORGFRONT
 10
0.0
 20
0.0
 30
0.0
  9
$PUCSORGBACK
 10
0.0
 20
0.0
 30
0.0
  9
$USERI1
 70
     0
  9
$USERI2
 70
     0
  9
$USERI3
 70
     0
  9
$USERI4
 70
     0
  9
$USERI5
 70
     0
  9
$USERR1
 40
0.0
  9
$USERR2
 40
0.0
  9
$USERR3
 40
0.0
  9
$USERR4
 40
0.0
  9
$USERR5
 40
0.0
  9
$WORLDVIEW
 70
     1
  9
$SHADEDGE
 70
     3
  9
$SHADEDIF
 70
    70
  9
$TILEMODE
 70
     1
  9
$MAXACTVP
 70
    16
  9
$PINSBASE
 10
0.0
 20
0.0
 30
0.0
  9
$PLIMCHECK
 70
     0
  9
$PEXTMIN
 10
1.000000000000000E+20
 20
1.000000000000000E+20
 30
1.000000000000000E+20
  9
$PEXTMAX
 10
-1.000000000000000E+20
 20
-1.000000000000000E+20
 30
-1.000000000000000E+20
  9
$PLIMMIN
 10
0.0
 20
0.0
  9
$PLIMMAX
 10
12.0
 20
9.0
  9
$UNITMODE
 70
     0
  9
$VISRETAIN
 70
     0
  9
$PLINEGEN
 70
     1
  9
$PSLTSCALE
 70
     1
  9
$TREEDEPTH
 70
  3020
  9
$CMLSTYLE
  2
STANDARD
  9
$CMLJUST
 70
     0
  9
$CMLSCALE
 40
1.0
  9
$PROXYGRAPHICS
 70
     0
  9
$MEASUREMENT
 70
     0
  9
$CELWEIGHT
370
    -1
  9
$ENDCAPS
280
     0
  9
$JOINSTYLE
280
     0
  9
$LWDISPLAY
290
     0
  9
$INSUNITS
 70
     0
  9
$HYPERLINKBASE
  1

  9
$STYLESHEET
  1

  9
$XEDIT
290
     1
  9
$CEPSNTYPE
380
     0
  9
$PSTYLEMODE
290
     1
  9
$FINGERPRINTGUID
  2
{E1490416-FF11-4D6E-8200-0AF0FED0CA6B}
  9
$VERSIONGUID
  2
{1342BEC9-0294-4F5E-B15C-75B633290B5E}
  9
$EXTNAMES
290
     1
  9
$PSVPSCALE
 40
0.0
  9
$OLESTARTUP
290
     0
  9
$SORTENTS
280
   127
  9
$INDEXCTL
280
     0
  9
$HIDETEXT
280
     0
  9
$XCLIPFRAME
290
     0
  9
$HALOGAP
280
     0
  9
$OBSCOLOR
 70
   257
  9
$OBSLTYPE
280
     0
  9
$INTERSECTIONDISPLAY
280
     0
  9
$INTERSECTIONCOLOR
 70
   257
  9
$DIMASSOC
280
     1
  9
$PROJECTNAME
  1

  0
ENDSEC
  0
SECTION
  2
CLASSES
  0
CLASS
  1
IMAGE
  2
AcDbRasterImage
  3
ISM
 90
      127
 91
        0
280
     0
281
     1
  0
CLASS
  1
DICTIONARYVAR
  2
AcDbDictionaryVar
  3
ObjectDBX Classes
 90
        0
 91
        1
280
     0
281
     0
  0
CLASS
  1
RASTERVARIABLES
  2
AcDbRasterVariables
  3
ISM
 90
        0
 91
        0
280
     0
281
     0
  0
CLASS
  1
IMAGEDEF
  2
AcDbRasterImageDef
  3
ISM
 90
        0
 91
        0
280
     0
281
     0
  0
CLASS
  1
IMAGEDEF_REACTOR
  2
AcDbRasterImageDefReactor
  3
ISM
 90
        1
 91
        0
280
     0
281
     0
  0
CLASS
  1
IDBUFFER
  2
AcDbIdBuffer
  3
ObjectDBX Classes
 90
        0
 91
        0
280
     0
281
     0
  0
CLASS
  1
SPATIAL_FILTER
  2
AcDbSpatialFilter
  3
ObjectDBX Classes
 90
        0
 91
        0
280
     0
281
     0
  0
CLASS
  1
SORTENTSTABLE
  2
AcDbSortentsTable
  3
ObjectDBX Classes
 90
        0
 91
        0
280
     0
281
     0
  0
CLASS
  1
LAYER_INDEX
  2
AcDbLayerIndex
  3
ObjectDBX Classes
 90
        0
 91
        0
280
     0
281
     0
  0
CLASS
  1
SPATIAL_INDEX
  2
AcDbSpatialIndex
  3
ObjectDBX Classes
 90
        0
 91
        0
280
     0
281
     0
  0
CLASS
  1
OBJECT_PTR
  2
CAseDLPNTableRecord
  3
ASE-LPNTableRecord
 90
        1
 91
        0
280
     0
281
     0
  0
CLASS
  1
PLOTSETTINGS
  2
AcDbPlotSettings
  3
ObjectDBX Classes
 90
        0
 91
        0
280
     0
281
     0
  0
CLASS
  1
ACDBDICTIONARYWDFLT
  2
AcDbDictionaryWithDefault
  3
ObjectDBX Classes
 90
        0
 91
        1
280
     0
281
     0
  0
CLASS
  1
WIPEOUT
  2
AcDbWipeout
  3
"WipeOut|Product Desc: Object Enabler for WipeOut entity^I^I^I^I^I^I|Company: Autodesk, Inc.^I^I^I^I^I^I|WEB Address: www.autodesk.com"
 90
      127
 91
        0
280
     0
281
     1
  0
CLASS
  1
WIPEOUTVARIABLES
  2
AcDbWipeoutVariables
  3
"WipeOut|Product Desc:     WipeOut Dbx Application|Company:          Autodesk, Inc.|WEB Address:      www.autodesk.com"
 90
        0
 91
        0
280
     0
281
     0
  0
CLASS
  1
RTEXT
  2
RText
  3
RText|AutoCAD Express Tool|expresstools@autodesk.com
 90
        0
 91
        0
280
     0
281
     1
  0
CLASS
  1
ARCALIGNEDTEXT
  2
AcDbArcAlignedText
  3
ATEXT|AutoCAD Express Tool|expresstools@autodesk.com
 90
        0
 91
        0
280
     0
281
     1
  0
CLASS
  1
TABLESTYLE
  2
AcDbTableStyle
  3
ObjectDBX Classes
 90
     2047
 91
        1
280
     0
281
     0
  0
ENDSEC
  0
SECTION
  2
TABLES
  0
TABLE
  2
VPORT
  5
7
330
0
100
AcDbSymbolTable
 70
     3
  0
VPORT
  5
3DC
330
7
100
AcDbSymbolTableRecord
100
AcDbViewportTableRecord
  2
*Active
 70
     0
 10
0.0
 20
0.0
 11
1.0
 21
1.0
 12
179.9944043469755
 22
-316.770085994393
 13
0.0
 23
0.0
 14
1.0
 24
1.0
 15
0.0
 25
0.0
 16
0.0
 26
0.0
 36
1.0
 17
0.0
 27
0.0
 37
0.0
 40
1941.579113600881
 41
1.820158102766798
 42
50.0
 43
0.0
 44
0.0
 50
0.0
 51
0.0
 71
     0
 72
  2000
 73
     1
 74
     1
 75
     0
 76
     0
 77
     0
 78
     0
281
     0
 65
     1
110
0.0
120
0.0
130
0.0
111
1.0
121
0.0
131
0.0
112
0.0
122
1.0
132
0.0
 79
     0
146
0.0
  0
ENDTAB
  0
TABLE
  2
LTYPE
  5
4
330
0
100
AcDbSymbolTable
 70
     6
  0
LTYPE
  5
11
330
4
100
AcDbSymbolTableRecord
100
AcDbLinetypeTableRecord
  2
BYBLOCK
 70
     0
  3

 72
    65
 73
     0
 40
0.0
  0
LTYPE
  5
12
330
4
100
AcDbSymbolTableRecord
100
AcDbLinetypeTableRecord
  2
BYLAYER
 70
     0
  3

 72
    65
 73
     0
 40
0.0
  0
LTYPE
  5
13
330
4
100
AcDbSymbolTableRecord
100
AcDbLinetypeTableRecord
  2
CONTINUOUS
 70
     0
  3
Solid line
 72
    65
 73
     0
 40
0.0
  0
LTYPE
  5
1E
330
4
100
AcDbSymbolTableRecord
100
AcDbLinetypeTableRecord
  2
HIDDEN
 70
     0
  3
Hidden __ __ __ __ __ __ __ __ __ __ __ __ __ __
 72
    65
 73
     2
 40
1.905
 49
1.27
 74
     0
 49
-0.635
 74
     0
  0
LTYPE
  5
1F
330
4
100
AcDbSymbolTableRecord
100
AcDbLinetypeTableRecord
  2
PHANTOM
 70
     0
  3
Phantom ______  __  __  ______  __  __  ______
 72
    65
 73
     6
 40
12.7
 49
6.349999999999999
 74
     0
 49
-1.27
 74
     0
 49
1.27
 74
     0
 49
-1.27
 74
     0
 49
1.27
 74
     0
 49
-1.27
 74
     0
  0
LTYPE
  5
20
330
4
100
AcDbSymbolTableRecord
100
AcDbLinetypeTableRecord
  2
CENTER
 70
     0
  3
Center ____ _ ____ _ ____ _ ____ _ ____ _ ____
 72
    65
 73
     4
 40
10.16
 49
6.349999999999999
 74
     0
 49
-1.27
 74
     0
 49
1.27
 74
     0
 49
-1.27
 74
     0
  0
LTYPE
  5
21
330
4
100
AcDbSymbolTableRecord
100
AcDbLinetypeTableRecord
  2
CENTERX2
 70
     0
  3
Center (2x) ________  __  ________  __  _____
 72
    65
 73
     4
 40
20.32
 49
12.7
 74
     0
 49
-2.54
 74
     0
 49
2.54
 74
     0
 49
-2.54
 74
     0
  0
LTYPE
  5
22
330
4
100
AcDbSymbolTableRecord
100
AcDbLinetypeTableRecord
  2
DOT2
 70
     0
  3
Dot (.5x) ........................................
 72
    65
 73
     2
 40
0.635
 49
0.0
 74
     0
 49
-0.635
 74
     0
  0
ENDTAB
  0
TABLE
  2
LAYER
  5
2
330
0
100
AcDbSymbolTable
 70
     2
  0
LAYER
  5
14
330
2
100
AcDbSymbolTableRecord
100
AcDbLayerTableRecord
  2
0
 70
     0
 62
     7
  6
CONTINUOUS
370
    -3
390
3CA
  0
LAYER
  5
26
330
2
100
AcDbSymbolTableRecord
100
AcDbLayerTableRecord
  2
DEFPOINTS
 70
     0
 62
     7
  6
CONTINUOUS
290
     0
370
    -3
390
3CA
  0
ENDTAB
  0
TABLE
  2
STYLE
  5
3
330
0
100
AcDbSymbolTable
 70
     1
  0
STYLE
  5
17
330
3
100
AcDbSymbolTableRecord
100
AcDbTextStyleTableRecord
  2
STANDARD
 70
     0
 40
0.0
 41
1.0
 50
0.0
 71
     0
 42
0.0
  3
Century Gothic
  4

  0
ENDTAB
  0
TABLE
  2
VIEW
  5
5
330
0
100
AcDbSymbolTable
 70
     0
  0
ENDTAB
  0
TABLE
  2
UCS
  5
6
330
0
100
AcDbSymbolTable
 70
     0
  0
ENDTAB
  0
TABLE
  2
APPID
  5
8
330
0
100
AcDbSymbolTable
 70
     2
  0
APPID
  5
16
330
8
100
AcDbSymbolTableRecord
100
AcDbRegAppTableRecord
  2
ACAD
 70
     0
  0
APPID
  5
3D7
330
8
100
AcDbSymbolTableRecord
100
AcDbRegAppTableRecord
  2
DCO15
 70
     0
  0
ENDTAB
  0
TABLE
  2
DIMSTYLE
  5
9
330
0
100
AcDbSymbolTable
 70
     1
100
AcDbDimStyleTable
 71
     0
  0
DIMSTYLE
105
18
330
9
100
AcDbSymbolTableRecord
100
AcDbDimStyleTableRecord
  2
STANDARD
 70
     0
289
     0
340
17
  0
ENDTAB
  0
TABLE
  2
BLOCK_RECORD
  5
1
330
0
100
AcDbSymbolTable
 70
     0
  0
BLOCK_RECORD
  5
A
330
1
100
AcDbSymbolTableRecord
100
AcDbBlockTableRecord
  2
*MODEL_SPACE
340
3D1
  0
BLOCK_RECORD
  5
B
330
1
100
AcDbSymbolTableRecord
100
AcDbBlockTableRecord
  2
*PAPER_SPACE
340
3D2
  0
ENDTAB
  0
ENDSEC
  0
SECTION
  2
BLOCKS
  0
BLOCK
  5
D
330
A
100
AcDbEntity
  8
0
100
AcDbBlockBegin
  2
*MODEL_SPACE
 70
     0
 10
0.0
 20
0.0
 30
0.0
  3
*MODEL_SPACE
  1

  0
ENDBLK
  5
E
330
A
100
AcDbEntity
  8
0
100
AcDbBlockEnd
  0
BLOCK
  5
F
330
B
100
AcDbEntity
 67
     1
  8
0
100
AcDbBlockBegin
  2
*PAPER_SPACE
 70
     0
 10
0.0
 20
0.0
 30
0.0
  3
*PAPER_SPACE
  1

  0
ENDBLK
  5
10
330
B
100
AcDbEntity
 67
     1
  8
0
100
AcDbBlockEnd
  0
ENDSEC
  0
SECTION
  2
ENTITIES
  0
LINE
  5
27
330
A
100
AcDbEntity
  8
0
  6
Continuous
 62
     7
100
AcDbLine
 10
-540.547226147034
 20
-609.0847930161796
 30
0.0
 11
-601.9531157632406
 21
-359.0847930161797
 31
0.0
  0
LINE
  5
28
330
A
100
AcDbEntity
  8
0
  6
Continuous
 62
     7
100
AcDbLine
 10
-839.1413365308274
 20
-359.0847930161797
 30
0.0
 11
-900.5472261470339
 21
-609.0847930161796
 31
0.0
  0
LINE
  5
29
330
A
100
AcDbEntity
  8
0
  6
Continuous
 62
     7
100
AcDbLine
 10
-900.5472261470339
 20
-609.0847930161796
 30
0.0
 11
-899.5760918671244
 21
-609.3233264737582
 31
0.0
  0
LINE
  5
2A
330
A
100
AcDbEntity
  8
0
  6
Continuous
 62
     7
100
AcDbLine
 10
-541.5183604269437
 20
-609.3233264737582
 30
0.0
 11
-540.547226147034
 21
-609.0847930161796
 31
0.0
  0
LINE
  5
2B
330
A
100
AcDbEntity
  8
0
  6
Continuous
 62
     7
100
AcDbLine
 10
512.7027738529659
 20
-609.0847930161796
 30
0.0
 11
451.2968842367594
 21
-359.0847930161797
 31
0.0
  0
LINE
  5
2C
330
A
100
AcDbEntity
  8
0
  6
Continuous
 62
     7
100
AcDbLine
 10
214.1086634691725
 20
-359.0847930161797
 30
0.0
 11
152.702773852966
 21
-609.0847930161796
 31
0.0
  0
LINE
  5
2D
330
A
100
AcDbEntity
  8
0
  6
Continuous
 62
     7
100
AcDbLine
 10
152.702773852966
 20
-609.0847930161796
 30
0.0
 11
153.6739081328756
 21
-609.3233264737582
 31
0.0
  0
LINE
  5
2E
330
A
100
AcDbEntity
  8
0
  6
Continuous
 62
     7
100
AcDbLine
 10
511.7316395730563
 20
-609.3233264737582
 30
0.0
 11
512.7027738529659
 21
-609.0847930161796
 31
0.0
  0
ARC
  5
2F
330
A
100
AcDbEntity
  8
0
  6
Continuous
 62
     7
100
AcDbCircle
 10
-197.8851096710592
 20
708.5678257092691
 30
0.0
 40
100.0
100
AcDbArc
 50
227.2249941289556
 51
267.4712225668649
  0
ARC
  5
30
330
A
100
AcDbEntity
  8
0
  6
Continuous
 62
     7
100
AcDbCircle
 10
-189.7093426230087
 20
708.5678257092691
 30
0.0
 40
100.0
100
AcDbArc
 50
272.5287774331368
 51
312.775005871046
  0
LINE
  5
31
330
A
100
AcDbEntity
  8
0
  6
Continuous
 62
     7
100
AcDbLine
 10
-248.797226147034
 20
642.6652069838202
 30
0.0
 11
-248.797226147034
 21
635.1652069838202
 31
0.0
  0
LINE
  5
32
330
A
100
AcDbEntity
  8
0
  6
Continuous
 62
     7
100
AcDbLine
 10
-138.797226147034
 20
635.1652069838202
 30
0.0
 11
-138.797226147034
 21
642.6652069838202
 31
0.0
  0
ARC
  5
33
330
A
100
AcDbEntity
  8
0
  6
Continuous
 62
     7
100
AcDbCircle
 10
-185.297226147034
 20
-248.8347930161797
 30
0.0
 40
2.5
100
AcDbArc
 50
270.0000000000008
 51
0.0
  0
ARC
  5
34
330
A
100
AcDbEntity
  8
0
  6
Continuous
 62
     7
100
AcDbCircle
 10
-202.297226147034
 20
-248.8347930161797
 30
0.0
 40
2.5
100
AcDbArc
 50
180.0000000000004
 51
270.0000000000008
  0
ARC
  5
35
330
A
100
AcDbEntity
  8
0
  6
Continuous
 62
     7
100
AcDbCircle
 10
-202.297226147034
 20
-248.7842827589628
 30
0.0
 40
2.5
100
AcDbArc
 50
101.5369590328175
 51
180.0000000000004
  0
ARC
  5
36
330
A
100
AcDbEntity
  8
0
  6
Continuous
 62
     7
100
AcDbCircle
 10
-185.297226147034
 20
-248.7842827589628
 30
0.0
 40
2.5
100
AcDbArc
 50
0.0
 51
78.46304096718252
  0
LINE
  5
37
330
A
100
AcDbEntity
  8
0
  6
Continuous
 62
     7
100
AcDbLine
 10
-203.7972261470339
 20
-94.33479301617964
 30
0.0
 11
-203.7972261470339
 21
-118.3347930161796
 31
0.0
  0
LINE
  5
38
330
A
100
AcDbEntity
  8
0
  6
Continuous
 62
     7
100
AcDbLine
 10
-183.7972261470341
 20
-118.3347930161796
 30
0.0
 11
-183.7972261470341
 21
-94.33479301617964
 31
0.0
  0
LINE
  5
39
330
A
100
AcDbEntity
  8
0
  6
Continuous
 62
     7
100
AcDbLine
 10
-203.5472261470339
 20
-91.33479301617974
 30
0.0
 11
-203.5472261470339
 21
-94.33479301617964
 31
0.0
  0
LINE
  5
3A
330
A
100
AcDbEntity
  8
0
  6
Continuous
 62
     7
100
AcDbLine
 10
-184.0472261470341
 20
-94.33479301617964
 30
0.0
 11
-184.0472261470341
 21
-91.33479301617974
 31
0.0
  0
LINE
  5
3B
330
A
100
AcDbEntity
  8
0
  6
Continuous
 62
     7
100
AcDbLine
 10
-203.5472261470339
 20
-118.3347930161796
 30
0.0
 11
-203.5472261470339
 21
-119.3347930161796
 31
0.0
  0
LINE
  5
3C
330
A
100
AcDbEntity
  8
0
  6
Continuous
 62
     7
100
AcDbLine
 10
-184.0472261470341
 20
-119.3347930161796
 30
0.0
 11
-184.0472261470341
 21
-118.3347930161796
 31
0.0
  0
ARC
  5
3D
330
A
100
AcDbEntity
  8
0
  6
Continuous
 62
     7
100
AcDbCircle
 10
-201.5472261470339
 20
-119.3347930161796
 30
0.0
 40
2.0
100
AcDbArc
 50
180.0000000000004
 51
270.0000000000008
  0
ARC
  5
3E
330
A
100
AcDbEntity
  8
0
  6
Continuous
 62
     7
100
AcDbCircle
 10
-186.0472261470341
 20
-119.3347930161796
 30
0.0
 40
2.0
100
AcDbArc
 50
270.0000000000008
 51
0.0
  0
LINE
  5
3F
330
A
100
AcDbEntity
  8
0
  6
Continuous
 62
     7
100
AcDbLine
 10
-202.797226147034
 20
-242.2159908626628
 30
0.0
 11
-202.7972261470341
 21
-246.3347930161797
 31
0.0
  0
LINE
  5
40
330
A
100
AcDbEntity
  8
0
  6
Continuous
 62
     7
100
AcDbLine
 10
-202.797226147034
 20
-221.3347930161797
 30
0.0
 11
-202.797226147034
 21
-228.3595844021117
 31
0.0
  0
LINE
  5
41
330
A
100
AcDbEntity
  8
0
  6
Continuous
 62
     7
100
AcDbLine
 10
-184.797226147034
 20
-228.3595844021117
 30
0.0
 11
-184.797226147034
 21
-221.3347930161797
 31
0.0
  0
LINE
  5
42
330
A
100
AcDbEntity
  8
0
  6
Continuous
 62
     7
100
AcDbLine
 10
-184.7972261470339
 20
-246.3347930161797
 30
0.0
 11
-184.797226147034
 21
-242.2159908626628
 31
0.0
  0
LINE
  5
43
330
A
100
AcDbEntity
  8
0
  6
Continuous
 62
     7
100
AcDbLine
 10
-202.297226147034
 20
608.6652069838201
 30
0.0
 11
-202.2972261470339
 21
-91.33479301617974
 31
0.0
  0
LINE
  5
44
330
A
100
AcDbEntity
  8
0
  6
Continuous
 62
     7
100
AcDbLine
 10
-185.297226147034
 20
-91.33479301617974
 30
0.0
 11
-185.297226147034
 21
608.6652069838201
 31
0.0
  0
LINE
  5
45
330
A
100
AcDbEntity
  8
0
  6
Continuous
 62
     7
100
AcDbLine
 10
-200.797226147034
 20
-121.3347930161796
 30
0.0
 11
-200.797226147034
 21
-221.3347930161797
 31
0.0
  0
LINE
  5
46
330
A
100
AcDbEntity
  8
0
  6
Continuous
 62
     7
100
AcDbLine
 10
-186.797226147034
 20
-221.3347930161797
 30
0.0
 11
-186.797226147034
 21
-121.3347930161796
 31
0.0
  0
LINE
  5
47
330
A
100
AcDbEntity
  8
0
  6
Continuous
 62
     7
100
AcDbLine
 10
-148.2428883086601
 20
-219.9735770840119
 30
0.0
 11
-108.8114090687436
 21
-219.9735770840119
 31
0.0
  0
LINE
  5
48
330
A
100
AcDbEntity
  8
0
  6
Continuous
 62
     7
100
AcDbLine
 10
-108.8114090687435
 20
-208.973577084012
 30
0.0
 11
-146.245955957812
 21
-208.973577084012
 31
0.0
  0
LINE
  5
49
330
A
100
AcDbEntity
  8
0
  6
Continuous
 62
     7
100
AcDbLine
 10
-241.348496336256
 20
-208.973577084012
 30
0.0
 11
-278.7950070263026
 21
-208.973577084012
 31
0.0
  0
LINE
  5
4A
330
A
100
AcDbEntity
  8
0
  6
Continuous
 62
     7
100
AcDbLine
 10
-278.7950070263026
 20
-219.9735770840119
 30
0.0
 11
-239.3515639854079
 21
-219.9735770840119
 31
0.0
  0
ARC
  5
4B
330
A
100
AcDbEntity
  8
0
  6
Continuous
 62
     7
100
AcDbCircle
 10
-203.797226147034
 20
-242.2159908626628
 30
0.0
 40
1.000000000000008
100
AcDbArc
 50
355.2726444063064
 51
60.00000000000028
  0
ARC
  5
4C
330
A
100
AcDbEntity
  8
0
  6
Continuous
 62
     7
100
AcDbCircle
 10
-183.797226147034
 20
-242.2159908626628
 30
0.0
 40
1.000000000000008
100
AcDbArc
 50
119.9999999999997
 51
185.7740070969013
  0
ARC
  5
4D
330
A
100
AcDbEntity
  8
0
  6
Continuous
 62
     7
100
AcDbCircle
 10
-183.797226147034
 20
-228.3595844021117
 30
0.0
 40
1.000000000000001
100
AcDbArc
 50
185.7740070968976
 51
299.9999999999989
  0
ARC
  5
4E
330
A
100
AcDbEntity
  8
0
  6
Continuous
 62
     7
100
AcDbCircle
 10
-203.797226147034
 20
-228.3595844021117
 30
0.0
 40
1.000000000000002
100
AcDbArc
 50
240.0000000000028
 51
355.2726444063105
  0
LINE
  5
4F
330
A
100
AcDbEntity
  8
0
  6
Continuous
 62
     7
100
AcDbLine
 10
358.4677005901002
 20
-359.0847930161797
 30
0.0
 11
355.188590931256
 21
-305.4718240037701
 31
0.0
  0
LINE
  5
50
330
A
100
AcDbEntity
  8
0
  6
Continuous
 62
     7
100
AcDbLine
 10
310.1885909312574
 20
-305.4718240037701
 30
0.0
 11
306.9094812724133
 21
-359.0847930161797
 31
0.0
  0
LINE
  5
51
330
A
100
AcDbEntity
  8
0
  6
Continuous
 62
     7
100
AcDbLine
 10
355.188590931256
 20
-305.4718240037701
 30
0.0
 11
347.6885909312566
 21
-297.9718240037702
 31
0.0
  0
LINE
  5
52
330
A
100
AcDbEntity
  8
0
  6
Continuous
 62
     7
100
AcDbLine
 10
317.6885909312568
 20
-297.9718240037702
 30
0.0
 11
310.1885909312574
 21
-305.4718240037701
 31
0.0
  0
ARC
  5
53
330
A
100
AcDbEntity
  8
0
  6
Continuous
 62
     7
100
AcDbCircle
 10
406.2148606582846
 20
-101.2512973311378
 30
0.0
 40
9.999999999999978
100
AcDbArc
 50
146.999999999997
 51
149.237184479341
  0
ARC
  5
54
330
A
100
AcDbEntity
  8
0
  6
Continuous
 62
     7
100
AcDbCircle
 10
406.2148606582849
 20
-101.2512973311378
 30
0.0
 40
9.999999999999984
100
AcDbArc
 50
327.0000000000008
 51
146.9999999999993
  0
LINE
  5
55
330
A
100
AcDbEntity
  8
0
  6
Continuous
 62
     7
100
AcDbLine
 10
397.6362061419953
 20
-96.11255366517447
 30
0.0
 11
333.0112164290984
 21
-203.9979621889366
 31
0.0
  0
LINE
  5
56
330
A
100
AcDbEntity
  8
0
  6
Continuous
 62
     7
100
AcDbLine
 10
338.6837853006259
 20
-214.8184039681077
 30
0.0
 11
414.3985897418471
 21
-106.9981728550075
 31
0.0
  0
LINE
  5
57
330
A
100
AcDbEntity
  8
0
  6
Continuous
 62
     7
100
AcDbLine
 10
281.1885909312566
 20
-207.4718240037701
 30
0.0
 11
-108.8114090687436
 21
-207.4718240037701
 31
0.0
  0
LINE
  5
58
330
A
100
AcDbEntity
  8
0
  6
Continuous
 62
     7
100
AcDbLine
 10
327.1791692135622
 20
-226.9325123742664
 30
0.0
 11
329.1885909312577
 21
-277.9718240037622
 31
0.0
  0
LINE
  5
59
330
A
100
AcDbEntity
  8
0
  6
Continuous
 62
     7
100
AcDbLine
 10
336.1885909312556
 20
-277.9718240037622
 30
0.0
 11
338.6497619646673
 21
-215.4580797550672
 31
0.0
  0
LINE
  5
5A
330
A
100
AcDbEntity
  8
0
  6
Continuous
 62
     7
100
AcDbLine
 10
281.1885909312566
 20
-219.97182400377
 30
0.0
 11
314.9379713811877
 21
-219.97182400377
 31
0.0
  0
LINE
  5
5B
330
A
100
AcDbEntity
  8
0
  6
Continuous
 62
     7
100
AcDbLine
 10
314.9379713811877
 20
-208.9718240037701
 30
0.0
 11
281.1885909312566
 21
-208.9718240037701
 31
0.0
  0
ARC
  5
5C
330
A
100
AcDbEntity
  8
0
  6
Continuous
 62
     7
100
AcDbCircle
 10
327.6885909312566
 20
-296.4718240037703
 30
0.0
 40
1.500000000000056
100
AcDbArc
 50
270.0000000000008
 51
0.0
  0
ARC
  5
5D
330
A
100
AcDbEntity
  8
0
  6
Continuous
 62
     7
100
AcDbCircle
 10
337.6885909312568
 20
-296.4718240037703
 30
0.0
 40
1.500000000000056
100
AcDbArc
 50
180.0000000000004
 51
270.0000000000008
  0
LINE
  5
5E
330
A
100
AcDbEntity
  8
0
  6
Continuous
 62
     7
100
AcDbLine
 10
-108.8114090687436
 20
-229.4718240037699
 30
0.0
 11
281.1885909312566
 21
-229.4718240037699
 31
0.0
  0
LINE
  5
5F
330
A
100
AcDbEntity
  8
0
  6
Continuous
 62
     7
100
AcDbLine
 10
329.1885909312577
 20
-277.9718240037622
 30
0.0
 11
329.1885909312566
 21
-296.4718240037703
 31
0.0
  0
LINE
  5
60
330
A
100
AcDbEntity
  8
0
  6
Continuous
 62
     7
100
AcDbLine
 10
336.1885909312567
 20
-296.4718240037703
 30
0.0
 11
336.1885909312556
 21
-277.9718240037622
 31
0.0
  0
LINE
  5
61
330
A
100
AcDbEntity
  8
0
  6
Continuous
 62
     7
100
AcDbLine
 10
-146.245955957812
 20
-170.951493797261
 30
0.0
 11
318.4417476335222
 21
-204.6618077489241
 31
0.0
  0
LINE
  5
62
330
A
100
AcDbEntity
  8
0
  6
Continuous
 62
     7
100
AcDbLine
 10
320.5586909535747
 20
-203.311437530117
 30
0.0
 11
-146.245955957812
 21
-169.4475520004129
 31
0.0
  0
LINE
  5
63
330
A
100
AcDbEntity
  8
0
  6
Continuous
 62
     7
100
AcDbLine
 10
-694.5158973674571
 20
-359.0847930161797
 30
0.0
 11
-697.7950070263035
 21
-305.4718240037314
 31
0.0
  0
LINE
  5
64
330
A
100
AcDbEntity
  8
0
  6
Continuous
 62
     7
100
AcDbLine
 10
-742.7950070263022
 20
-305.4718240037314
 30
0.0
 11
-746.0741166851486
 21
-359.0847930161797
 31
0.0
  0
LINE
  5
65
330
A
100
AcDbEntity
  8
0
  6
Continuous
 62
     7
100
AcDbLine
 10
-697.7950070263035
 20
-305.4718240037314
 30
0.0
 11
-705.295007026303
 21
-297.9718240037314
 31
0.0
  0
LINE
  5
66
330
A
100
AcDbEntity
  8
0
  6
Continuous
 62
     7
100
AcDbLine
 10
-735.2950070263027
 20
-297.9718240037314
 30
0.0
 11
-742.7950070263022
 21
-305.4718240037314
 31
0.0
  0
ARC
  5
67
330
A
100
AcDbEntity
  8
0
  6
Continuous
 62
     7
100
AcDbCircle
 10
-793.8212767533311
 20
-101.251297331099
 30
0.0
 40
10.00000000000034
100
AcDbArc
 50
33.00000000000017
 51
213.0000000000046
  0
LINE
  5
68
330
A
100
AcDbEntity
  8
0
  6
Continuous
 62
     7
100
AcDbLine
 10
-802.0050058368934
 20
-106.9981728549688
 30
0.0
 11
-733.460010185243
 21
-204.6083737575515
 31
0.0
  0
LINE
  5
69
330
A
100
AcDbEntity
  8
0
  6
Continuous
 62
     7
100
AcDbLine
 10
-725.501406432625
 20
-195.8449559648028
 30
0.0
 11
-785.2426223295067
 21
-96.11255372518336
 31
0.0
  0
LINE
  5
6A
330
A
100
AcDbEntity
  8
0
  6
Continuous
 62
     7
100
AcDbLine
 10
-278.7950070263026
 20
-207.4718240037314
 30
0.0
 11
-668.7950070263028
 21
-207.4718240037314
 31
0.0
  0
LINE
  5
6B
330
A
100
AcDbEntity
  8
0
  6
Continuous
 62
     7
100
AcDbLine
 10
-725.5632003641942
 20
-233.0597132212301
 30
0.0
 11
-723.7950070263018
 21
-277.9718240037234
 31
0.0
  0
LINE
  5
6C
330
A
100
AcDbEntity
  8
0
  6
Continuous
 62
     7
100
AcDbLine
 10
-716.7950070263039
 20
-277.9718240037234
 30
0.0
 11
-715.1594812712573
 21
-236.4294698255142
 31
0.0
  0
LINE
  5
6D
330
A
100
AcDbEntity
  8
0
  6
Continuous
 62
     7
100
AcDbLine
 10
-668.7950070263028
 20
-208.9718240037313
 30
0.0
 11
-692.4935986221618
 21
-208.9718240037313
 31
0.0
  0
LINE
  5
6E
330
A
100
AcDbEntity
  8
0
  6
Continuous
 62
     7
100
AcDbLine
 10
-692.4935986221618
 20
-219.9718240037313
 30
0.0
 11
-668.7950070263028
 21
-219.9718240037313
 31
0.0
  0
ARC
  5
6F
330
A
100
AcDbEntity
  8
0
  6
Continuous
 62
     7
100
AcDbCircle
 10
-725.295007026303
 20
-296.4718240037315
 30
0.0
 40
1.5
100
AcDbArc
 50
270.0000000000008
 51
0.0
  0
ARC
  5
70
330
A
100
AcDbEntity
  8
0
  6
Continuous
 62
     7
100
AcDbCircle
 10
-715.2950070263025
 20
-296.4718240037315
 30
0.0
 40
1.500000000000341
100
AcDbArc
 50
180.0000000000004
 51
269.9999999999921
  0
LINE
  5
71
330
A
100
AcDbEntity
  8
0
  6
Continuous
 62
     7
100
AcDbLine
 10
-668.7950070263028
 20
-229.4718240037312
 30
0.0
 11
-278.7950070263026
 21
-229.4718240037312
 31
0.0
  0
LINE
  5
72
330
A
100
AcDbEntity
  8
0
  6
Continuous
 62
     7
100
AcDbLine
 10
-723.7950070263018
 20
-277.9718240037234
 30
0.0
 11
-723.7950070263029
 21
-296.4718240037315
 31
0.0
  0
LINE
  5
73
330
A
100
AcDbEntity
  8
0
  6
Continuous
 62
     7
100
AcDbLine
 10
-716.7950070263028
 20
-296.4718240037315
 30
0.0
 11
-716.7950070263039
 21
-277.9718240037234
 31
0.0
  0
LINE
  5
74
330
A
100
AcDbEntity
  8
0
  6
Continuous
 62
     7
100
AcDbLine
 10
-241.348496336256
 20
-169.4466840981595
 30
0.0
 11
-695.4118811195383
 21
-202.3862672562723
 31
0.0
  0
LINE
  5
75
330
A
100
AcDbEntity
  8
0
  6
Continuous
 62
     7
100
AcDbLine
 10
-694.5417087549294
 20
-203.8270832519076
 30
0.0
 11
-241.348496336256
 21
-170.9506258950077
 31
0.0
  0
LINE
  5
76
330
A
100
AcDbEntity
  8
0
  6
Continuous
 62
     7
100
AcDbLine
 10
-720.547226147034
 20
-359.0847930161797
 30
0.0
 11
-601.9531157632406
 21
-359.0847930161797
 31
0.0
  0
LINE
  5
77
330
A
100
AcDbEntity
  8
0
  6
Continuous
 62
     7
100
AcDbLine
 10
-839.1413365308274
 20
-359.0847930161797
 30
0.0
 11
-720.547226147034
 21
-359.0847930161797
 31
0.0
  0
LINE
  5
78
330
A
100
AcDbEntity
  8
0
  6
Continuous
 62
     7
100
AcDbLine
 10
-720.547226147034
 20
-609.0847930161796
 30
0.0
 11
-540.547226147034
 21
-609.0847930161796
 31
0.0
  0
LINE
  5
79
330
A
100
AcDbEntity
  8
0
  6
Continuous
 62
     7
100
AcDbLine
 10
-900.5472261470339
 20
-609.0847930161796
 30
0.0
 11
-720.547226147034
 21
-609.0847930161796
 31
0.0
  0
LINE
  5
7A
330
A
100
AcDbEntity
  8
0
  6
Continuous
 62
     7
100
AcDbLine
 10
-720.547226147034
 20
-609.3233264737582
 30
0.0
 11
-541.5183604269437
 21
-609.3233264737582
 31
0.0
  0
LINE
  5
7B
330
A
100
AcDbEntity
  8
0
  6
Continuous
 62
     7
100
AcDbLine
 10
-899.5760918671244
 20
-609.3233264737582
 30
0.0
 11
-720.547226147034
 21
-609.3233264737582
 31
0.0
  0
LINE
  5
7C
330
A
100
AcDbEntity
  8
0
  6
Continuous
 62
     7
100
AcDbLine
 10
332.702773852966
 20
-359.0847930161797
 30
0.0
 11
451.2968842367594
 21
-359.0847930161797
 31
0.0
  0
LINE
  5
7D
330
A
100
AcDbEntity
  8
0
  6
Continuous
 62
     7
100
AcDbLine
 10
214.1086634691725
 20
-359.0847930161797
 30
0.0
 11
332.702773852966
 21
-359.0847930161797
 31
0.0
  0
LINE
  5
7E
330
A
100
AcDbEntity
  8
0
  6
Continuous
 62
     7
100
AcDbLine
 10
332.702773852966
 20
-609.0847930161796
 30
0.0
 11
512.7027738529659
 21
-609.0847930161796
 31
0.0
  0
LINE
  5
7F
330
A
100
AcDbEntity
  8
0
  6
Continuous
 62
     7
100
AcDbLine
 10
152.702773852966
 20
-609.0847930161796
 30
0.0
 11
332.702773852966
 21
-609.0847930161796
 31
0.0
  0
LINE
  5
80
330
A
100
AcDbEntity
  8
0
  6
Continuous
 62
     7
100
AcDbLine
 10
332.702773852966
 20
-609.3233264737582
 30
0.0
 11
511.7316395730563
 21
-609.3233264737582
 31
0.0
  0
LINE
  5
81
330
A
100
AcDbEntity
  8
0
  6
Continuous
 62
     7
100
AcDbLine
 10
153.6739081328756
 20
-609.3233264737582
 30
0.0
 11
332.702773852966
 21
-609.3233264737582
 31
0.0
  0
LINE
  5
82
330
A
100
AcDbEntity
  8
0
  6
Continuous
 62
     7
100
AcDbLine
 10
-193.797226147034
 20
608.6652069838201
 30
0.0
 11
-185.297226147034
 21
608.6652069838201
 31
0.0
  0
LINE
  5
83
330
A
100
AcDbEntity
  8
0
  6
Continuous
 62
     7
100
AcDbLine
 10
-202.297226147034
 20
608.6652069838201
 30
0.0
 11
-193.797226147034
 21
608.6652069838201
 31
0.0
  0
LINE
  5
84
330
A
100
AcDbEntity
  8
0
  6
Continuous
 62
     7
100
AcDbLine
 10
-193.797226147034
 20
635.1652069838202
 30
0.0
 11
-121.797226147034
 21
635.1652069838203
 31
0.0
  0
LINE
  5
85
330
A
100
AcDbEntity
  8
0
  6
Continuous
 62
     7
100
AcDbLine
 10
-265.797226147034
 20
635.1652069838203
 30
0.0
 11
-193.797226147034
 21
635.1652069838202
 31
0.0
  0
LINE
  5
86
330
A
100
AcDbEntity
  8
0
  6
Continuous
 62
     7
100
AcDbLine
 10
-193.797226147034
 20
642.6652069838202
 30
0.0
 11
-138.797226147034
 21
642.6652069838202
 31
0.0
  0
LINE
  5
87
330
A
100
AcDbEntity
  8
0
  6
Continuous
 62
     7
100
AcDbLine
 10
-248.797226147034
 20
642.6652069838202
 30
0.0
 11
-193.797226147034
 21
642.6652069838202
 31
0.0
  0
LINE
  5
88
330
A
100
AcDbEntity
  8
0
  6
Continuous
 62
     7
100
AcDbLine
 10
-185.297226147034
 20
-251.3347930161797
 30
0.0
 11
-202.297226147034
 21
-251.3347930161797
 31
0.0
  0
LINE
  5
89
330
A
100
AcDbEntity
  8
0
  6
Continuous
 62
     7
100
AcDbLine
 10
-184.7972261470339
 20
-246.3347930161797
 30
0.0
 11
-202.7972261470341
 21
-246.3347930161797
 31
0.0
  0
LINE
  5
8A
330
A
100
AcDbEntity
  8
0
  6
Continuous
 62
     7
100
AcDbLine
 10
-193.797226147034
 20
-118.3347930161796
 30
0.0
 11
-183.7972261470341
 21
-118.3347930161796
 31
0.0
  0
LINE
  5
8B
330
A
100
AcDbEntity
  8
0
  6
Continuous
 62
     7
100
AcDbLine
 10
-203.7972261470339
 20
-118.3347930161796
 30
0.0
 11
-193.797226147034
 21
-118.3347930161796
 31
0.0
  0
LINE
  5
8C
330
A
100
AcDbEntity
  8
0
  6
Continuous
 62
     7
100
AcDbLine
 10
-193.797226147034
 20
-94.33479301617964
 30
0.0
 11
-183.7972261470341
 21
-94.33479301617964
 31
0.0
  0
LINE
  5
8D
330
A
100
AcDbEntity
  8
0
  6
Continuous
 62
     7
100
AcDbLine
 10
-203.7972261470339
 20
-94.33479301617964
 30
0.0
 11
-193.797226147034
 21
-94.33479301617964
 31
0.0
  0
LINE
  5
8E
330
A
100
AcDbEntity
  8
0
  6
Continuous
 62
     7
100
AcDbLine
 10
-193.797226147034
 20
-91.33479301617974
 30
0.0
 11
-184.0472261470341
 21
-91.33479301617974
 31
0.0
  0
LINE
  5
8F
330
A
100
AcDbEntity
  8
0
  6
Continuous
 62
     7
100
AcDbLine
 10
-203.5472261470339
 20
-91.33479301617974
 30
0.0
 11
-193.797226147034
 21
-91.33479301617974
 31
0.0
  0
LINE
  5
90
330
A
100
AcDbEntity
  8
0
  6
Continuous
 62
     7
100
AcDbLine
 10
-193.797226147034
 20
-121.3347930161796
 30
0.0
 11
-186.0472261470341
 21
-121.3347930161796
 31
0.0
  0
LINE
  5
91
330
A
100
AcDbEntity
  8
0
  6
Continuous
 62
     7
100
AcDbLine
 10
-201.5472261470339
 20
-121.3347930161796
 30
0.0
 11
-193.797226147034
 21
-121.3347930161796
 31
0.0
  0
LINE
  5
92
330
A
100
AcDbEntity
  8
0
  6
Continuous
 62
     7
100
AcDbLine
 10
-184.797226147034
 20
-221.3347930161797
 30
0.0
 11
-202.797226147034
 21
-221.3347930161797
 31
0.0
  0
LWPOLYLINE
  5
93
330
A
100
AcDbEntity
  8
0
  6
Continuous
 62
     7
100
AcDbPolyline
 90
        5
 70
   128
 43
0.0
 10
-147.1637844180247
 20
-210.631614728491
 10
-147.0158734207807
 20
-210.5018611981608
 10
-146.4975815993686
 20
-209.9257327988172
 10
-146.2610336979002
 20
-209.4657616188515
 10
-146.2459559578119
 20
-209.3501017010321
  0
LWPOLYLINE
  5
9A
330
A
100
AcDbEntity
  8
0
  6
Continuous
 62
     7
100
AcDbPolyline
 90
        5
 70
   128
 43
0.0
 10
-240.4306678760486
 20
-210.6316147284909
 10
-240.5785788732873
 20
-210.5018611981608
 10
-241.0968706946994
 20
-209.9257327988173
 10
-241.3334185961677
 20
-209.4657616188515
 10
-241.3484963362561
 20
-209.3501017010321
  0
CIRCLE
  5
A1
330
A
100
AcDbEntity
  8
0
  6
Continuous
 62
     7
100
AcDbCircle
 10
-232.848496336256
 20
-214.473577084012
 30
0.0
 40
8.499999999999971
  0
CIRCLE
  5
A2
330
A
100
AcDbEntity
  8
0
  6
Continuous
 62
     7
100
AcDbCircle
 10
-154.745955957812
 20
-214.473577084012
 30
0.0
 40
8.499999999999943
  0
LINE
  5
A3
330
A
100
AcDbEntity
  8
0
  6
Continuous
 62
     7
100
AcDbLine
 10
-150.495955957812
 20
-221.8347930161797
 30
0.0
 11
-184.4992671759012
 21
-241.4666139012822
 31
0.0
  0
LINE
  5
A4
330
A
100
AcDbEntity
  8
0
  6
Continuous
 62
     7
100
AcDbLine
 10
-203.0951851181667
 20
-241.4666139012821
 30
0.0
 11
-237.098496336256
 21
-221.8347930161796
 31
0.0
  0
LINE
  5
A5
330
A
100
AcDbEntity
  8
0
  6
Continuous
 62
     7
100
AcDbLine
 10
-224.8528079631614
 20
-217.3578391110056
 30
0.0
 11
-204.0951851181667
 21
-229.3422582483
 31
0.0
  0
LINE
  5
A6
330
A
100
AcDbEntity
  8
0
  6
Continuous
 62
     7
100
AcDbLine
 10
-183.4992671759013
 20
-229.3422582483
 30
0.0
 11
-162.7416443309067
 21
-217.3578391110056
 31
0.0
  0
LINE
  5
A7
330
A
100
AcDbEntity
  8
0
  6
Continuous
 62
     7
100
AcDbLine
 10
-153.745955957812
 20
-170.673577084012
 30
0.0
 11
-153.045955957812
 21
-170.673577084012
 31
0.0
  0
LINE
  5
A8
330
A
100
AcDbEntity
  8
0
  6
Continuous
 62
     7
100
AcDbLine
 10
-153.045955957812
 20
-164.273577084012
 30
0.0
 11
-153.745955957812
 21
-164.273577084012
 31
0.0
  0
ARC
  5
A9
330
A
100
AcDbEntity
  8
0
  6
Continuous
 62
     7
100
AcDbCircle
 10
-153.045955957812
 20
-167.473577084012
 30
0.0
 40
3.199999999999988
100
AcDbArc
 50
270.0000000000008
 51
90.0
  0
ARC
  5
AA
330
A
100
AcDbEntity
  8
0
  6
Continuous
 62
     7
100
AcDbCircle
 10
-234.548496336256
 20
-167.473577084012
 30
0.0
 40
3.199999999999988
100
AcDbArc
 50
90.0
 51
270.0000000000008
  0
LINE
  5
AB
330
A
100
AcDbEntity
  8
0
  6
Continuous
 62
     7
100
AcDbLine
 10
-234.548496336256
 20
-170.673577084012
 30
0.0
 11
-233.848496336256
 21
-170.673577084012
 31
0.0
  0
LINE
  5
AC
330
A
100
AcDbEntity
  8
0
  6
Continuous
 62
     7
100
AcDbLine
 10
-233.848496336256
 20
-164.273577084012
 30
0.0
 11
-234.548496336256
 21
-164.273577084012
 31
0.0
  0
ARC
  5
AD
330
A
100
AcDbEntity
  8
0
  6
Continuous
 62
     7
100
AcDbCircle
 10
-153.745955957812
 20
-161.9735770840119
 30
0.0
 40
2.5
100
AcDbArc
 50
90.0
 51
180.0000000000004
  0
LINE
  5
AE
330
A
100
AcDbEntity
  8
0
  6
Continuous
 62
     7
100
AcDbLine
 10
-146.245955957812
 20
-161.9735770840119
 30
0.0
 11
-146.245955957812
 21
-209.3501017010322
 31
0.0
  0
ARC
  5
AF
330
A
100
AcDbEntity
  8
0
  6
Continuous
 62
     7
100
AcDbCircle
 10
-148.745955957812
 20
-161.9735770840119
 30
0.0
 40
2.499999999999971
100
AcDbArc
 50
0.0
 51
90.0
  0
LINE
  5
B0
330
A
100
AcDbEntity
  8
0
  6
Continuous
 62
     7
100
AcDbLine
 10
-231.348496336256
 20
-161.9735770840119
 30
0.0
 11
-231.348496336256
 21
-164.273577084012
 31
0.0
  0
LINE
  5
B1
330
A
100
AcDbEntity
  8
0
  6
Continuous
 62
     7
100
AcDbLine
 10
-231.348496336256
 20
-164.273577084012
 30
0.0
 11
-233.848496336256
 21
-164.273577084012
 31
0.0
  0
ARC
  5
B2
330
A
100
AcDbEntity
  8
0
  6
Continuous
 62
     7
100
AcDbCircle
 10
-238.848496336256
 20
-161.9735770840119
 30
0.0
 40
2.5
100
AcDbArc
 50
90.0
 51
180.0000000000004
  0
ARC
  5
B3
330
A
100
AcDbEntity
  8
0
  6
Continuous
 62
     7
100
AcDbCircle
 10
-233.848496336256
 20
-161.9735770840119
 30
0.0
 40
2.499999999999971
100
AcDbArc
 50
0.0
 51
90.0
  0
LINE
  5
B4
330
A
100
AcDbEntity
  8
0
  6
Continuous
 62
     7
100
AcDbLine
 10
-156.245955957812
 20
-206.1069768186712
 30
0.0
 11
-156.245955957812
 21
-170.673577084012
 31
0.0
  0
LINE
  5
B5
330
A
100
AcDbEntity
  8
0
  6
Continuous
 62
     7
100
AcDbLine
 10
-156.245955957812
 20
-170.673577084012
 30
0.0
 11
-153.745955957812
 21
-170.673577084012
 31
0.0
  0
LINE
  5
B6
330
A
100
AcDbEntity
  8
0
  6
Continuous
 62
     7
100
AcDbLine
 10
-153.745955957812
 20
-159.473577084012
 30
0.0
 11
-148.745955957812
 21
-159.473577084012
 31
0.0
  0
LINE
  5
B7
330
A
100
AcDbEntity
  8
0
  6
Continuous
 62
     7
100
AcDbLine
 10
-231.348496336256
 20
-170.673577084012
 30
0.0
 11
-231.348496336256
 21
-206.1069768186712
 31
0.0
  0
LINE
  5
B8
330
A
100
AcDbEntity
  8
0
  6
Continuous
 62
     7
100
AcDbLine
 10
-233.848496336256
 20
-170.673577084012
 30
0.0
 11
-231.348496336256
 21
-170.673577084012
 31
0.0
  0
LINE
  5
B9
330
A
100
AcDbEntity
  8
0
  6
Continuous
 62
     7
100
AcDbLine
 10
-238.848496336256
 20
-159.473577084012
 30
0.0
 11
-233.848496336256
 21
-159.473577084012
 31
0.0
  0
LINE
  5
BA
330
A
100
AcDbEntity
  8
0
  6
Continuous
 62
     7
100
AcDbLine
 10
-241.348496336256
 20
-209.3501017010322
 30
0.0
 11
-241.348496336256
 21
-161.9735770840119
 31
0.0
  0
LINE
  5
BB
330
A
100
AcDbEntity
  8
0
  6
Continuous
 62
     7
100
AcDbLine
 10
-156.245955957812
 20
-164.273577084012
 30
0.0
 11
-156.245955957812
 21
-161.9735770840119
 31
0.0
  0
LINE
  5
BC
330
A
100
AcDbEntity
  8
0
  6
Continuous
 62
     7
100
AcDbLine
 10
-153.745955957812
 20
-164.273577084012
 30
0.0
 11
-156.245955957812
 21
-164.273577084012
 31
0.0
  0
LINE
  5
BD
330
A
100
AcDbEntity
  8
0
  6
Continuous
 62
     7
100
AcDbLine
 10
-203.297226147034
 20
-241.3499654588783
 30
0.0
 11
-203.0951851181667
 21
-241.4666139012821
 31
0.0
  0
LINE
  5
BE
330
A
100
AcDbEntity
  8
0
  6
Continuous
 62
     7
100
AcDbLine
 10
-184.4992671759012
 20
-241.4666139012822
 30
0.0
 11
-184.297226147034
 21
-241.3499654588783
 31
0.0
  0
LINE
  5
BF
330
A
100
AcDbEntity
  8
0
  6
Continuous
 62
     7
100
AcDbLine
 10
-183.297226147034
 20
-229.2256098058961
 30
0.0
 11
-183.4992671759013
 21
-229.3422582483
 31
0.0
  0
LINE
  5
C0
330
A
100
AcDbEntity
  8
0
  6
Continuous
 62
     7
100
AcDbLine
 10
-204.0951851181667
 20
-229.3422582483
 30
0.0
 11
-204.297226147034
 21
-229.2256098058961
 31
0.0
  0
CIRCLE
  5
C1
330
A
100
AcDbEntity
  8
0
  6
Continuous
 62
     7
100
AcDbCircle
 10
-234.548496336256
 20
-167.473577084012
 30
0.0
 40
3.0
  0
CIRCLE
  5
C2
330
A
100
AcDbEntity
  8
0
  6
Continuous
 62
     7
100
AcDbCircle
 10
-153.045955957812
 20
-167.473577084012
 30
0.0
 40
3.0
  0
LINE
  5
C3
330
A
100
AcDbEntity
  8
0
  6
Continuous
 62
     7
100
AcDbLine
 10
332.6885909312569
 20
-305.4718240037701
 30
0.0
 11
355.188590931256
 21
-305.4718240037701
 31
0.0
  0
LINE
  5
C4
330
A
100
AcDbEntity
  8
0
  6
Continuous
 62
     7
100
AcDbLine
 10
310.1885909312574
 20
-305.4718240037701
 30
0.0
 11
332.6885909312569
 21
-305.4718240037701
 31
0.0
  0
LINE
  5
C5
330
A
100
AcDbEntity
  8
0
  6
Continuous
 62
     7
100
AcDbLine
 10
332.6885909312567
 20
-297.9718240037702
 30
0.0
 11
347.6885909312566
 21
-297.9718240037702
 31
0.0
  0
LINE
  5
C6
330
A
100
AcDbEntity
  8
0
  6
Continuous
 62
     7
100
AcDbLine
 10
317.6885909312568
 20
-297.9718240037702
 30
0.0
 11
332.6885909312567
 21
-297.9718240037702
 31
0.0
  0
CIRCLE
  5
C7
330
A
100
AcDbEntity
  8
0
  6
Continuous
 62
     7
100
AcDbCircle
 10
326.1885909312565
 20
-214.4718240037701
 30
0.0
 40
12.5
  0
LINE
  5
C8
330
A
100
AcDbEntity
  8
0
  6
Continuous
 62
     7
100
AcDbLine
 10
281.1885909312566
 20
-216.3809149128609
 30
0.0
 11
281.1885909312566
 21
-207.4718240037701
 31
0.0
  0
LINE
  5
C9
330
A
100
AcDbEntity
  8
0
  6
Continuous
 62
     7
100
AcDbLine
 10
-108.8114090687436
 20
-207.4718240037701
 30
0.0
 11
-108.8114090687435
 21
-216.3809149128609
 31
0.0
  0
LINE
  5
CA
330
A
100
AcDbEntity
  8
0
  6
Continuous
 62
     7
100
AcDbLine
 10
281.1885909312566
 20
-216.3809149128609
 30
0.0
 11
281.1885909312566
 21
-226.5627330946791
 31
0.0
  0
LINE
  5
CB
330
A
100
AcDbEntity
  8
0
  6
Continuous
 62
     7
100
AcDbLine
 10
-108.8114090687435
 20
-216.3809149128609
 30
0.0
 11
-108.8114090687435
 21
-226.5627330946791
 31
0.0
  0
LINE
  5
CC
330
A
100
AcDbEntity
  8
0
  6
Continuous
 62
     7
100
AcDbLine
 10
329.1885909312577
 20
-277.9718240037622
 30
0.0
 11
336.1885909312556
 21
-277.9718240037622
 31
0.0
  0
LINE
  5
CD
330
A
100
AcDbEntity
  8
0
  6
Continuous
 62
     7
100
AcDbLine
 10
281.1885909312566
 20
-229.4718240037699
 30
0.0
 11
281.1885909312566
 21
-226.5627330946791
 31
0.0
  0
LINE
  5
CE
330
A
100
AcDbEntity
  8
0
  6
Continuous
 62
     7
100
AcDbLine
 10
-108.8114090687435
 20
-226.5627330946791
 30
0.0
 11
-108.8114090687436
 21
-229.4718240037699
 31
0.0
  0
ARC
  5
CF
330
A
100
AcDbEntity
  8
0
  6
Continuous
 62
     7
100
AcDbCircle
 10
326.1885909312565
 20
-214.4718240037701
 30
0.0
 40
22.00000000000006
100
AcDbArc
 50
302.3383423409272
 51
0.0
  0
ARC
  5
D0
330
A
100
AcDbEntity
  8
0
  6
Continuous
 62
     7
100
AcDbCircle
 10
326.1885909312565
 20
-214.4718240037701
 30
0.0
 40
22.00000000000003
100
AcDbArc
 50
194.4775121859306
 51
273.5558556235139
  0
ARC
  5
D1
330
A
100
AcDbEntity
  8
0
  6
Continuous
 62
     7
100
AcDbCircle
 10
326.1885909312565
 20
-214.4718240037701
 30
0.0
 40
22.00000000000004
100
AcDbArc
 50
151.0627237454743
 51
165.5224878140701
  0
ARC
  5
D2
330
A
100
AcDbEntity
  8
0
  6
Continuous
 62
     7
100
AcDbCircle
 10
326.1885909312565
 20
-214.4718240037701
 30
0.0
 40
22.00000000000007
100
AcDbArc
 50
57.85193315651184
 51
146.6780148098091
  0
ARC
  5
D3
330
A
100
AcDbEntity
  8
0
  6
Continuous
 62
     7
100
AcDbCircle
 10
326.1885909312565
 20
-214.4718240037701
 30
0.0
 40
22.00000000000006
100
AcDbArc
 50
0.0
 51
26.63714316540725
  0
LINE
  5
D4
330
A
100
AcDbEntity
  8
0
  6
Continuous
 62
     7
100
AcDbLine
 10
-742.7950070263022
 20
-305.4718240037314
 30
0.0
 11
-697.7950070263035
 21
-305.4718240037314
 31
0.0
  0
LINE
  5
D5
330
A
100
AcDbEntity
  8
0
  6
Continuous
 62
     7
100
AcDbLine
 10
-735.2950070263027
 20
-297.9718240037314
 30
0.0
 11
-705.295007026303
 21
-297.9718240037314
 31
0.0
  0
CIRCLE
  5
D6
330
A
100
AcDbEntity
  8
0
  6
Continuous
 62
     7
100
AcDbCircle
 10
-713.7950070263027
 20
-214.4718240037313
 30
0.0
 40
4.999999999999886
  0
CIRCLE
  5
D7
330
A
100
AcDbEntity
  8
0
  6
Continuous
 62
     7
100
AcDbCircle
 10
-713.7950070263027
 20
-214.4718240037313
 30
0.0
 40
22.0
  0
LINE
  5
D8
330
A
100
AcDbEntity
  8
0
  6
Continuous
 62
     7
100
AcDbLine
 10
-668.7950070263028
 20
-207.4718240037314
 30
0.0
 11
-668.7950070263028
 21
-216.3809149128222
 31
0.0
  0
LINE
  5
D9
330
A
100
AcDbEntity
  8
0
  6
Continuous
 62
     7
100
AcDbLine
 10
-278.7950070263026
 20
-216.3809149128222
 30
0.0
 11
-278.7950070263026
 21
-207.4718240037314
 31
0.0
  0
LINE
  5
DA
330
A
100
AcDbEntity
  8
0
  6
Continuous
 62
     7
100
AcDbLine
 10
-668.7950070263028
 20
-226.5627330946404
 30
0.0
 11
-668.7950070263028
 21
-216.3809149128222
 31
0.0
  0
LINE
  5
DB
330
A
100
AcDbEntity
  8
0
  6
Continuous
 62
     7
100
AcDbLine
 10
-278.7950070263026
 20
-226.5627330946404
 30
0.0
 11
-278.7950070263026
 21
-216.3809149128222
 31
0.0
  0
LINE
  5
DC
330
A
100
AcDbEntity
  8
0
  6
Continuous
 62
     7
100
AcDbLine
 10
-720.2950070263028
 20
-277.9718240037234
 30
0.0
 11
-716.7950070263039
 21
-277.9718240037234
 31
0.0
  0
LINE
  5
DD
330
A
100
AcDbEntity
  8
0
  6
Continuous
 62
     7
100
AcDbLine
 10
-723.7950070263018
 20
-277.9718240037234
 30
0.0
 11
-720.2950070263028
 21
-277.9718240037234
 31
0.0
  0
LINE
  5
DE
330
A
100
AcDbEntity
  8
0
  6
Continuous
 62
     7
100
AcDbLine
 10
-668.7950070263028
 20
-226.5627330946404
 30
0.0
 11
-668.7950070263028
 21
-229.4718240037312
 31
0.0
  0
LINE
  5
DF
330
A
100
AcDbEntity
  8
0
  6
Continuous
 62
     7
100
AcDbLine
 10
-278.7950070263026
 20
-229.4718240037312
 30
0.0
 11
-278.7950070263026
 21
-226.5627330946404
 31
0.0
  0
LINE
  5
E0
330
A
100
AcDbEntity
  8
0
  6
PHANTOM
 62
     7
100
AcDbLine
 10
-204.797226147034
 20
-248.8347930161797
 30
0.0
 11
-182.797226147034
 21
-248.8347930161797
 31
0.0
  0
LINE
  5
E1
330
A
100
AcDbEntity
  8
0
  6
PHANTOM
 62
     7
100
AcDbLine
 10
-193.797226147034
 20
-248.7842827589628
 30
0.0
 11
-204.797226147034
 21
-248.7842827589628
 31
0.0
  0
LINE
  5
E2
330
A
100
AcDbEntity
  8
0
  6
PHANTOM
 62
     7
100
AcDbLine
 10
-182.797226147034
 20
-248.7842827589628
 30
0.0
 11
-193.797226147034
 21
-248.7842827589628
 31
0.0
  0
LINE
  5
E3
330
A
100
AcDbEntity
  8
0
  6
PHANTOM
 62
     7
100
AcDbLine
 10
-193.797226147034
 20
-119.3347930161796
 30
0.0
 11
-184.0472261470341
 21
-119.3347930161796
 31
0.0
  0
LINE
  5
E4
330
A
100
AcDbEntity
  8
0
  6
PHANTOM
 62
     7
100
AcDbLine
 10
-203.5472261470339
 20
-119.3347930161796
 30
0.0
 11
-193.797226147034
 21
-119.3347930161796
 31
0.0
  0
LINE
  5
E5
330
A
100
AcDbEntity
  8
0
  6
PHANTOM
 62
     7
100
AcDbLine
 10
-202.6153892210535
 20
-242.3326393050666
 30
0.0
 11
-202.797226147034
 21
-242.2159908626628
 31
0.0
  0
LWPOLYLINE
  5
E6
330
A
100
AcDbEntity
  8
0
  6
PHANTOM
 62
     7
100
AcDbPolyline
 90
        7
 70
   128
 43
0.0
 10
-201.3137080368545
 20
-239.1262162897352
 10
-201.3953553594775
 20
-240.2066051064432
 10
-201.6397773683891
 20
-241.1697931872733
 10
-201.9504776191927
 20
-241.828303228185
 10
-202.2718555595732
 20
-242.2321995001963
 10
-202.5546752659684
 20
-242.3561171930024
 10
-202.6153892210535
 20
-242.3326393050666
  0
LINE
  5
EF
330
A
100
AcDbEntity
  8
0
  6
PHANTOM
 62
     7
100
AcDbLine
 10
-201.3137080368545
 20
-233.3527135978388
 30
0.0
 11
-201.3137080368545
 21
-239.1262162897352
 31
0.0
  0
LWPOLYLINE
  5
F0
330
A
100
AcDbEntity
  8
0
  6
PHANTOM
 62
     7
100
AcDbPolyline
 90
        7
 70
   128
 43
0.0
 10
-202.6153892210535
 20
-228.4762328445156
 10
-202.3981367971457
 20
-228.7656433013339
 10
-202.3758571687352
 20
-228.8067306150581
 10
-202.0230046903126
 20
-229.628472030121
 10
-201.5735804191068
 20
-231.1715998378624
 10
-201.3205899889129
 20
-233.0191246967244
 10
-201.3137080368545
 20
-233.3527135978388
  0
LINE
  5
F9
330
A
100
AcDbEntity
  8
0
  6
PHANTOM
 62
     7
100
AcDbLine
 10
-202.797226147034
 20
-228.3595844021117
 30
0.0
 11
-202.6153892210535
 21
-228.4762328445156
 31
0.0
  0
LINE
  5
FA
330
A
100
AcDbEntity
  8
0
  6
PHANTOM
 62
     7
100
AcDbLine
 10
-184.9790630730145
 20
-228.4762328445156
 30
0.0
 11
-184.797226147034
 21
-228.3595844021117
 31
0.0
  0
LWPOLYLINE
  5
FB
330
A
100
AcDbEntity
  8
0
  6
PHANTOM
 62
     7
100
AcDbPolyline
 90
        6
 70
   128
 43
0.0
 10
-186.2807442572135
 20
-233.3527135978404
 10
-186.109132183398
 20
-231.6027135978402
 10
-185.6701648841149
 20
-229.9109603071579
 10
-185.2980447102129
 20
-228.9650704774416
 10
-185.0524048642604
 20
-228.5452419756119
 10
-184.9790630730145
 20
-228.4762328445156
  0
LINE
  5
103
330
A
100
AcDbEntity
  8
0
  6
PHANTOM
 62
     7
100
AcDbLine
 10
-186.2807442572135
 20
-239.1262162897351
 30
0.0
 11
-186.2807442572135
 21
-233.3527135978404
 31
0.0
  0
LWPOLYLINE
  5
104
330
A
100
AcDbEntity
  8
0
  6
PHANTOM
 62
     7
100
AcDbPolyline
 90
        6
 70
   128
 43
0.0
 10
-184.9790630730145
 20
-242.3326393050666
 10
-185.2541613010728
 20
-242.2863951060314
 10
-185.6212056755742
 20
-241.8648876043952
 10
-185.9718775356698
 20
-241.1215843344408
 10
-186.197372484067
 20
-240.2173712545339
 10
-186.2807442572135
 20
-239.126216289735
  0
LINE
  5
10C
330
A
100
AcDbEntity
  8
0
  6
PHANTOM
 62
     7
100
AcDbLine
 10
-184.797226147034
 20
-242.2159908626628
 30
0.0
 11
-184.9790630730145
 21
-242.3326393050666
 31
0.0
  0
LWPOLYLINE
  5
10D
330
A
100
AcDbEntity
  8
0
  6
PHANTOM
 62
     7
100
AcDbPolyline
 90
        7
 70
   128
 43
0.0
 10
-202.1488726912791
 20
-233.3527135978388
 10
-202.1972440412609
 20
-233.0896620096123
 10
-202.6868378368115
 20
-231.6032581697982
 10
-203.3414420998828
 20
-230.3290207913441
 10
-203.807160378685
 20
-229.6348621858418
 10
-204.0543951191288
 20
-229.3699388857171
 10
-204.0951851181667
 20
-229.3422582483
  0
LWPOLYLINE
  5
116
330
A
100
AcDbEntity
  8
0
  6
PHANTOM
 62
     7
100
AcDbPolyline
 90
        9
 70
   128
 43
0.0
 10
-204.0951851181667
 20
-229.3422582483
 10
-203.8613534487331
 20
-229.4383487002864
 10
-203.6095825330258
 20
-229.4695943480705
 10
-203.3568412585599
 20
-229.4338892935936
 10
-203.1201639132105
 20
-229.3336399905614
 10
-202.915502106159
 20
-229.175603053978
 10
-202.7566496593514
 20
-228.9704298769661
 10
-202.6543129297701
 20
-228.7319487468481
 10
-202.6153892210535
 20
-228.4762328445156
  0
LINE
  5
121
330
A
100
AcDbEntity
  8
0
  6
PHANTOM
 62
     7
100
AcDbLine
 10
-202.1488726912791
 20
-233.3527135978388
 30
0.0
 11
-201.3137080368545
 21
-233.3527135978388
 31
0.0
  0
LWPOLYLINE
  5
122
330
A
100
AcDbEntity
  8
0
  6
PHANTOM
 62
     7
100
AcDbPolyline
 90
        6
 70
   128
 43
0.0
 10
-183.4992671759012
 20
-229.3422582483
 10
-183.5834749437836
 20
-229.4065615900944
 10
-183.8888531869147
 20
-229.7701935632427
 10
-184.3898102170587
 20
-230.5645459729181
 10
-185.0520131756841
 20
-231.9541230556938
 10
-185.4455796027892
 20
-233.3527135978407
  0
LINE
  5
12A
330
A
100
AcDbEntity
  8
0
  6
PHANTOM
 62
     7
100
AcDbLine
 10
-185.4455796027898
 20
-233.3527135978393
 30
0.0
 11
-186.2807442572135
 21
-233.3527135978404
 31
0.0
  0
LWPOLYLINE
  5
12B
330
A
100
AcDbEntity
  8
0
  6
PHANTOM
 62
     7
100
AcDbPolyline
 90
        9
 70
   128
 43
0.0
 10
-183.4992671759013
 20
-229.3422582483
 10
-183.7330988453349
 20
-229.4383487002864
 10
-183.9848697610421
 20
-229.4695943480705
 10
-184.2376110355081
 20
-229.4338892935936
 10
-184.4742883808575
 20
-229.3336399905614
 10
-184.678950187909
 20
-229.175603053978
 10
-184.8378026347166
 20
-228.9704298769661
 10
-184.9401393642979
 20
-228.7319487468482
 10
-184.9790630730145
 20
-228.4762328445156
  0
LINE
  5
136
330
A
100
AcDbEntity
  8
0
  6
PHANTOM
 62
     7
100
AcDbLine
 10
-185.445579602789
 20
-239.1262162897351
 30
0.0
 11
-186.2807442572135
 21
-239.1262162897351
 31
0.0
  0
LWPOLYLINE
  5
137
330
A
100
AcDbEntity
  8
0
  6
PHANTOM
 62
     7
100
AcDbPolyline
 90
        7
 70
   128
 43
0.0
 10
-185.445579602789
 20
-239.1262162897351
 10
-185.4945565236828
 20
-239.9720916869178
 10
-185.3737703623
 20
-240.6515473046641
 10
-185.1507605180951
 20
-241.1217918867071
 10
-185.1039259928437
 20
-241.1873664232418
 10
-184.7773774451633
 20
-241.4680953725218
 10
-184.4992671759013
 20
-241.4666139012822
  0
LWPOLYLINE
  5
140
330
A
100
AcDbEntity
  8
0
  6
PHANTOM
 62
     7
100
AcDbPolyline
 90
        9
 70
   128
 43
0.0
 10
-184.9790630730145
 20
-242.3326393050666
 10
-184.9735214293366
 20
-242.2015435011398
 10
-184.9509383755239
 20
-242.0727407920121
 10
-184.9117089286685
 20
-241.948484162246
 10
-184.8565192803789
 20
-241.8309470775279
 10
-184.7863347940892
 20
-241.722185466954
 10
-184.7023831191646
 20
-241.6241017612359
 10
-184.6061327171683
 20
-241.5384116158617
 10
-184.4992671759012
 20
-241.4666139012822
  0
LINE
  5
14B
330
A
100
AcDbEntity
  8
0
  6
PHANTOM
 62
     7
100
AcDbLine
 10
-185.445579602789
 20
-239.1262162897351
 30
0.0
 11
-156.9601193614655
 21
-222.6801281514167
 31
0.0
  0
LWPOLYLINE
  5
14C
330
A
100
AcDbEntity
  8
0
  6
PHANTOM
 62
     7
100
AcDbPolyline
 90
        8
 70
   128
 43
0.0
 10
-203.0951851181667
 20
-241.4666139012821
 10
-203.0296391005961
 20
-241.4934068175917
 10
-202.7531718293874
 20
-241.4349205431534
 10
-202.4715606192884
 20
-241.1617514819042
 10
-202.2324663576131
 20
-240.6870609434351
 10
-202.1029770432543
 20
-240.0208073987879
 10
-202.0994485407931
 20
-239.9638696210308
 10
-202.148872691279
 20
-239.1262162897352
  0
LINE
  5
156
330
A
100
AcDbEntity
  8
0
  6
PHANTOM
 62
     7
100
AcDbLine
 10
-202.148872691279
 20
-239.1262162897352
 30
0.0
 11
-201.3137080368545
 21
-239.1262162897352
 31
0.0
  0
LWPOLYLINE
  5
157
330
A
100
AcDbEntity
  8
0
  6
PHANTOM
 62
     7
100
AcDbPolyline
 90
        9
 70
   128
 43
0.0
 10
-203.0951851181667
 20
-241.4666139012821
 10
-202.9883195768997
 20
-241.5384116158617
 10
-202.8920691749034
 20
-241.6241017612359
 10
-202.8081174999788
 20
-241.7221854669539
 10
-202.737933013689
 20
-241.8309470775279
 10
-202.6827433653994
 20
-241.948484162246
 10
-202.6435139185441
 20
-242.0727407920121
 10
-202.6209308647314
 20
-242.2015435011398
 10
-202.6153892210535
 20
-242.3326393050666
  0
LINE
  5
162
330
A
100
AcDbEntity
  8
0
  6
PHANTOM
 62
     7
100
AcDbLine
 10
-230.6343329326025
 20
-222.6801281514167
 30
0.0
 11
-202.148872691279
 21
-239.1262162897352
 31
0.0
  0
LINE
  5
163
330
A
100
AcDbEntity
  8
0
  6
PHANTOM
 62
     7
100
AcDbLine
 10
-202.148872691279
 20
-239.1262162897352
 30
0.0
 11
-202.1488726912791
 21
-233.3527135978388
 31
0.0
  0
LINE
  5
164
330
A
100
AcDbEntity
  8
0
  6
PHANTOM
 62
     7
100
AcDbLine
 10
-185.4455796027898
 20
-233.3527135978393
 30
0.0
 11
-185.445579602789
 21
-239.1262162897351
 31
0.0
  0
LINE
  5
165
330
A
100
AcDbEntity
  8
0
  6
PHANTOM
 62
     7
100
AcDbLine
 10
-202.1488726912791
 20
-233.3527135978388
 30
0.0
 11
-226.0384005776494
 21
-219.5600882418299
 31
0.0
  0
LINE
  5
166
330
A
100
AcDbEntity
  8
0
  6
PHANTOM
 62
     7
100
AcDbLine
 10
-161.5560517164187
 20
-219.5600882418299
 30
0.0
 11
-185.4455796027898
 21
-233.3527135978393
 31
0.0
  0
LINE
  5
167
330
A
100
AcDbEntity
  8
0
  6
PHANTOM
 62
     7
100
AcDbLine
 10
-153.745955957812
 20
-161.9735770840119
 30
0.0
 11
-153.745955957812
 21
-164.273577084012
 31
0.0
  0
LINE
  5
168
330
A
100
AcDbEntity
  8
0
  6
PHANTOM
 62
     7
100
AcDbLine
 10
-148.745955957812
 20
-161.9735770840119
 30
0.0
 11
-153.745955957812
 21
-161.9735770840119
 31
0.0
  0
LINE
  5
169
330
A
100
AcDbEntity
  8
0
  6
PHANTOM
 62
     7
100
AcDbLine
 10
-148.745955957812
 20
-208.4527797946158
 30
0.0
 11
-148.745955957812
 21
-161.9735770840119
 31
0.0
  0
LINE
  5
16A
330
A
100
AcDbEntity
  8
0
  6
PHANTOM
 62
     7
100
AcDbLine
 10
-153.745955957812
 20
-170.673577084012
 30
0.0
 11
-153.745955957812
 21
-206.0326055759449
 31
0.0
  0
LINE
  5
16B
330
A
100
AcDbEntity
  8
0
  6
PHANTOM
 62
     7
100
AcDbLine
 10
-233.848496336256
 20
-206.0326055759449
 30
0.0
 11
-233.848496336256
 21
-170.673577084012
 31
0.0
  0
LINE
  5
16C
330
A
100
AcDbEntity
  8
0
  6
PHANTOM
 62
     7
100
AcDbLine
 10
-238.848496336256
 20
-161.9735770840119
 30
0.0
 11
-238.848496336256
 21
-208.4527797946158
 31
0.0
  0
LINE
  5
16D
330
A
100
AcDbEntity
  8
0
  6
PHANTOM
 62
     7
100
AcDbLine
 10
-233.848496336256
 20
-161.9735770840119
 30
0.0
 11
-238.848496336256
 21
-161.9735770840119
 31
0.0
  0
LINE
  5
16E
330
A
100
AcDbEntity
  8
0
  6
PHANTOM
 62
     7
100
AcDbLine
 10
-233.848496336256
 20
-164.273577084012
 30
0.0
 11
-233.848496336256
 21
-161.9735770840119
 31
0.0
  0
LINE
  5
16F
330
A
100
AcDbEntity
  8
0
  6
PHANTOM
 62
     7
100
AcDbLine
 10
-153.745955957812
 20
-159.473577084012
 30
0.0
 11
-153.745955957812
 21
-161.9735770840119
 31
0.0
  0
LINE
  5
170
330
A
100
AcDbEntity
  8
0
  6
PHANTOM
 62
     7
100
AcDbLine
 10
-156.245955957812
 20
-161.9735770840119
 30
0.0
 11
-153.745955957812
 21
-161.9735770840119
 31
0.0
  0
LINE
  5
171
330
A
100
AcDbEntity
  8
0
  6
PHANTOM
 62
     7
100
AcDbLine
 10
-146.245955957812
 20
-161.9735770840119
 30
0.0
 11
-148.745955957812
 21
-161.9735770840119
 31
0.0
  0
LINE
  5
172
330
A
100
AcDbEntity
  8
0
  6
PHANTOM
 62
     7
100
AcDbLine
 10
-148.745955957812
 20
-159.473577084012
 30
0.0
 11
-148.745955957812
 21
-161.9735770840119
 31
0.0
  0
LINE
  5
173
330
A
100
AcDbEntity
  8
0
  6
PHANTOM
 62
     7
100
AcDbLine
 10
-231.348496336256
 20
-161.9735770840119
 30
0.0
 11
-233.848496336256
 21
-161.9735770840119
 31
0.0
  0
LINE
  5
174
330
A
100
AcDbEntity
  8
0
  6
PHANTOM
 62
     7
100
AcDbLine
 10
-238.848496336256
 20
-159.473577084012
 30
0.0
 11
-238.848496336256
 21
-161.9735770840119
 31
0.0
  0
LINE
  5
175
330
A
100
AcDbEntity
  8
0
  6
PHANTOM
 62
     7
100
AcDbLine
 10
-241.348496336256
 20
-161.9735770840119
 30
0.0
 11
-238.848496336256
 21
-161.9735770840119
 31
0.0
  0
LINE
  5
176
330
A
100
AcDbEntity
  8
0
  6
PHANTOM
 62
     7
100
AcDbLine
 10
-233.848496336256
 20
-159.473577084012
 30
0.0
 11
-233.848496336256
 21
-161.9735770840119
 31
0.0
  0
LINE
  5
177
330
A
100
AcDbEntity
  8
0
  6
PHANTOM
 62
     7
100
AcDbLine
 10
414.3985897418471
 20
-106.9981728550075
 30
0.0
 11
397.6362061419953
 21
-96.11255366517447
 31
0.0
  0
LINE
  5
178
330
A
100
AcDbEntity
  8
0
  6
PHANTOM
 62
     7
100
AcDbLine
 10
-108.8114090687435
 20
-216.3809149128609
 30
0.0
 11
281.1885909312566
 21
-216.3809149128609
 31
0.0
  0
LINE
  5
179
330
A
100
AcDbEntity
  8
0
  6
PHANTOM
 62
     7
100
AcDbLine
 10
281.1885909312566
 20
-226.5627330946791
 30
0.0
 11
-108.8114090687435
 21
-226.5627330946791
 31
0.0
  0
LINE
  5
17A
330
A
100
AcDbEntity
  8
0
  6
PHANTOM
 62
     7
100
AcDbLine
 10
329.1885909312566
 20
-296.4718240037703
 30
0.0
 11
336.1885909312567
 21
-296.4718240037703
 31
0.0
  0
LINE
  5
17B
330
A
100
AcDbEntity
  8
0
  6
PHANTOM
 62
     7
100
AcDbLine
 10
-785.2426223295067
 20
-96.11255372518336
 30
0.0
 11
-802.0050058368934
 21
-106.9981728549688
 31
0.0
  0
LINE
  5
17C
330
A
100
AcDbEntity
  8
0
  6
PHANTOM
 62
     7
100
AcDbLine
 10
-668.7950070263028
 20
-216.3809149128222
 30
0.0
 11
-278.7950070263026
 21
-216.3809149128222
 31
0.0
  0
LINE
  5
17D
330
A
100
AcDbEntity
  8
0
  6
PHANTOM
 62
     7
100
AcDbLine
 10
-278.7950070263026
 20
-226.5627330946404
 30
0.0
 11
-668.7950070263028
 21
-226.5627330946404
 31
0.0
  0
LINE
  5
17E
330
A
100
AcDbEntity
  8
0
  6
PHANTOM
 62
     7
100
AcDbLine
 10
-720.2950070263028
 20
-296.4718240037315
 30
0.0
 11
-716.7950070263028
 21
-296.4718240037315
 31
0.0
  0
LINE
  5
17F
330
A
100
AcDbEntity
  8
0
  6
PHANTOM
 62
     7
100
AcDbLine
 10
-723.7950070263029
 20
-296.4718240037315
 30
0.0
 11
-720.2950070263028
 21
-296.4718240037315
 31
0.0
  0
LINE
  5
180
330
A
100
AcDbEntity
  8
0
  6
Continuous
 62
     7
100
AcDbLine
 10
-662.6038889723685
 20
-993.8445750259894
 30
0.0
 11
-704.4206060828523
 21
-1066.273253667084
 31
0.0
  0
LINE
  5
181
330
A
100
AcDbEntity
  8
0
  6
Continuous
 62
     7
100
AcDbLine
 10
-702.6882595429809
 20
-1067.27274144371
 30
0.0
 11
-660.8718381647996
 21
-994.8445750259896
 31
0.0
  0
LINE
  5
182
330
A
100
AcDbEntity
  8
0
  6
Continuous
 62
     7
100
AcDbLine
 10
-838.1659513039359
 20
-1097.205378972607
 30
0.0
 11
-803.7291161003148
 21
-1097.205378972607
 31
0.0
  0
LINE
  5
183
330
A
100
AcDbEntity
  8
0
  6
Continuous
 62
     7
100
AcDbLine
 10
-803.7386335291865
 20
-1095.205378972607
 30
0.0
 11
-838.1659513039359
 21
-1095.205378972607
 31
0.0
  0
LINE
  5
184
330
A
100
AcDbEntity
  8
0
  6
Continuous
 62
     7
100
AcDbLine
 10
-660.8718381647982
 20
-1197.566182919223
 30
0.0
 11
-702.6885552752831
 21
-1125.137504278129
 31
0.0
  0
LINE
  5
185
330
A
100
AcDbEntity
  8
0
  6
Continuous
 62
     7
100
AcDbLine
 10
-704.4203103505495
 20
-1126.138016501503
 30
0.0
 11
-662.6038889723671
 21
-1198.566182919224
 31
0.0
  0
LINE
  5
186
330
A
100
AcDbEntity
  8
0
  6
Continuous
 62
     7
100
AcDbLine
 10
390.6461110276315
 20
-993.8445750259896
 30
0.0
 11
348.8293939171476
 21
-1066.273253667084
 31
0.0
  0
LINE
  5
187
330
A
100
AcDbEntity
  8
0
  6
Continuous
 62
     7
100
AcDbLine
 10
350.561740457019
 20
-1067.27274144371
 30
0.0
 11
392.3781618352003
 21
-994.8445750259896
 31
0.0
  0
LINE
  5
188
330
A
100
AcDbEntity
  8
0
  6
Continuous
 62
     7
100
AcDbLine
 10
392.3781618352018
 20
-1197.566182919223
 30
0.0
 11
350.561444724717
 21
-1125.137504278129
 31
0.0
  0
LINE
  5
189
330
A
100
AcDbEntity
  8
0
  6
Continuous
 62
     7
100
AcDbLine
 10
348.8296896494505
 20
-1126.138016501503
 30
0.0
 11
390.6461110276329
 21
-1198.566182919224
 31
0.0
  0
LINE
  5
18A
330
A
100
AcDbEntity
  8
0
  6
Continuous
 62
     7
100
AcDbLine
 10
-122.0076029414479
 20
-1101.705378972607
 30
0.0
 11
-108.8114090687435
 21
-1101.705378972607
 31
0.0
  0
LINE
  5
18B
330
A
100
AcDbEntity
  8
0
  6
Continuous
 62
     7
100
AcDbLine
 10
-108.8114090687436
 20
-1090.705378972607
 30
0.0
 11
-122.0076029414483
 21
-1090.705378972607
 31
0.0
  0
LINE
  5
18C
330
A
100
AcDbEntity
  8
0
  6
Continuous
 62
     7
100
AcDbLine
 10
-265.5868493526197
 20
-1090.705378972607
 30
0.0
 11
-278.7950070263026
 21
-1090.705378972607
 31
0.0
  0
LINE
  5
18D
330
A
100
AcDbEntity
  8
0
  6
Continuous
 62
     7
100
AcDbLine
 10
-278.7950070263026
 20
-1101.705378972607
 30
0.0
 11
-265.5868493526202
 21
-1101.705378972607
 31
0.0
  0
ARC
  5
18E
330
A
100
AcDbEntity
  8
0
  6
Continuous
 62
     7
100
AcDbCircle
 10
332.702773852966
 20
-1096.205378972606
 30
0.0
 40
60.00000000000006
100
AcDbArc
 50
270.0000000000008
 51
299.045026126216
  0
ARC
  5
18F
330
A
100
AcDbEntity
  8
0
  6
Continuous
 62
     7
100
AcDbCircle
 10
332.702773852966
 20
-1096.205378972606
 30
0.0
 40
60.00000000000007
100
AcDbArc
 50
300.9549738737858
 51
351.3009121138291
  0
ARC
  5
190
330
A
100
AcDbEntity
  8
0
  6
Continuous
 62
     7
100
AcDbCircle
 10
332.702773852966
 20
-1096.205378972606
 30
0.0
 40
60.00000000000003
100
AcDbArc
 50
8.69908788617721
 51
59.04502612621552
  0
ARC
  5
191
330
A
100
AcDbEntity
  8
0
  6
Continuous
 62
     7
100
AcDbCircle
 10
332.702773852966
 20
-1096.205378972606
 30
0.0
 40
60.0000000000001
100
AcDbArc
 50
60.95497387378539
 51
173.3002348222377
  0
ARC
  5
192
330
A
100
AcDbEntity
  8
0
  6
Continuous
 62
     7
100
AcDbCircle
 10
332.702773852966
 20
-1096.205378972606
 30
0.0
 40
60.00000000000007
100
AcDbArc
 50
186.6997651777588
 51
270.0000000000008
  0
ARC
  5
193
330
A
100
AcDbEntity
  8
0
  6
Continuous
 62
     7
100
AcDbCircle
 10
-720.547226147034
 20
-1096.205378972606
 30
0.0
 40
60.00000000000003
100
AcDbArc
 50
270.0000000000008
 51
299.0450261262159
  0
ARC
  5
194
330
A
100
AcDbEntity
  8
0
  6
Continuous
 62
     7
100
AcDbCircle
 10
-720.547226147034
 20
-1096.205378972606
 30
0.0
 40
60.00000000000006
100
AcDbArc
 50
300.9549738737856
 51
353.3002348222397
  0
ARC
  5
195
330
A
100
AcDbEntity
  8
0
  6
Continuous
 62
     7
100
AcDbCircle
 10
-720.547226147034
 20
-1096.205378972606
 30
0.0
 40
60.00000000000003
100
AcDbArc
 50
6.699765177759879
 51
59.04502612621552
  0
ARC
  5
196
330
A
100
AcDbEntity
  8
0
  6
Continuous
 62
     7
100
AcDbCircle
 10
-720.547226147034
 20
-1096.205378972606
 30
0.0
 40
60.00000000000004
100
AcDbArc
 50
60.9549738737853
 51
171.2857253420666
  0
ARC
  5
197
330
A
100
AcDbEntity
  8
0
  6
Continuous
 62
     7
100
AcDbCircle
 10
-720.547226147034
 20
-1096.205378972606
 30
0.0
 40
60.0
100
AcDbArc
 50
188.7142746579368
 51
270.0000000000008
  0
LWPOLYLINE
  5
198
330
A
100
AcDbEntity
  8
0
  6
Continuous
 62
     7
100
AcDbPolyline
 90
       12
 70
   128
 43
0.0
 10
405.5345113631616
 20
-1106.161898132409
 10
405.8052135250798
 20
-1106.196984910903
 10
407.5766045057609
 20
-1106.112227800251
 10
409.3216312948606
 20
-1105.71053421656
 10
410.9855090124187
 20
-1104.994060004544
 10
412.5167013164205
 20
-1103.969836733417
 10
413.7245739682562
 20
-1102.808727062931
 10
414.7148932710531
 20
-1101.473153225727
 10
415.451972431339
 20
-1100.03627522441
 10
415.8476177470618
 20
-1098.89052158867
 10
416.0791892309647
 20
-1097.847031131318
 10
416.2148606582849
 20
-1096.205378972603
  0
LWPOLYLINE
  5
1A6
330
A
100
AcDbEntity
  8
0
  6
Continuous
 62
     7
100
AcDbPolyline
 90
       12
 70
   128
 43
0.0
 10
416.2148606582849
 20
-1096.205378972603
 10
416.0464196075408
 20
-1094.377689549505
 10
415.8772493417051
 20
-1093.628899799291
 10
415.4632617070821
 20
-1092.401817741257
 10
414.8464337496413
 20
-1091.156027928304
 10
413.9813709721575
 20
-1089.906068094062
 10
412.8720615385772
 20
-1088.743363397745
 10
411.5398462658322
 20
-1087.741069888017
 10
410.0221216879258
 20
-1086.958500393744
 10
408.366059024745
 20
-1086.439502381732
 10
406.6245077914842
 20
-1086.213773034304
 10
405.5378662157454
 20
-1086.265766411983
  0
LINE
  5
1B4
330
A
100
AcDbEntity
  8
0
  6
Continuous
 62
     7
100
AcDbLine
 10
405.5458188190653
 20
-1086.227784355256
 30
0.0
 11
336.6939902868467
 21
-1090.821323890908
 31
0.0
  0
LINE
  5
1B5
330
A
100
AcDbEntity
  8
0
  6
Continuous
 62
     7
100
AcDbLine
 10
336.6884991452186
 20
-1101.589067705624
 30
0.0
 11
405.5460951294202
 21
-1106.182992024357
 31
0.0
  0
LINE
  5
1B6
330
A
100
AcDbEntity
  8
0
  6
Continuous
 62
     7
100
AcDbLine
 10
-121.8011325030035
 20
-1096.955378972607
 30
0.0
 11
319.4023458663655
 21
-1096.955378972604
 31
0.0
  0
LINE
  5
1B7
330
A
100
AcDbEntity
  8
0
  6
Continuous
 62
     7
100
AcDbLine
 10
319.3952154202062
 20
-1095.455378972604
 30
0.0
 11
-121.8011325030036
 21
-1095.455378972607
 31
0.0
  0
LINE
  5
1B8
330
A
100
AcDbEntity
  8
0
  6
Continuous
 62
     7
100
AcDbLine
 10
348.1885909312566
 20
-1081.205378972604
 30
0.0
 11
348.1885909312563
 21
-1076.205378972603
 31
0.0
  0
LINE
  5
1B9
330
A
100
AcDbEntity
  8
0
  6
Continuous
 62
     7
100
AcDbLine
 10
304.1885909312563
 20
-1076.205378972604
 30
0.0
 11
304.1885909312565
 21
-1081.205378972604
 31
0.0
  0
LINE
  5
1BA
330
A
100
AcDbEntity
  8
0
  6
Continuous
 62
     7
100
AcDbLine
 10
338.6885909312565
 20
-1090.688251507599
 30
0.0
 11
338.6885909312565
 21
-1086.205378972603
 31
0.0
  0
LINE
  5
1BB
330
A
100
AcDbEntity
  8
0
  6
Continuous
 62
     7
100
AcDbLine
 10
338.6885909312565
 20
-1106.205378972604
 30
0.0
 11
338.6885909312566
 21
-1101.722506437607
 31
0.0
  0
LINE
  5
1BC
330
A
100
AcDbEntity
  8
0
  6
Continuous
 62
     7
100
AcDbLine
 10
313.6885909312566
 20
-1101.705378972604
 30
0.0
 11
313.6885909312566
 21
-1106.205378972604
 31
0.0
  0
LINE
  5
1BD
330
A
100
AcDbEntity
  8
0
  6
Continuous
 62
     7
100
AcDbLine
 10
313.6885909312566
 20
-1086.205378972604
 30
0.0
 11
313.6885909312566
 21
-1090.705378972604
 31
0.0
  0
LINE
  5
1BE
330
A
100
AcDbEntity
  8
0
  6
Continuous
 62
     7
100
AcDbLine
 10
-108.8114090687435
 20
-1103.205378972607
 30
0.0
 11
281.1885909312566
 21
-1103.205378972604
 31
0.0
  0
LINE
  5
1BF
330
A
100
AcDbEntity
  8
0
  6
Continuous
 62
     7
100
AcDbLine
 10
281.1885909312566
 20
-1089.205378972604
 30
0.0
 11
-108.8114090687435
 21
-1089.205378972607
 31
0.0
  0
LINE
  5
1C0
330
A
100
AcDbEntity
  8
0
  6
Continuous
 62
     7
100
AcDbLine
 10
281.1885909312566
 20
-1101.705378972604
 30
0.0
 11
313.6885909312566
 21
-1101.705378972604
 31
0.0
  0
LINE
  5
1C1
330
A
100
AcDbEntity
  8
0
  6
Continuous
 62
     7
100
AcDbLine
 10
313.6885909312566
 20
-1090.705378972604
 30
0.0
 11
281.1885909312566
 21
-1090.705378972604
 31
0.0
  0
LINE
  5
1C2
330
A
100
AcDbEntity
  8
0
  6
Continuous
 62
     7
100
AcDbLine
 10
331.1885909312564
 20
-1086.205378972604
 30
0.0
 11
331.1885909312564
 21
-1081.205378972604
 31
0.0
  0
LINE
  5
1C3
330
A
100
AcDbEntity
  8
0
  6
Continuous
 62
     7
100
AcDbLine
 10
321.1885909312566
 20
-1081.205378972604
 30
0.0
 11
321.1885909312566
 21
-1086.205378972604
 31
0.0
  0
LWPOLYLINE
  5
1C4
330
A
100
AcDbEntity
  8
0
  6
Continuous
 62
     7
100
AcDbPolyline
 90
       12
 70
   128
 43
0.0
 10
-793.1409274582079
 20
-1086.248859812803
 10
-793.4116296201261
 20
-1086.213773034308
 10
-795.1830206008071
 20
-1086.29853014496
 10
-796.9280473899068
 20
-1086.700223728651
 10
-798.591925107465
 20
-1087.416697940667
 10
-800.1231174114668
 20
-1088.440921211794
 10
-801.3309900633025
 20
-1089.60203088228
 10
-802.3213093660993
 20
-1090.937604719484
 10
-803.0583885263851
 20
-1092.374482720802
 10
-803.4540338421081
 20
-1093.520236356541
 10
-803.6856053260109
 20
-1094.563726813893
 10
-803.8212767533311
 20
-1096.205378972608
  0
LWPOLYLINE
  5
1D2
330
A
100
AcDbEntity
  8
0
  6
Continuous
 62
     7
100
AcDbPolyline
 90
       12
 70
   128
 43
0.0
 10
-803.8212767533311
 20
-1096.205378972608
 10
-803.652835702587
 20
-1098.033068395706
 10
-803.4836654367513
 20
-1098.78185814592
 10
-803.0696778021283
 20
-1100.008940203954
 10
-802.4528498446874
 20
-1101.254730016907
 10
-801.5877870672037
 20
-1102.504689851149
 10
-800.4784776336235
 20
-1103.667394547466
 10
-799.1462623608783
 20
-1104.669688057194
 10
-797.6285377829721
 20
-1105.452257551467
 10
-795.9724751197913
 20
-1105.971255563479
 10
-794.2309238865305
 20
-1106.196984910907
 10
-793.1442823107915
 20
-1106.144991533229
  0
LINE
  5
1E0
330
A
100
AcDbEntity
  8
0
  6
Continuous
 62
     7
100
AcDbLine
 10
-793.1522349141114
 20
-1106.182973589955
 30
0.0
 11
-724.3004063818929
 21
-1101.589434054303
 31
0.0
  0
LINE
  5
1E1
330
A
100
AcDbEntity
  8
0
  6
Continuous
 62
     7
100
AcDbLine
 10
-724.2949152402648
 20
-1090.821690239587
 30
0.0
 11
-793.1525112244664
 21
-1086.227765920854
 31
0.0
  0
LINE
  5
1E2
330
A
100
AcDbEntity
  8
0
  6
Continuous
 62
     7
100
AcDbLine
 10
-265.7933197910645
 20
-1095.455378972607
 30
0.0
 11
-707.0087619614116
 21
-1095.455378972607
 31
0.0
  0
LINE
  5
1E3
330
A
100
AcDbEntity
  8
0
  6
Continuous
 62
     7
100
AcDbLine
 10
-707.0016315152523
 20
-1096.955378972607
 30
0.0
 11
-265.7933197910645
 21
-1096.955378972607
 31
0.0
  0
LINE
  5
1E4
330
A
100
AcDbEntity
  8
0
  6
Continuous
 62
     7
100
AcDbLine
 10
-735.7950070263028
 20
-1111.205378972607
 30
0.0
 11
-735.7950070263028
 21
-1116.205378972607
 31
0.0
  0
LINE
  5
1E5
330
A
100
AcDbEntity
  8
0
  6
Continuous
 62
     7
100
AcDbLine
 10
-691.7950070263027
 20
-1116.205378972607
 30
0.0
 11
-691.7950070263027
 21
-1111.205378972607
 31
0.0
  0
LINE
  5
1E6
330
A
100
AcDbEntity
  8
0
  6
Continuous
 62
     7
100
AcDbLine
 10
-726.2950070263026
 20
-1101.722506437611
 30
0.0
 11
-726.2950070263026
 21
-1106.205378972607
 31
0.0
  0
LINE
  5
1E7
330
A
100
AcDbEntity
  8
0
  6
Continuous
 62
     7
100
AcDbLine
 10
-726.2950070263026
 20
-1086.205378972607
 30
0.0
 11
-726.2950070263026
 21
-1090.688251507603
 31
0.0
  0
LINE
  5
1E8
330
A
100
AcDbEntity
  8
0
  6
Continuous
 62
     7
100
AcDbLine
 10
-701.2950070263027
 20
-1090.705378972607
 30
0.0
 11
-701.2950070263027
 21
-1086.205378972607
 31
0.0
  0
LINE
  5
1E9
330
A
100
AcDbEntity
  8
0
  6
Continuous
 62
     7
100
AcDbLine
 10
-701.2950070263027
 20
-1106.205378972607
 30
0.0
 11
-701.2950070263027
 21
-1101.705378972607
 31
0.0
  0
LINE
  5
1EA
330
A
100
AcDbEntity
  8
0
  6
Continuous
 62
     7
100
AcDbLine
 10
-278.7950070263026
 20
-1089.205378972607
 30
0.0
 11
-668.7950070263028
 21
-1089.205378972607
 31
0.0
  0
LINE
  5
1EB
330
A
100
AcDbEntity
  8
0
  6
Continuous
 62
     7
100
AcDbLine
 10
-668.7950070263028
 20
-1103.205378972607
 30
0.0
 11
-278.7950070263026
 21
-1103.205378972607
 31
0.0
  0
LINE
  5
1EC
330
A
100
AcDbEntity
  8
0
  6
Continuous
 62
     7
100
AcDbLine
 10
-668.7950070263028
 20
-1090.705378972607
 30
0.0
 11
-701.2950070263027
 21
-1090.705378972607
 31
0.0
  0
LINE
  5
1ED
330
A
100
AcDbEntity
  8
0
  6
Continuous
 62
     7
100
AcDbLine
 10
-701.2950070263027
 20
-1101.705378972607
 30
0.0
 11
-668.7950070263028
 21
-1101.705378972607
 31
0.0
  0
LINE
  5
1EE
330
A
100
AcDbEntity
  8
0
  6
Continuous
 62
     7
100
AcDbLine
 10
-718.7950070263026
 20
-1106.205378972607
 30
0.0
 11
-718.7950070263026
 21
-1111.205378972607
 31
0.0
  0
LINE
  5
1EF
330
A
100
AcDbEntity
  8
0
  6
Continuous
 62
     7
100
AcDbLine
 10
-708.7950070263028
 20
-1111.205378972607
 30
0.0
 11
-708.7950070263028
 21
-1106.205378972607
 31
0.0
  0
ARC
  5
1F0
330
A
100
AcDbEntity
  8
0
  6
Continuous
 62
     7
100
AcDbCircle
 10
-720.547226147034
 20
-1096.205378972607
 30
0.0
 40
118.5941103837933
100
AcDbArc
 50
270.0000000000008
 51
356.6161582143569
  0
ARC
  5
1F1
330
A
100
AcDbEntity
  8
0
  6
Continuous
 62
     7
100
AcDbCircle
 10
-720.547226147034
 20
-1096.205378972607
 30
0.0
 40
118.5941103837934
100
AcDbArc
 50
3.383841785643507
 51
270.0000000000008
  0
ARC
  5
1F2
330
A
100
AcDbEntity
  8
0
  6
Continuous
 62
     7
100
AcDbCircle
 10
-720.547226147034
 20
-1096.205378972606
 30
0.0
 40
180.0
100
AcDbArc
 50
270.0000000000008
 51
357.7712687871394
  0
ARC
  5
1F3
330
A
100
AcDbEntity
  8
0
  6
Continuous
 62
     7
100
AcDbCircle
 10
-720.547226147034
 20
-1096.205378972606
 30
0.0
 40
180.0
100
AcDbArc
 50
2.228731212860375
 51
270.0000000000008
  0
ARC
  5
1F4
330
A
100
AcDbEntity
  8
0
  6
Continuous
 62
     7
100
AcDbCircle
 10
-720.547226147034
 20
-1096.205378972607
 30
0.0
 40
117.6229761038839
100
AcDbArc
 50
270.0000000000008
 51
356.5881871621204
  0
ARC
  5
1F5
330
A
100
AcDbEntity
  8
0
  6
Continuous
 62
     7
100
AcDbCircle
 10
-720.547226147034
 20
-1096.205378972607
 30
0.0
 40
117.6229761038839
100
AcDbArc
 50
3.41181283788042
 51
270.0000000000008
  0
LWPOLYLINE
  5
1F6
330
A
100
AcDbEntity
  8
0
  6
Continuous
 62
     7
100
AcDbPolyline
 90
        3
 70
   128
 43
0.0
 10
-661.9511480219866
 20
-994.2168299295515
 10
-661.7398535807102
 20
-994.348021828101
 10
-661.5205908431594
 20
-994.4654122326491
  0
LWPOLYLINE
  5
1FB
330
A
100
AcDbEntity
  8
0
  6
Continuous
 62
     7
100
AcDbPolyline
 90
        3
 70
   128
 43
0.0
 10
-838.1699395759151
 20
-1095.95679667018
 10
-838.1619712796823
 20
-1096.205378972607
 10
-838.1699395759151
 20
-1096.453961275034
  0
LWPOLYLINE
  5
200
330
A
100
AcDbEntity
  8
0
  6
Continuous
 62
     7
100
AcDbPolyline
 90
        3
 70
   128
 43
0.0
 10
-661.5205908444871
 20
-1197.94534571322
 10
-661.7398535807094
 20
-1198.062736117112
 10
-661.9511480207503
 20
-1198.193928014837
  0
ARC
  5
205
330
A
100
AcDbEntity
  8
0
  6
Continuous
 62
     7
100
AcDbCircle
 10
-720.547226147034
 20
-1096.205378972607
 30
0.0
 40
33.99999999999984
100
AcDbArc
 50
270.0000000000008
 51
323.9681209275306
  0
ARC
  5
206
330
A
100
AcDbEntity
  8
0
  6
Continuous
 62
     7
100
AcDbCircle
 10
-720.547226147034
 20
-1096.205378972607
 30
0.0
 40
33.99999999999999
100
AcDbArc
 50
327.7420211190953
 51
350.6906590783629
  0
ARC
  5
207
330
A
100
AcDbEntity
  8
0
  6
Continuous
 62
     7
100
AcDbCircle
 10
-720.547226147034
 20
-1096.205378972607
 30
0.0
 40
34.00000000000007
100
AcDbArc
 50
9.309340921637492
 51
167.5182076779108
  0
ARC
  5
208
330
A
100
AcDbEntity
  8
0
  6
Continuous
 62
     7
100
AcDbCircle
 10
-720.547226147034
 20
-1096.205378972607
 30
0.0
 40
34.00000000000003
100
AcDbArc
 50
192.4817923220924
 51
270.0000000000008
  0
ARC
  5
209
330
A
100
AcDbEntity
  8
0
  6
Continuous
 62
     7
100
AcDbCircle
 10
332.702773852966
 20
-1096.205378972607
 30
0.0
 40
118.5941103837934
100
AcDbArc
 50
270.0000000000008
 51
176.6161582143552
  0
ARC
  5
20A
330
A
100
AcDbEntity
  8
0
  6
Continuous
 62
     7
100
AcDbCircle
 10
332.702773852966
 20
-1096.205378972607
 30
0.0
 40
118.5941103837934
100
AcDbArc
 50
183.3838417856433
 51
270.0000000000008
  0
ARC
  5
20B
330
A
100
AcDbEntity
  8
0
  6
Continuous
 62
     7
100
AcDbCircle
 10
332.702773852966
 20
-1096.205378972606
 30
0.0
 40
180.0
100
AcDbArc
 50
270.0000000000008
 51
177.7712687871393
  0
ARC
  5
20C
330
A
100
AcDbEntity
  8
0
  6
Continuous
 62
     7
100
AcDbCircle
 10
332.702773852966
 20
-1096.205378972606
 30
0.0
 40
180.0
100
AcDbArc
 50
182.228731212861
 51
270.0000000000008
  0
ARC
  5
20D
330
A
100
AcDbEntity
  8
0
  6
Continuous
 62
     7
100
AcDbCircle
 10
332.702773852966
 20
-1096.205378972607
 30
0.0
 40
117.6229761038839
100
AcDbArc
 50
270.0000000000008
 51
176.5881871621186
  0
ARC
  5
20E
330
A
100
AcDbEntity
  8
0
  6
Continuous
 62
     7
100
AcDbCircle
 10
332.702773852966
 20
-1096.205378972607
 30
0.0
 40
117.6229761038839
100
AcDbArc
 50
183.4118128378801
 51
270.0000000000008
  0
LWPOLYLINE
  5
20F
330
A
100
AcDbEntity
  8
0
  6
Continuous
 62
     7
100
AcDbPolyline
 90
        3
 70
   128
 43
0.0
 10
391.2988519953089
 20
-994.2168299410981
 10
391.5101464192898
 20
-994.348021828101
 10
391.7294091381675
 20
-994.4654122234313
  0
LWPOLYLINE
  5
214
330
A
100
AcDbEntity
  8
0
  6
Continuous
 62
     7
100
AcDbPolyline
 90
        3
 70
   128
 43
0.0
 10
391.7294091628614
 20
-1197.945345709592
 10
391.5101464192906
 20
-1198.062736117112
 10
391.2988519724415
 20
-1198.193928019382
  0
ARC
  5
219
330
A
100
AcDbEntity
  8
0
  6
Continuous
 62
     7
100
AcDbCircle
 10
332.702773852966
 20
-1096.205378972607
 30
0.0
 40
33.99999999999995
100
AcDbArc
 50
270.0000000000008
 51
347.5452176474523
  0
ARC
  5
21A
330
A
100
AcDbEntity
  8
0
  6
Continuous
 62
     7
100
AcDbCircle
 10
332.702773852966
 20
-1096.205378972607
 30
0.0
 40
34.00000000000015
100
AcDbArc
 50
12.45478235256072
 51
143.968120927522
  0
ARC
  5
21B
330
A
100
AcDbEntity
  8
0
  6
Continuous
 62
     7
100
AcDbCircle
 10
332.702773852966
 20
-1096.205378972607
 30
0.0
 40
34.00000000000008
100
AcDbArc
 50
146.998092878762
 51
170.690659078357
  0
ARC
  5
21C
330
A
100
AcDbEntity
  8
0
  6
Continuous
 62
     7
100
AcDbCircle
 10
332.702773852966
 20
-1096.205378972607
 30
0.0
 40
34.00000000000005
100
AcDbArc
 50
189.3093409216328
 51
270.0000000000008
  0
CIRCLE
  5
21D
330
A
100
AcDbEntity
  8
0
  6
Continuous
 62
     7
100
AcDbCircle
 10
-193.797226147034
 20
-1096.20537897261
 30
0.0
 40
54.99999999999977
  0
CIRCLE
  5
21E
330
A
100
AcDbEntity
  8
0
  6
Continuous
 62
     7
100
AcDbCircle
 10
-193.797226147034
 20
-1096.20537897261
 30
0.0
 40
72.0
  0
LWPOLYLINE
  5
21F
330
A
100
AcDbEntity
  8
0
  6
Continuous
 62
     7
100
AcDbPolyline
 90
       12
 70
   128
 43
0.0
 10
336.6916477741464
 20
-1101.522672082899
 10
336.2647418950795
 20
-1101.510961362994
 10
335.1087903767982
 20
-1100.885670701792
 10
334.1165160590652
 20
-1099.806035099979
 10
333.3802527135379
 20
-1098.359594105682
 10
333.0250755825721
 20
-1096.629106583128
 10
333.0112164290995
 20
-1096.205378972604
 10
333.2642107955475
 20
-1094.412813195398
 10
333.9730786507205
 20
-1092.822036764898
 10
334.9799408336771
 20
-1091.632603991309
 10
336.0419604456355
 20
-1090.974400993609
 10
336.6995574473686
 20
-1090.870382109433
  0
LWPOLYLINE
  5
22D
330
A
100
AcDbEntity
  8
0
  6
Continuous
 62
     7
100
AcDbPolyline
 90
        6
 70
   128
 43
0.0
 10
320.5586909535747
 20
-1096.205378972604
 10
320.5368900568335
 20
-1096.068627080986
 10
320.460938789545
 20
-1095.919085366168
 10
320.2837375442971
 20
-1095.739147836902
 10
319.9032151064912
 20
-1095.540968705863
 10
319.3950113599679
 20
-1095.469153817605
  0
LWPOLYLINE
  5
235
330
A
100
AcDbEntity
  8
0
  6
Continuous
 62
     7
100
AcDbPolyline
 90
        7
 70
   128
 43
0.0
 10
319.4025092015571
 20
-1096.939006902392
 10
319.5156067316311
 20
-1096.950487352373
 10
320.04051453364
 20
-1096.815360763769
 10
320.2925534935983
 20
-1096.664793459527
 10
320.4657210367348
 20
-1096.484787727698
 10
320.5345516848554
 20
-1096.349229097309
 10
320.5586909535747
 20
-1096.205378972604
  0
LINE
  5
23E
330
A
100
AcDbEntity
  8
0
  6
Continuous
 62
     7
100
AcDbLine
 10
304.1885909312565
 20
-1081.205378972604
 30
0.0
 11
348.1885909312566
 21
-1081.205378972604
 31
0.0
  0
LINE
  5
23F
330
A
100
AcDbEntity
  8
0
  6
Continuous
 62
     7
100
AcDbLine
 10
348.1885909312563
 20
-1076.205378972603
 30
0.0
 11
304.1885909312563
 21
-1076.205378972604
 31
0.0
  0
LINE
  5
240
330
A
100
AcDbEntity
  8
0
  6
Continuous
 62
     7
100
AcDbLine
 10
313.6885909312566
 20
-1106.205378972604
 30
0.0
 11
338.6885909312565
 21
-1106.205378972604
 31
0.0
  0
LWPOLYLINE
  5
241
330
A
100
AcDbEntity
  8
0
  6
Continuous
 62
     7
100
AcDbPolyline
 90
        6
 70
   128
 43
0.0
 10
313.6885909312566
 20
-1090.705378972604
 10
313.8085280083385
 20
-1090.983697445029
 10
314.1205946649919
 20
-1091.77406608785
 10
314.5303565293191
 20
-1093.0566602855
 10
314.8745291517272
 20
-1094.78834194027
 10
314.904288981819
 20
-1095.455378972604
  0
LWPOLYLINE
  5
249
330
A
100
AcDbEntity
  8
0
  6
Continuous
 62
     7
100
AcDbPolyline
 90
        6
 70
   128
 43
0.0
 10
314.9194427691822
 20
-1096.955378972604
 10
314.7801992193142
 20
-1098.242877795454
 10
314.4346985342561
 20
-1099.691635773281
 10
314.0226081848627
 20
-1100.896981703606
 10
313.7363561776483
 20
-1101.595940201174
 10
313.6885909312566
 20
-1101.705378972604
  0
LINE
  5
251
330
A
100
AcDbEntity
  8
0
  6
Continuous
 62
     7
100
AcDbLine
 10
338.6885909312565
 20
-1086.205378972603
 30
0.0
 11
313.6885909312566
 21
-1086.205378972604
 31
0.0
  0
LINE
  5
252
330
A
100
AcDbEntity
  8
0
  6
Continuous
 62
     7
100
AcDbLine
 10
281.1885909312566
 20
-1103.205378972604
 30
0.0
 11
281.1885909312566
 21
-1096.955378972604
 31
0.0
  0
LINE
  5
253
330
A
100
AcDbEntity
  8
0
  6
Continuous
 62
     7
100
AcDbLine
 10
281.1885909312566
 20
-1095.455378972604
 30
0.0
 11
281.1885909312566
 21
-1089.205378972604
 31
0.0
  0
LINE
  5
254
330
A
100
AcDbEntity
  8
0
  6
Continuous
 62
     7
100
AcDbLine
 10
-108.8114090687435
 20
-1089.205378972607
 30
0.0
 11
-108.8114090687435
 21
-1095.455378972607
 31
0.0
  0
LINE
  5
255
330
A
100
AcDbEntity
  8
0
  6
Continuous
 62
     7
100
AcDbLine
 10
-108.8114090687435
 20
-1096.955378972607
 30
0.0
 11
-108.8114090687435
 21
-1103.205378972607
 31
0.0
  0
ARC
  5
256
330
A
100
AcDbEntity
  8
0
  6
Continuous
 62
     7
100
AcDbCircle
 10
332.6885909312567
 20
-1096.205378972603
 30
0.0
 40
15.0
100
AcDbArc
 50
270.0000000000008
 51
336.2839606673666
  0
ARC
  5
257
330
A
100
AcDbEntity
  8
0
  6
Continuous
 62
     7
100
AcDbCircle
 10
332.6885909312567
 20
-1096.205378972603
 30
0.0
 40
14.9999999999999
100
AcDbArc
 50
23.71603933263005
 51
95.73917047726792
  0
ARC
  5
258
330
A
100
AcDbEntity
  8
0
  6
Continuous
 62
     7
100
AcDbCircle
 10
332.6885909312567
 20
-1096.205378972603
 30
0.0
 40
15.00000000000007
100
AcDbArc
 50
221.8103148957815
 51
270.0000000000008
  0
ARC
  5
259
330
A
100
AcDbEntity
  8
0
  6
Continuous
 62
     7
100
AcDbCircle
 10
332.6885909312567
 20
-1096.205378972603
 30
0.0
 40
22.49999999999932
100
AcDbArc
 50
270.0000000000013
 51
343.0678625776743
  0
ARC
  5
25A
330
A
100
AcDbEntity
  8
0
  6
Continuous
 62
     7
100
AcDbCircle
 10
332.6885909312567
 20
-1096.205378972603
 30
0.0
 40
22.49999999999927
100
AcDbArc
 50
16.9321374223241
 51
46.45778097184356
  0
ARC
  5
25B
330
A
100
AcDbEntity
  8
0
  6
Continuous
 62
     7
100
AcDbCircle
 10
332.6885909312567
 20
-1096.205378972603
 30
0.0
 40
22.49999999999927
100
AcDbArc
 50
62.73395554927081
 51
117.2660444507298
  0
ARC
  5
25C
330
A
100
AcDbEntity
  8
0
  6
Continuous
 62
     7
100
AcDbCircle
 10
332.6885909312567
 20
-1096.205378972603
 30
0.0
 40
22.49999999999922
100
AcDbArc
 50
138.1896851042204
 51
165.8509954910665
  0
ARC
  5
25D
330
A
100
AcDbEntity
  8
0
  6
Continuous
 62
     7
100
AcDbCircle
 10
332.6885909312567
 20
-1096.205378972603
 30
0.0
 40
22.49999999999932
100
AcDbArc
 50
194.1490045089377
 51
270.0000000000013
  0
ARC
  5
25E
330
A
100
AcDbEntity
  8
0
  6
Continuous
 62
     7
100
AcDbCircle
 10
332.6885909312567
 20
-1096.205378972603
 30
0.0
 40
26.44470379816449
100
AcDbArc
 50
270.0000000000013
 51
345.0515330584971
  0
ARC
  5
25F
330
A
100
AcDbEntity
  8
0
  6
Continuous
 62
     7
100
AcDbCircle
 10
332.6885909312567
 20
-1096.205378972603
 30
0.0
 40
26.44470379816462
100
AcDbArc
 50
14.94846694150202
 51
130.8613379022958
  0
ARC
  5
260
330
A
100
AcDbEntity
  8
0
  6
Continuous
 62
     7
100
AcDbCircle
 10
332.6885909312567
 20
-1096.205378972603
 30
0.0
 40
26.44470379816462
100
AcDbArc
 50
145.4433131054349
 51
167.9959311368109
  0
ARC
  5
261
330
A
100
AcDbEntity
  8
0
  6
Continuous
 62
     7
100
AcDbCircle
 10
332.6885909312567
 20
-1096.205378972603
 30
0.0
 40
26.44470379816459
100
AcDbArc
 50
192.0040688631919
 51
270.0000000000013
  0
ARC
  5
262
330
A
100
AcDbEntity
  8
0
  6
Continuous
 62
     7
100
AcDbCircle
 10
332.6885909312567
 20
-1096.205378972603
 30
0.0
 40
28.5
100
AcDbArc
 50
90.00000000000046
 51
135.4320713505831
  0
ARC
  5
263
330
A
100
AcDbEntity
  8
0
  6
Continuous
 62
     7
100
AcDbCircle
 10
332.6885909312567
 20
-1096.205378972603
 30
0.0
 40
28.50000000000009
100
AcDbArc
 50
148.243136140703
 51
168.8731116638117
  0
ARC
  5
264
330
A
100
AcDbEntity
  8
0
  6
Continuous
 62
     7
100
AcDbCircle
 10
332.6885909312567
 20
-1096.205378972603
 30
0.0
 40
28.50000000000001
100
AcDbArc
 50
191.1268883361906
 51
345.8634432391843
  0
ARC
  5
265
330
A
100
AcDbEntity
  8
0
  6
Continuous
 62
     7
100
AcDbCircle
 10
332.6885909312567
 20
-1096.205378972603
 30
0.0
 40
28.50000000000011
100
AcDbArc
 50
14.13655676081448
 51
90.00000000000046
  0
LWPOLYLINE
  5
266
330
A
100
AcDbEntity
  8
0
  6
Continuous
 62
     7
100
AcDbPolyline
 90
       12
 70
   128
 43
0.0
 10
-724.2980638691925
 20
-1090.888085862312
 10
-723.8711579901256
 20
-1090.899796582216
 10
-722.7152064718443
 20
-1091.525087243419
 10
-721.7229321541112
 20
-1092.604722845232
 10
-720.9866688085841
 20
-1094.051163839529
 10
-720.6314916776183
 20
-1095.781651362083
 10
-720.6176325241457
 20
-1096.205378972607
 10
-720.8706268905936
 20
-1097.997944749812
 10
-721.5794947457666
 20
-1099.588721180313
 10
-722.5863569287232
 20
-1100.778153953902
 10
-723.6483765406817
 20
-1101.436356951601
 10
-724.3059735424147
 20
-1101.540375835778
  0
LWPOLYLINE
  5
274
330
A
100
AcDbEntity
  8
0
  6
Continuous
 62
     7
100
AcDbPolyline
 90
        6
 70
   128
 43
0.0
 10
-708.1651070486209
 20
-1096.205378972607
 10
-708.1433061518797
 20
-1096.342130864225
 10
-708.0673548845911
 20
-1096.491672579043
 10
-707.8901536393432
 20
-1096.671610108308
 10
-707.5096312015373
 20
-1096.869789239347
 10
-707.0014274550142
 20
-1096.941604127606
  0
LWPOLYLINE
  5
27C
330
A
100
AcDbEntity
  8
0
  6
Continuous
 62
     7
100
AcDbPolyline
 90
        7
 70
   128
 43
0.0
 10
-707.0089252966032
 20
-1095.471751042818
 10
-707.1220228266773
 20
-1095.460270592838
 10
-707.6469306286862
 20
-1095.595397181442
 10
-707.8989695886445
 20
-1095.745964485684
 10
-708.0721371317809
 20
-1095.925970217513
 10
-708.1409677799016
 20
-1096.061528847902
 10
-708.1651070486209
 20
-1096.205378972607
  0
LINE
  5
285
330
A
100
AcDbEntity
  8
0
  6
Continuous
 62
     7
100
AcDbLine
 10
-691.7950070263027
 20
-1111.205378972607
 30
0.0
 11
-735.7950070263028
 21
-1111.205378972607
 31
0.0
  0
LINE
  5
286
330
A
100
AcDbEntity
  8
0
  6
Continuous
 62
     7
100
AcDbLine
 10
-735.7950070263028
 20
-1116.205378972607
 30
0.0
 11
-691.7950070263027
 21
-1116.205378972607
 31
0.0
  0
LINE
  5
287
330
A
100
AcDbEntity
  8
0
  6
Continuous
 62
     7
100
AcDbLine
 10
-701.2950070263027
 20
-1086.205378972607
 30
0.0
 11
-726.2950070263026
 21
-1086.205378972607
 31
0.0
  0
LWPOLYLINE
  5
288
330
A
100
AcDbEntity
  8
0
  6
Continuous
 62
     7
100
AcDbPolyline
 90
        6
 70
   128
 43
0.0
 10
-701.2950070263027
 20
-1101.705378972607
 10
-701.4149441033846
 20
-1101.427060500182
 10
-701.727010760038
 20
-1100.63669185736
 10
-702.1367726243653
 20
-1099.354097659711
 10
-702.4809452467734
 20
-1097.622416004941
 10
-702.5107050768651
 20
-1096.955378972607
  0
LWPOLYLINE
  5
290
330
A
100
AcDbEntity
  8
0
  6
Continuous
 62
     7
100
AcDbPolyline
 90
        6
 70
   128
 43
0.0
 10
-702.5258588642283
 20
-1095.455378972607
 10
-702.3866153143603
 20
-1094.167880149757
 10
-702.0411146293023
 20
-1092.719122171931
 10
-701.6290242799088
 20
-1091.513776241604
 10
-701.3427722726945
 20
-1090.814817744037
 10
-701.2950070263027
 20
-1090.705378972607
  0
LINE
  5
298
330
A
100
AcDbEntity
  8
0
  6
Continuous
 62
     7
100
AcDbLine
 10
-726.2950070263026
 20
-1106.205378972607
 30
0.0
 11
-701.2950070263027
 21
-1106.205378972607
 31
0.0
  0
LINE
  5
299
330
A
100
AcDbEntity
  8
0
  6
Continuous
 62
     7
100
AcDbLine
 10
-668.7950070263028
 20
-1089.205378972607
 30
0.0
 11
-668.7950070263028
 21
-1095.455378972607
 31
0.0
  0
LINE
  5
29A
330
A
100
AcDbEntity
  8
0
  6
Continuous
 62
     7
100
AcDbLine
 10
-668.7950070263028
 20
-1096.955378972607
 30
0.0
 11
-668.7950070263028
 21
-1103.205378972607
 31
0.0
  0
LINE
  5
29B
330
A
100
AcDbEntity
  8
0
  6
Continuous
 62
     7
100
AcDbLine
 10
-278.7950070263026
 20
-1103.205378972607
 30
0.0
 11
-278.7950070263026
 21
-1096.955378972607
 31
0.0
  0
LINE
  5
29C
330
A
100
AcDbEntity
  8
0
  6
Continuous
 62
     7
100
AcDbLine
 10
-278.7950070263026
 20
-1095.455378972607
 30
0.0
 11
-278.7950070263026
 21
-1089.205378972607
 31
0.0
  0
ARC
  5
29D
330
A
100
AcDbEntity
  8
0
  6
Continuous
 62
     7
100
AcDbCircle
 10
-720.2950070263028
 20
-1096.205378972607
 30
0.0
 40
15.00000000000004
100
AcDbArc
 50
90.0
 51
156.2839606673692
  0
ARC
  5
29E
330
A
100
AcDbEntity
  8
0
  6
Continuous
 62
     7
100
AcDbCircle
 10
-720.2950070263028
 20
-1096.205378972607
 30
0.0
 40
14.99999999999997
100
AcDbArc
 50
203.7160393326342
 51
275.7391704772685
  0
ARC
  5
29F
330
A
100
AcDbEntity
  8
0
  6
Continuous
 62
     7
100
AcDbCircle
 10
-720.2950070263028
 20
-1096.205378972607
 30
0.0
 40
14.99999999999989
100
AcDbArc
 50
41.81031489577897
 51
90.0
  0
ARC
  5
2A0
330
A
100
AcDbEntity
  8
0
  6
Continuous
 62
     7
100
AcDbCircle
 10
-720.2950070263028
 20
-1096.205378972607
 30
0.0
 40
22.49999999999934
100
AcDbArc
 50
90.0
 51
163.0678625776753
  0
ARC
  5
2A1
330
A
100
AcDbEntity
  8
0
  6
Continuous
 62
     7
100
AcDbCircle
 10
-720.2950070263028
 20
-1096.205378972607
 30
0.0
 40
22.49999999999934
100
AcDbArc
 50
196.9321374223275
 51
226.4577809718437
  0
ARC
  5
2A2
330
A
100
AcDbEntity
  8
0
  6
Continuous
 62
     7
100
AcDbCircle
 10
-720.2950070263028
 20
-1096.205378972607
 30
0.0
 40
22.49999999999932
100
AcDbArc
 50
242.7339555492714
 51
297.2660444507302
  0
ARC
  5
2A3
330
A
100
AcDbEntity
  8
0
  6
Continuous
 62
     7
100
AcDbCircle
 10
-720.2950070263028
 20
-1096.205378972607
 30
0.0
 40
22.49999999999933
100
AcDbArc
 50
318.1896851042207
 51
345.8509954910633
  0
ARC
  5
2A4
330
A
100
AcDbEntity
  8
0
  6
Continuous
 62
     7
100
AcDbCircle
 10
-720.2950070263028
 20
-1096.205378972607
 30
0.0
 40
22.49999999999932
100
AcDbArc
 50
14.14900450893506
 51
90.0
  0
ARC
  5
2A5
330
A
100
AcDbEntity
  8
0
  6
Continuous
 62
     7
100
AcDbCircle
 10
-720.2950070263028
 20
-1096.205378972607
 30
0.0
 40
26.44470379816454
100
AcDbArc
 50
90.0
 51
165.0515330584986
  0
ARC
  5
2A6
330
A
100
AcDbEntity
  8
0
  6
Continuous
 62
     7
100
AcDbCircle
 10
-720.2950070263028
 20
-1096.205378972607
 30
0.0
 40
26.44470379816455
100
AcDbArc
 50
194.9484669415051
 51
310.8613379022965
  0
ARC
  5
2A7
330
A
100
AcDbEntity
  8
0
  6
Continuous
 62
     7
100
AcDbCircle
 10
-720.2950070263028
 20
-1096.205378972607
 30
0.0
 40
26.44470379816454
100
AcDbArc
 50
325.4433131054356
 51
347.9959311368102
  0
ARC
  5
2A8
330
A
100
AcDbEntity
  8
0
  6
Continuous
 62
     7
100
AcDbCircle
 10
-720.2950070263028
 20
-1096.205378972607
 30
0.0
 40
26.44470379816457
100
AcDbArc
 50
12.00406886318859
 51
90.0
  0
ARC
  5
2A9
330
A
100
AcDbEntity
  8
0
  6
Continuous
 62
     7
100
AcDbCircle
 10
-720.2950070263028
 20
-1096.205378972607
 30
0.0
 40
28.5
100
AcDbArc
 50
270.0000000000008
 51
315.4320713505836
  0
ARC
  5
2AA
330
A
100
AcDbEntity
  8
0
  6
Continuous
 62
     7
100
AcDbCircle
 10
-720.2950070263028
 20
-1096.205378972607
 30
0.0
 40
28.49999999999995
100
AcDbArc
 50
328.2431361407037
 51
348.8731116638122
  0
ARC
  5
2AB
330
A
100
AcDbEntity
  8
0
  6
Continuous
 62
     7
100
AcDbCircle
 10
-720.2950070263028
 20
-1096.205378972607
 30
0.0
 40
28.50000000000011
100
AcDbArc
 50
11.12688833618788
 51
165.863443239186
  0
ARC
  5
2AC
330
A
100
AcDbEntity
  8
0
  6
Continuous
 62
     7
100
AcDbCircle
 10
-720.2950070263028
 20
-1096.205378972607
 30
0.0
 40
28.50000000000006
100
AcDbArc
 50
194.1365567608172
 51
270.0000000000008
  0
LWPOLYLINE
  5
2AD
330
A
100
AcDbEntity
  8
0
  6
PHANTOM
 62
     7
100
AcDbPolyline
 90
       18
 70
   128
 43
0.0
 10
405.5394624539756
 20
-1106.182542771101
 10
404.8246299809689
 20
-1106.097085768864
 10
403.2761786034637
 20
-1105.649174212267
 10
401.8268020348564
 20
-1104.859939290139
 10
400.5288845206504
 20
-1103.757906008899
 10
399.4293361815002
 20
-1102.38290472265
 10
398.5678975592282
 20
-1100.784631560408
 10
397.9757032900994
 20
-1099.020852278516
 10
397.6741568179474
 20
-1097.155314455705
 10
397.6741568179474
 20
-1095.255443489502
 10
397.9757032900995
 20
-1093.38990566669
 10
398.5678975592282
 20
-1091.626126384799
 10
399.4293361815003
 20
-1090.027853222556
 10
400.5288845206504
 20
-1088.652851936307
 10
401.8268020348562
 20
-1087.550818655067
 10
403.2761786034635
 20
-1086.76158373294
 10
404.8246299809688
 20
-1086.313672176343
 10
405.5389331761283
 20
-1086.228251240629
  0
LWPOLYLINE
  5
2C1
330
A
100
AcDbEntity
  8
0
  6
PHANTOM
 62
     7
100
AcDbPolyline
 90
        3
 70
   128
 43
0.0
 10
332.6885909312567
 20
-1106.923742116885
 10
334.6389370058518
 20
-1106.744802993013
 10
336.5150466618769
 20
-1106.205378972604
  0
LWPOLYLINE
  5
2C6
330
A
100
AcDbEntity
  8
0
  6
PHANTOM
 62
     7
100
AcDbPolyline
 90
        4
 70
   128
 43
0.0
 10
338.6885909312565
 20
-1105.06709327841
 10
340.267618193798
 20
-1103.784406235145
 10
341.6598127706312
 20
-1102.070571825478
 10
341.7348440936066
 20
-1101.925741190194
  0
LWPOLYLINE
  5
2CC
330
A
100
AcDbEntity
  8
0
  6
PHANTOM
 62
     7
100
AcDbPolyline
 90
        4
 70
   128
 43
0.0
 10
341.734844093607
 20
-1090.485016755013
 10
341.6598127706312
 20
-1090.340186119729
 10
340.267618193798
 20
-1088.626351710062
 10
338.6885909312565
 20
-1087.343664666796
  0
LWPOLYLINE
  5
2D2
330
A
100
AcDbEntity
  8
0
  6
PHANTOM
 62
     7
100
AcDbPolyline
 90
        3
 70
   128
 43
0.0
 10
336.5150466618791
 20
-1086.205378972604
 10
334.6389370058518
 20
-1085.665954952193
 10
332.6885909312567
 20
-1085.487015828322
  0
LINE
  5
2D7
330
A
100
AcDbEntity
  8
0
  6
PHANTOM
 62
     7
100
AcDbLine
 10
332.6885909312567
 20
-1085.487015828322
 30
0.0
 11
331.1885909312564
 21
-1085.624636884043
 31
0.0
  0
LWPOLYLINE
  5
2D8
330
A
100
AcDbEntity
  8
0
  6
PHANTOM
 62
     7
100
AcDbPolyline
 90
        3
 70
   128
 43
0.0
 10
328.8621352006364
 20
-1106.205378972604
 10
330.7382448566611
 20
-1106.744802993013
 10
332.6885909312567
 20
-1106.923742116885
  0
ARC
  5
2DD
330
A
100
AcDbEntity
  8
0
  6
PHANTOM
 62
     7
100
AcDbCircle
 10
332.6885909312567
 20
-1096.205378972603
 30
0.0
 40
9.549678817091615
100
AcDbArc
 50
36.13526760329553
 51
51.07567671769748
  0
ARC
  5
2DE
330
A
100
AcDbEntity
  8
0
  6
PHANTOM
 62
     7
100
AcDbCircle
 10
332.6885909312567
 20
-1096.205378972603
 30
0.0
 40
9.549678817091782
100
AcDbArc
 50
308.9243232823025
 51
323.8647323966993
  0
ARC
  5
2DF
330
A
100
AcDbEntity
  8
0
  6
PHANTOM
 62
     7
100
AcDbCircle
 10
332.6885909312567
 20
-1096.205378972603
 30
0.0
 40
9.243442456779643
100
AcDbArc
 50
37.34428063671441
 51
49.52555583723226
  0
ARC
  5
2E0
330
A
100
AcDbEntity
  8
0
  6
PHANTOM
 62
     7
100
AcDbCircle
 10
332.6885909312567
 20
-1096.205378972603
 30
0.0
 40
9.243442456779744
100
AcDbArc
 50
310.474444162768
 51
322.6557193632798
  0
LWPOLYLINE
  5
2E1
330
A
100
AcDbEntity
  8
0
  6
PHANTOM
 62
     7
100
AcDbPolyline
 90
       18
 70
   128
 43
0.0
 10
-793.1458785490218
 20
-1086.22821517411
 10
-792.4310460760151
 20
-1086.313672176347
 10
-790.8825946985097
 20
-1086.761583732944
 10
-789.4332181299025
 20
-1087.550818655071
 10
-788.1353006156965
 20
-1088.652851936312
 10
-787.0357522765464
 20
-1090.027853222561
 10
-786.1743136542743
 20
-1091.626126384803
 10
-785.5821193851455
 20
-1093.389905666694
 10
-785.2805729129935
 20
-1095.255443489506
 10
-785.2805729129935
 20
-1097.15531445571
 10
-785.5821193851457
 20
-1099.020852278521
 10
-786.1743136542743
 20
-1100.784631560413
 10
-787.0357522765465
 20
-1102.382904722654
 10
-788.1353006156967
 20
-1103.757906008904
 10
-789.4332181299026
 20
-1104.859939290144
 10
-790.8825946985098
 20
-1105.649174212271
 10
-792.4310460760152
 20
-1106.097085768868
 10
-793.1453492711745
 20
-1106.182506704582
  0
LWPOLYLINE
  5
2F5
330
A
100
AcDbEntity
  8
0
  6
PHANTOM
 62
     7
100
AcDbPolyline
 90
        3
 70
   128
 43
0.0
 10
-720.2950070263028
 20
-1085.487015828326
 10
-722.245353100898
 20
-1085.665954952197
 10
-724.1214627569255
 20
-1086.205378972607
  0
LWPOLYLINE
  5
2FA
330
A
100
AcDbEntity
  8
0
  6
PHANTOM
 62
     7
100
AcDbPolyline
 90
        4
 70
   128
 43
0.0
 10
-726.2950070263026
 20
-1087.3436646668
 10
-727.8740342888442
 20
-1088.626351710066
 10
-729.2662288656774
 20
-1090.340186119732
 10
-729.3412601886532
 20
-1090.485016755017
  0
LWPOLYLINE
  5
300
330
A
100
AcDbEntity
  8
0
  6
PHANTOM
 62
     7
100
AcDbPolyline
 90
        4
 70
   128
 43
0.0
 10
-729.3412601886528
 20
-1101.925741190197
 10
-729.2662288656774
 20
-1102.070571825481
 10
-727.8740342888442
 20
-1103.784406235148
 10
-726.2950070263026
 20
-1105.067093278414
  0
LWPOLYLINE
  5
306
330
A
100
AcDbEntity
  8
0
  6
PHANTOM
 62
     7
100
AcDbPolyline
 90
        3
 70
   128
 43
0.0
 10
-724.1214627569231
 20
-1106.205378972607
 10
-722.245353100898
 20
-1106.744802993017
 10
-720.2950070263028
 20
-1106.923742116888
  0
LINE
  5
30B
330
A
100
AcDbEntity
  8
0
  6
PHANTOM
 62
     7
100
AcDbLine
 10
-720.2950070263028
 20
-1106.923742116888
 30
0.0
 11
-718.7950070263026
 21
-1106.786121061167
 31
0.0
  0
LWPOLYLINE
  5
30C
330
A
100
AcDbEntity
  8
0
  6
PHANTOM
 62
     7
100
AcDbPolyline
 90
        3
 70
   128
 43
0.0
 10
-716.4685512956801
 20
-1086.205378972607
 10
-718.3446609517074
 20
-1085.665954952197
 10
-720.2950070263028
 20
-1085.487015828326
  0
ARC
  5
311
330
A
100
AcDbEntity
  8
0
  6
PHANTOM
 62
     7
100
AcDbCircle
 10
-720.2950070263028
 20
-1096.205378972607
 30
0.0
 40
9.549678817091782
100
AcDbArc
 50
216.1352676033023
 51
231.0756767177
  0
ARC
  5
312
330
A
100
AcDbEntity
  8
0
  6
PHANTOM
 62
     7
100
AcDbCircle
 10
-720.2950070263028
 20
-1096.205378972607
 30
0.0
 40
9.549678817091646
100
AcDbArc
 50
128.9243232823015
 51
143.8647323967042
  0
ARC
  5
313
330
A
100
AcDbEntity
  8
0
  6
PHANTOM
 62
     7
100
AcDbCircle
 10
-720.2950070263028
 20
-1096.205378972607
 30
0.0
 40
9.243442456779511
100
AcDbArc
 50
217.3442806367194
 51
229.5255558372333
  0
ARC
  5
314
330
A
100
AcDbEntity
  8
0
  6
PHANTOM
 62
     7
100
AcDbCircle
 10
-720.2950070263028
 20
-1096.205378972607
 30
0.0
 40
9.243442456779598
100
AcDbArc
 50
130.474444162767
 51
142.6557193632854
  0
LINE
  5
315
330
A
100
AcDbEntity
  8
0
  6
Continuous
 62
     7
100
AcDbLine
 10
1260.536034840985
 20
-609.0847930161796
 30
0.0
 11
1199.130145224779
 21
-359.0847930161797
 31
0.0
  0
LINE
  5
316
330
A
100
AcDbEntity
  8
0
  6
Continuous
 62
     7
100
AcDbLine
 10
961.9419244571918
 20
-359.0847930161797
 30
0.0
 11
900.5360348409851
 21
-609.0847930161796
 31
0.0
  0
LINE
  5
317
330
A
100
AcDbEntity
  8
0
  6
Continuous
 62
     7
100
AcDbLine
 10
900.5360348409851
 20
-609.0847930161796
 30
0.0
 11
901.5071691208948
 21
-609.3233264737582
 31
0.0
  0
LINE
  5
318
330
A
100
AcDbEntity
  8
0
  6
Continuous
 62
     7
100
AcDbLine
 10
1259.564900561075
 20
-609.3233264737582
 30
0.0
 11
1260.536034840985
 21
-609.0847930161796
 31
0.0
  0
ARC
  5
319
330
A
100
AcDbEntity
  8
0
  6
Continuous
 62
     7
100
AcDbCircle
 10
1076.448151316958
 20
708.5678257092691
 30
0.0
 40
100.0
100
AcDbArc
 50
227.2249941289556
 51
267.4712225668649
  0
ARC
  5
31A
330
A
100
AcDbEntity
  8
0
  6
Continuous
 62
     7
100
AcDbCircle
 10
1084.623918365008
 20
708.5678257092691
 30
0.0
 40
100.0
100
AcDbArc
 50
272.5287774331367
 51
312.775005871046
  0
LINE
  5
31B
330
A
100
AcDbEntity
  8
0
  6
Continuous
 62
     7
100
AcDbLine
 10
1025.536034840983
 20
642.6652069838202
 30
0.0
 11
1025.536034840983
 21
635.1652069838202
 31
0.0
  0
LINE
  5
31C
330
A
100
AcDbEntity
  8
0
  6
Continuous
 62
     7
100
AcDbLine
 10
1135.536034840983
 20
635.1652069838202
 30
0.0
 11
1135.536034840983
 21
642.6652069838202
 31
0.0
  0
ARC
  5
31D
330
A
100
AcDbEntity
  8
0
  6
Continuous
 62
     7
100
AcDbCircle
 10
1072.036034840983
 20
-248.7842827589628
 30
0.0
 40
2.499999999999952
100
AcDbArc
 50
101.5369590328157
 51
180.0000000000004
  0
ARC
  5
31E
330
A
100
AcDbEntity
  8
0
  6
Continuous
 62
     7
100
AcDbCircle
 10
1089.036034840983
 20
-248.7842827589628
 30
0.0
 40
2.5
100
AcDbArc
 50
0.0
 51
78.46304096717919
  0
ARC
  5
31F
330
A
100
AcDbEntity
  8
0
  6
Continuous
 62
     7
100
AcDbCircle
 10
1089.036034840983
 20
-248.8347930161797
 30
0.0
 40
2.5
100
AcDbArc
 50
270.0000000000008
 51
0.0
  0
ARC
  5
320
330
A
100
AcDbEntity
  8
0
  6
Continuous
 62
     7
100
AcDbCircle
 10
1072.036034840983
 20
-248.8347930161797
 30
0.0
 40
2.499999999999943
100
AcDbArc
 50
180.0000000000004
 51
270.0000000000008
  0
LINE
  5
321
330
A
100
AcDbEntity
  8
0
  6
Continuous
 62
     7
100
AcDbLine
 10
1070.536034840983
 20
-94.33479301617964
 30
0.0
 11
1070.536034840983
 21
-118.3347930161796
 31
0.0
  0
LINE
  5
322
330
A
100
AcDbEntity
  8
0
  6
Continuous
 62
     7
100
AcDbLine
 10
1090.536034840983
 20
-118.3347930161796
 30
0.0
 11
1090.536034840983
 21
-94.33479301617964
 31
0.0
  0
LINE
  5
323
330
A
100
AcDbEntity
  8
0
  6
Continuous
 62
     7
100
AcDbLine
 10
1070.786034840983
 20
-118.3347930161796
 30
0.0
 11
1070.786034840983
 21
-119.3347930161796
 31
0.0
  0
LINE
  5
324
330
A
100
AcDbEntity
  8
0
  6
Continuous
 62
     7
100
AcDbLine
 10
1090.286034840983
 20
-119.3347930161796
 30
0.0
 11
1090.286034840983
 21
-118.3347930161796
 31
0.0
  0
LINE
  5
325
330
A
100
AcDbEntity
  8
0
  6
Continuous
 62
     7
100
AcDbLine
 10
1070.786034840983
 20
-91.33479301617974
 30
0.0
 11
1070.786034840983
 21
-94.33479301617964
 31
0.0
  0
LINE
  5
326
330
A
100
AcDbEntity
  8
0
  6
Continuous
 62
     7
100
AcDbLine
 10
1090.286034840983
 20
-94.33479301617964
 30
0.0
 11
1090.286034840983
 21
-91.33479301617974
 31
0.0
  0
ARC
  5
327
330
A
100
AcDbEntity
  8
0
  6
Continuous
 62
     7
100
AcDbCircle
 10
1072.786034840983
 20
-119.3347930161796
 30
0.0
 40
2.0
100
AcDbArc
 50
180.0000000000004
 51
224.9377314337095
  0
ARC
  5
328
330
A
100
AcDbEntity
  8
0
  6
Continuous
 62
     7
100
AcDbCircle
 10
1088.286034840983
 20
-119.3347930161796
 30
0.0
 40
2.0
100
AcDbArc
 50
315.0622685664672
 51
0.0
  0
LINE
  5
329
330
A
100
AcDbEntity
  8
0
  6
Continuous
 62
     7
100
AcDbLine
 10
1071.536034840983
 20
-226.9718240037313
 30
0.0
 11
1071.536034840983
 21
-246.3347930161797
 31
0.0
  0
LINE
  5
32A
330
A
100
AcDbEntity
  8
0
  6
Continuous
 62
     7
100
AcDbLine
 10
1089.536034840983
 20
-246.3347930161797
 30
0.0
 11
1089.536034840983
 21
-226.9718240037313
 31
0.0
  0
LINE
  5
32B
330
A
100
AcDbEntity
  8
0
  6
Continuous
 62
     7
100
AcDbLine
 10
1072.036034840983
 20
608.6652069838201
 30
0.0
 11
1072.036034840983
 21
-91.33479301617974
 31
0.0
  0
LINE
  5
32C
330
A
100
AcDbEntity
  8
0
  6
Continuous
 62
     7
100
AcDbLine
 10
1089.036034840983
 20
-91.33479301617974
 30
0.0
 11
1089.036034840983
 21
608.6652069838201
 31
0.0
  0
LINE
  5
32D
330
A
100
AcDbEntity
  8
0
  6
Continuous
 62
     7
100
AcDbLine
 10
1073.536034840983
 20
-170.7989711275941
 30
0.0
 11
1073.536034840983
 21
-201.9718240037314
 31
0.0
  0
LINE
  5
32E
330
A
100
AcDbEntity
  8
0
  6
Continuous
 62
     7
100
AcDbLine
 10
1087.536034840983
 20
-201.9718240037314
 30
0.0
 11
1087.536034840983
 21
-170.7989711276836
 31
0.0
  0
LINE
  5
32F
330
A
100
AcDbEntity
  8
0
  6
Continuous
 62
     7
100
AcDbLine
 10
1065.536034840978
 20
-192.47182400377
 30
0.0
 11
1060.536034840978
 21
-192.47182400377
 31
0.0
  0
LINE
  5
330
330
A
100
AcDbEntity
  8
0
  6
Continuous
 62
     7
100
AcDbLine
 10
1060.536034840978
 20
-236.4718240037701
 30
0.0
 11
1065.536034840978
 21
-236.4718240037701
 31
0.0
  0
LINE
  5
331
330
A
100
AcDbEntity
  8
0
  6
Continuous
 62
     7
100
AcDbLine
 10
1070.536034840978
 20
-209.4718240037702
 30
0.0
 11
1065.536034840978
 21
-209.4718240037702
 31
0.0
  0
LINE
  5
332
330
A
100
AcDbEntity
  8
0
  6
Continuous
 62
     7
100
AcDbLine
 10
1065.536034840978
 20
-219.47182400377
 30
0.0
 11
1070.536034840978
 21
-219.47182400377
 31
0.0
  0
LWPOLYLINE
  5
333
330
A
100
AcDbEntity
  8
0
  6
Continuous
 62
     7
100
AcDbPolyline
 90
       12
 70
   128
 43
0.0
 10
1080.536034840985
 20
-91.25129733109915
 10
1078.735920273437
 20
-91.41465219448376
 10
1078.007132064646
 20
-91.57634768017976
 10
1076.824739120261
 20
-91.9654864309497
 10
1075.641696477745
 20
-92.53089298347218
 10
1074.452648254205
 20
-93.31452168630617
 10
1073.329965575457
 20
-94.31785909740876
 10
1072.33177436538
 20
-95.53377076374259
 10
1071.512481249465
 20
-96.94136919005536
 10
1070.919583771197
 20
-98.50833017446637
 10
1070.592190564835
 20
-100.1930152270872
 10
1070.56498936466
 20
-101.6873133700454
  0
LWPOLYLINE
  5
341
330
A
100
AcDbEntity
  8
0
  6
Continuous
 62
     7
100
AcDbPolyline
 90
       12
 70
   128
 43
0.0
 10
1090.491166357798
 20
-101.6895147816391
 10
1090.511807043501
 20
-100.555618552132
 10
1090.227176379422
 20
-98.78517168912914
 10
1089.612139492292
 20
-97.05316389366192
 10
1088.783764930297
 20
-95.59665778698457
 10
1087.729775052024
 20
-94.30506801037507
 10
1086.491100578044
 20
-93.21779298571497
 10
1085.133415237496
 20
-92.37075154326713
 10
1083.817569769361
 20
-91.80505318255795
 10
1082.852709244859
 20
-91.52334689401142
 10
1081.761470034626
 20
-91.3266659230222
 10
1080.536034840985
 20
-91.25129733109915
  0
LINE
  5
34F
330
A
100
AcDbEntity
  8
0
  6
Continuous
 62
     7
100
AcDbLine
 10
1070.542584382891
 20
-101.6189112903832
 30
0.0
 11
1075.152660581428
 21
-208.1599587317196
 31
0.0
  0
LINE
  5
350
330
A
100
AcDbEntity
  8
0
  6
Continuous
 62
     7
100
AcDbLine
 10
1085.920569025019
 20
-208.1331523269203
 30
0.0
 11
1090.52948529908
 21
-101.6189112903831
 31
0.0
  0
LINE
  5
351
330
A
100
AcDbEntity
  8
0
  6
Continuous
 62
     7
100
AcDbLine
 10
1106.315144499831
 20
-359.0847930161797
 30
0.0
 11
1103.036034840984
 21
-305.4718240037314
 31
0.0
  0
LINE
  5
352
330
A
100
AcDbEntity
  8
0
  6
Continuous
 62
     7
100
AcDbLine
 10
1058.036034840986
 20
-305.4718240037314
 30
0.0
 11
1054.756925182139
 21
-359.0847930161797
 31
0.0
  0
LINE
  5
353
330
A
100
AcDbEntity
  8
0
  6
Continuous
 62
     7
100
AcDbLine
 10
1103.036034840984
 20
-305.4718240037314
 30
0.0
 11
1095.536034840985
 21
-297.9718240037314
 31
0.0
  0
LINE
  5
354
330
A
100
AcDbEntity
  8
0
  6
Continuous
 62
     7
100
AcDbLine
 10
1065.536034840985
 20
-297.9718240037314
 30
0.0
 11
1058.036034840986
 21
-305.4718240037314
 31
0.0
  0
LINE
  5
355
330
A
100
AcDbEntity
  8
0
  6
Continuous
 62
     7
100
AcDbLine
 10
1095.536034840985
 20
-236.4718240037313
 30
0.0
 11
1100.536034840985
 21
-236.4718240037313
 31
0.0
  0
LINE
  5
356
330
A
100
AcDbEntity
  8
0
  6
Continuous
 62
     7
100
AcDbLine
 10
1100.536034840985
 20
-192.4718240037313
 30
0.0
 11
1095.536034840985
 21
-192.4718240037313
 31
0.0
  0
LINE
  5
357
330
A
100
AcDbEntity
  8
0
  6
Continuous
 62
     7
100
AcDbLine
 10
1074.956392252485
 20
-225.1489022557627
 30
0.0
 11
1077.036034840986
 21
-277.9718240037234
 31
0.0
  0
LINE
  5
358
330
A
100
AcDbEntity
  8
0
  6
Continuous
 62
     7
100
AcDbLine
 10
1084.036034840984
 20
-277.9718240037234
 30
0.0
 11
1086.115677429485
 21
-225.1489022557621
 31
0.0
  0
LINE
  5
359
330
A
100
AcDbEntity
  8
0
  6
Continuous
 62
     7
100
AcDbLine
 10
1070.536034840985
 20
-226.9718240037313
 30
0.0
 11
1075.02816082524
 21
-226.9718240037313
 31
0.0
  0
LINE
  5
35A
330
A
100
AcDbEntity
  8
0
  6
Continuous
 62
     7
100
AcDbLine
 10
1086.043908856731
 20
-226.9718240037313
 30
0.0
 11
1090.536034840985
 21
-226.9718240037313
 31
0.0
  0
LINE
  5
35B
330
A
100
AcDbEntity
  8
0
  6
Continuous
 62
     7
100
AcDbLine
 10
1090.536034840985
 20
-201.9718240037314
 30
0.0
 11
1086.187172308319
 21
-201.9718240037314
 31
0.0
  0
LINE
  5
35C
330
A
100
AcDbEntity
  8
0
  6
Continuous
 62
     7
100
AcDbLine
 10
1074.884897373651
 20
-201.9718240037314
 30
0.0
 11
1070.536034840985
 21
-201.9718240037314
 31
0.0
  0
ARC
  5
35D
330
A
100
AcDbEntity
  8
0
  6
Continuous
 62
     7
100
AcDbCircle
 10
1075.536034840985
 20
-296.4718240037315
 30
0.0
 40
1.500000000000227
100
AcDbArc
 50
270.0000000000008
 51
0.0
  0
ARC
  5
35E
330
A
100
AcDbEntity
  8
0
  6
Continuous
 62
     7
100
AcDbCircle
 10
1085.536034840985
 20
-296.4718240037315
 30
0.0
 40
1.5
100
AcDbArc
 50
180.0000000000004
 51
270.0000000000008
  0
LINE
  5
35F
330
A
100
AcDbEntity
  8
0
  6
Continuous
 62
     7
100
AcDbLine
 10
1077.036034840986
 20
-277.9718240037234
 30
0.0
 11
1077.036034840985
 21
-296.4718240037315
 31
0.0
  0
LINE
  5
360
330
A
100
AcDbEntity
  8
0
  6
Continuous
 62
     7
100
AcDbLine
 10
1084.036034840985
 20
-296.4718240037315
 30
0.0
 11
1084.036034840984
 21
-277.9718240037234
 31
0.0
  0
LINE
  5
361
330
A
100
AcDbEntity
  8
0
  6
Continuous
 62
     7
100
AcDbLine
 10
1090.536034840985
 20
-219.4718240037312
 30
0.0
 11
1095.536034840985
 21
-219.4718240037312
 31
0.0
  0
LINE
  5
362
330
A
100
AcDbEntity
  8
0
  6
Continuous
 62
     7
100
AcDbLine
 10
1095.536034840985
 20
-209.4718240037314
 30
0.0
 11
1090.536034840985
 21
-209.4718240037314
 31
0.0
  0
LINE
  5
363
330
A
100
AcDbEntity
  8
0
  6
Continuous
 62
     7
100
AcDbLine
 10
961.9419244571918
 20
-359.0847930161797
 30
0.0
 11
1199.130145224779
 21
-359.0847930161797
 31
0.0
  0
LINE
  5
364
330
A
100
AcDbEntity
  8
0
  6
Continuous
 62
     7
100
AcDbLine
 10
900.5360348409851
 20
-609.0847930161796
 30
0.0
 11
1260.536034840985
 21
-609.0847930161796
 31
0.0
  0
LINE
  5
365
330
A
100
AcDbEntity
  8
0
  6
Continuous
 62
     7
100
AcDbLine
 10
901.5071691208948
 20
-609.3233264737582
 30
0.0
 11
1259.564900561075
 21
-609.3233264737582
 31
0.0
  0
LINE
  5
366
330
A
100
AcDbEntity
  8
0
  6
Continuous
 62
     7
100
AcDbLine
 10
1008.536034840983
 20
635.1652069838202
 30
0.0
 11
1152.536034840983
 21
635.1652069838202
 31
0.0
  0
LINE
  5
367
330
A
100
AcDbEntity
  8
0
  6
Continuous
 62
     7
100
AcDbLine
 10
1072.036034840983
 20
608.6652069838201
 30
0.0
 11
1089.036034840983
 21
608.6652069838201
 31
0.0
  0
LINE
  5
368
330
A
100
AcDbEntity
  8
0
  6
Continuous
 62
     7
100
AcDbLine
 10
1025.536034840983
 20
642.6652069838202
 30
0.0
 11
1135.536034840983
 21
642.6652069838202
 31
0.0
  0
LINE
  5
369
330
A
100
AcDbEntity
  8
0
  6
Continuous
 62
     7
100
AcDbLine
 10
1089.536034840983
 20
-246.3347930161797
 30
0.0
 11
1085.281587242068
 21
-246.3347930161797
 31
0.0
  0
LINE
  5
36A
330
A
100
AcDbEntity
  8
0
  6
Continuous
 62
     7
100
AcDbLine
 10
1075.790482439902
 20
-246.3347930161797
 30
0.0
 11
1071.536034840983
 21
-246.3347930161797
 31
0.0
  0
LINE
  5
36B
330
A
100
AcDbEntity
  8
0
  6
Continuous
 62
     7
100
AcDbLine
 10
1089.03603381713
 20
-251.3347930161797
 30
0.0
 11
1085.084736848367
 21
-251.3347930161797
 31
0.0
  0
LINE
  5
36C
330
A
100
AcDbEntity
  8
0
  6
Continuous
 62
     7
100
AcDbLine
 10
1075.987332833603
 20
-251.3347930161797
 30
0.0
 11
1072.036034840983
 21
-251.3347930161797
 31
0.0
  0
LINE
  5
36D
330
A
100
AcDbEntity
  8
0
  6
Continuous
 62
     7
100
AcDbLine
 10
1070.536034840983
 20
-94.33479301617964
 30
0.0
 11
1073.19884344835
 21
-94.33479301617964
 31
0.0
  0
LINE
  5
36E
330
A
100
AcDbEntity
  8
0
  6
Continuous
 62
     7
100
AcDbLine
 10
1087.840945657628
 20
-94.33479301617964
 30
0.0
 11
1090.536034840983
 21
-94.33479301617964
 31
0.0
  0
LINE
  5
36F
330
A
100
AcDbEntity
  8
0
  6
Continuous
 62
     7
100
AcDbLine
 10
1070.536034840983
 20
-118.3347930161796
 30
0.0
 11
1071.265887657379
 21
-118.3347930161796
 31
0.0
  0
LINE
  5
370
330
A
100
AcDbEntity
  8
0
  6
Continuous
 62
     7
100
AcDbLine
 10
1089.806182024592
 20
-118.3347930161796
 30
0.0
 11
1090.536034840983
 21
-118.3347930161796
 31
0.0
  0
LINE
  5
371
330
A
100
AcDbEntity
  8
0
  6
Continuous
 62
     7
100
AcDbLine
 10
1070.786034840983
 20
-91.33479301617974
 30
0.0
 11
1090.286034840983
 21
-91.33479301617974
 31
0.0
  0
LINE
  5
372
330
A
100
AcDbEntity
  8
0
  6
Continuous
 62
     7
100
AcDbLine
 10
1065.536034840978
 20
-236.4718240037701
 30
0.0
 11
1065.536034840978
 21
-192.47182400377
 31
0.0
  0
LINE
  5
373
330
A
100
AcDbEntity
  8
0
  6
Continuous
 62
     7
100
AcDbLine
 10
1060.536034840978
 20
-192.47182400377
 30
0.0
 11
1060.536034840978
 21
-236.4718240037701
 31
0.0
  0
LINE
  5
374
330
A
100
AcDbEntity
  8
0
  6
Continuous
 62
     7
100
AcDbLine
 10
1058.036034840978
 20
-305.4718240037701
 30
0.0
 11
1103.036034840977
 21
-305.4718240037701
 31
0.0
  0
LINE
  5
375
330
A
100
AcDbEntity
  8
0
  6
Continuous
 62
     7
100
AcDbLine
 10
1077.036034840979
 20
-277.9718240037622
 30
0.0
 11
1084.036034840976
 21
-277.9718240037622
 31
0.0
  0
LWPOLYLINE
  5
376
330
A
100
AcDbEntity
  8
0
  6
Continuous
 62
     7
100
AcDbPolyline
 90
        5
 70
   128
 43
0.0
 10
1079.120269657641
 20
-214.4718240037318
 10
1077.538628996738
 20
-213.2653576923947
 10
1076.007980521681
 20
-211.0846310809419
 10
1075.203105714383
 20
-208.6720465994733
 10
1075.211883941186
 20
-208.1592216437313
  0
LWPOLYLINE
  5
37D
330
A
100
AcDbEntity
  8
0
  6
Continuous
 62
     7
100
AcDbPolyline
 90
       10
 70
   128
 43
0.0
 10
1085.911797050993
 20
-208.1334190112749
 10
1085.917771353616
 20
-208.1892576288506
 10
1085.594460568777
 20
-209.8202687142507
 10
1084.716104618991
 20
-211.7077949455898
 10
1083.073880013003
 20
-213.7074022923013
 10
1081.95180002433
 20
-214.4718240037318
 10
1080.913307198289
 20
-214.7937132822937
 10
1080.536034840985
 20
-214.8184039680689
 10
1079.468031567154
 20
-214.6209139897721
 10
1079.120269657641
 20
-214.4718240037318
  0
LINE
  5
389
330
A
100
AcDbEntity
  8
0
  6
Continuous
 62
     7
100
AcDbLine
 10
1058.036034840986
 20
-305.4718240037314
 30
0.0
 11
1103.036034840984
 21
-305.4718240037314
 31
0.0
  0
LINE
  5
38A
330
A
100
AcDbEntity
  8
0
  6
Continuous
 62
     7
100
AcDbLine
 10
1065.536034840985
 20
-297.9718240037314
 30
0.0
 11
1095.536034840985
 21
-297.9718240037314
 31
0.0
  0
LINE
  5
38B
330
A
100
AcDbEntity
  8
0
  6
Continuous
 62
     7
100
AcDbLine
 10
1100.536034840985
 20
-214.4718240037313
 30
0.0
 11
1100.536034840985
 21
-192.4718240037313
 31
0.0
  0
LINE
  5
38C
330
A
100
AcDbEntity
  8
0
  6
Continuous
 62
     7
100
AcDbLine
 10
1100.536034840985
 20
-236.4718240037313
 30
0.0
 11
1100.536034840985
 21
-214.4718240037313
 31
0.0
  0
LINE
  5
38D
330
A
100
AcDbEntity
  8
0
  6
Continuous
 62
     7
100
AcDbLine
 10
1095.536034840985
 20
-214.4718240037313
 30
0.0
 11
1095.536034840985
 21
-236.4718240037313
 31
0.0
  0
LINE
  5
38E
330
A
100
AcDbEntity
  8
0
  6
Continuous
 62
     7
100
AcDbLine
 10
1095.536034840985
 20
-192.4718240037313
 30
0.0
 11
1095.536034840985
 21
-214.4718240037313
 31
0.0
  0
LWPOLYLINE
  5
38F
330
A
100
AcDbEntity
  8
0
  6
Continuous
 62
     7
100
AcDbPolyline
 90
       19
 70
   128
 43
0.0
 10
1074.956392252485
 20
-225.1489022557648
 10
1075.315674315223
 20
-223.4984205420471
 10
1076.622018851377
 20
-220.9227200156187
 10
1077.859720183025
 20
-218.9386406515963
 10
1079.24589698962
 20
-216.901028829683
 10
1079.774026585968
 20
-216.171075367858
 10
1080.262858268961
 20
-215.5935131507538
 10
1080.365703500035
 20
-215.5127435885256
 10
1080.486879382108
 20
-215.4596580292662
 10
1080.569904019108
 20
-215.4569830280459
 10
1080.649123569546
 20
-215.4810059572183
 10
1080.784910208213
 20
-215.5721180976355
 10
1081.269638071529
 20
-216.1334796143088
 10
1082.928400806275
 20
-218.5138491473082
 10
1084.193555261772
 20
-220.4920498417817
 10
1085.24840323777
 20
-222.3717399843488
 10
1086.013198448544
 20
-224.2964509992546
 10
1086.115677429485
 20
-225.1489022557649
 10
1086.115677429486
 20
-225.1489022557628
  0
LINE
  5
3A4
330
A
100
AcDbEntity
  8
0
  6
Continuous
 62
     7
100
AcDbLine
 10
1077.036034840986
 20
-277.9718240037234
 30
0.0
 11
1084.036034840984
 21
-277.9718240037234
 31
0.0
  0
LINE
  5
3A5
330
A
100
AcDbEntity
  8
0
  6
Continuous
 62
     7
100
AcDbLine
 10
1070.536034840985
 20
-214.4718240037313
 30
0.0
 11
1070.536034840985
 21
-226.9718240037313
 31
0.0
  0
LINE
  5
3A6
330
A
100
AcDbEntity
  8
0
  6
Continuous
 62
     7
100
AcDbLine
 10
1070.536034840985
 20
-201.9718240037314
 30
0.0
 11
1070.536034840985
 21
-214.4718240037313
 31
0.0
  0
LINE
  5
3A7
330
A
100
AcDbEntity
  8
0
  6
Continuous
 62
     7
100
AcDbLine
 10
1090.536034840985
 20
-214.4718240037313
 30
0.0
 11
1090.536034840985
 21
-201.9718240037314
 31
0.0
  0
LINE
  5
3A8
330
A
100
AcDbEntity
  8
0
  6
Continuous
 62
     7
100
AcDbLine
 10
1090.536034840985
 20
-226.9718240037313
 30
0.0
 11
1090.536034840985
 21
-214.4718240037313
 31
0.0
  0
LINE
  5
3A9
330
A
100
AcDbEntity
  8
0
  6
PHANTOM
 62
     7
100
AcDbLine
 10
1091.536034840983
 20
-248.7842827589628
 30
0.0
 11
1085.185150638021
 21
-248.7842827589628
 31
0.0
  0
LINE
  5
3AA
330
A
100
AcDbEntity
  8
0
  6
PHANTOM
 62
     7
100
AcDbLine
 10
1075.886919043949
 20
-248.7842827589628
 30
0.0
 11
1069.536034840983
 21
-248.7842827589628
 31
0.0
  0
LINE
  5
3AB
330
A
100
AcDbEntity
  8
0
  6
PHANTOM
 62
     7
100
AcDbLine
 10
1069.536034840983
 20
-248.8347930161797
 30
0.0
 11
1075.888907636753
 21
-248.8347930161797
 31
0.0
  0
LINE
  5
3AC
330
A
100
AcDbEntity
  8
0
  6
PHANTOM
 62
     7
100
AcDbLine
 10
1085.183162045217
 20
-248.8347930161797
 30
0.0
 11
1091.536034840983
 21
-248.8347930161797
 31
0.0
  0
LINE
  5
3AD
330
A
100
AcDbEntity
  8
0
  6
PHANTOM
 62
     7
100
AcDbLine
 10
1070.786034840983
 20
-119.3347930161796
 30
0.0
 11
1071.309158080462
 21
-119.3347930161796
 31
0.0
  0
LINE
  5
3AE
330
A
100
AcDbEntity
  8
0
  6
PHANTOM
 62
     7
100
AcDbLine
 10
1089.762911601509
 20
-119.3347930161796
 30
0.0
 11
1090.286034840983
 21
-119.3347930161796
 31
0.0
  0
LWPOLYLINE
  5
3AF
330
A
100
AcDbEntity
  8
0
  6
PHANTOM
 62
     7
100
AcDbPolyline
 90
       10
 70
   128
 43
0.0
 10
1080.536034840985
 20
-106.9981728549688
 10
1078.644766637618
 20
-106.899814194982
 10
1076.821853794771
 20
-106.6082931532648
 10
1075.13318113214
 20
-106.1341460598152
 10
1073.639781679543
 20
-105.4945098259688
 10
1072.395630784214
 20
-104.7125025717729
 10
1071.445695301112
 20
-103.8163880768939
 10
1070.82430837363
 20
-102.8385542539806
 10
1070.553928544335
 20
-101.814342565114
 10
1070.545463813023
 20
-101.6854429926033
  0
LWPOLYLINE
  5
3BB
330
A
100
AcDbEntity
  8
0
  6
PHANTOM
 62
     7
100
AcDbPolyline
 90
       10
 70
   128
 43
0.0
 10
1090.52656656432
 20
-101.6863353809118
 10
1090.518141137636
 20
-101.8143425651141
 10
1090.247761308341
 20
-102.8385542539807
 10
1089.626374380858
 20
-103.8163880768941
 10
1088.676438897756
 20
-104.712502571773
 10
1087.432288002427
 20
-105.4945098259688
 10
1085.938888549831
 20
-106.1341460598152
 10
1084.250215887199
 20
-106.6082931532648
 10
1082.427303044353
 20
-106.899814194982
 10
1080.536034840985
 20
-106.9981728549688
  0
LINE
  5
3C7
330
A
100
AcDbEntity
  8
0
  6
PHANTOM
 62
     7
100
AcDbLine
 10
1077.036034840985
 20
-296.4718240037315
 30
0.0
 11
1084.036034840985
 21
-296.4718240037315
 31
0.0
  0
ENDSEC
  0
SECTION
  2
OBJECTS
  0
DICTIONARY
  5
19
330
0
100
AcDbDictionary
281
     1
  3
ACAD_COLOR
350
3CC
  3
ACAD_GROUP
350
1A
  3
ACAD_LAYOUT
350
3CF
  3
ACAD_MATERIAL
350
3CB
  3
ACAD_MLINESTYLE
350
1B
  3
ACAD_PLOTSETTINGS
350
3D0
  3
ACAD_PLOTSTYLENAME
350
3C9
  3
ACAD_TABLESTYLE
350
3CD
  3
AcDbVariableDictionary
350
3DA
  3
ASE_INDEX_DICTIONARY
350
3D6
  0
DICTIONARY
  5
3CC
102
{ACAD_REACTORS
330
19
102
}
330
19
100
AcDbDictionary
281
     1
  0
DICTIONARY
  5
1A
102
{ACAD_REACTORS
330
19
102
}
330
19
100
AcDbDictionary
281
     1
  0
DICTIONARY
  5
3CF
102
{ACAD_REACTORS
330
19
102
}
330
19
100
AcDbDictionary
281
     1
  3
Layout1
350
3D2
  3
Model
350
3D1
  0
DICTIONARY
  5
3CB
102
{ACAD_REACTORS
330
19
102
}
330
19
100
AcDbDictionary
281
     1
  0
DICTIONARY
  5
1B
102
{ACAD_REACTORS
330
19
102
}
330
19
100
AcDbDictionary
281
     1
  3
STANDARD
350
1C
  0
DICTIONARY
  5
3D0
102
{ACAD_REACTORS
330
19
102
}
330
19
100
AcDbDictionary
281
     1
  0
ACDBDICTIONARYWDFLT
  5
3C9
102
{ACAD_REACTORS
330
19
102
}
330
19
100
AcDbDictionary
281
     1
  3
Normal
350
3CA
100
AcDbDictionaryWithDefault
340
3CA
  0
DICTIONARY
  5
3CD
102
{ACAD_REACTORS
330
19
102
}
330
19
100
AcDbDictionary
281
     1
  3
Standard
350
3CE
  0
DICTIONARY
  5
3DA
102
{ACAD_REACTORS
330
19
102
}
330
19
100
AcDbDictionary
281
     1
  3
CTABLESTYLE
350
3DB
  0
DICTIONARY
  5
3D6
102
{ACAD_REACTORS
330
19
102
}
330
19
100
AcDbDictionary
281
     1
  3
ASEBlockHierarchyIndexRecord
350
3D8
1001
DCO15
1040
1660543621.59
  0
LAYOUT
  5
3D2
102
{ACAD_REACTORS
330
3CF
102
}
330
3CF
100
AcDbPlotSettings
  1

  2
HP LaserJet 4350 Series PCL
  4

  6

 40
0.0
 41
0.0
 42
0.0
 43
0.0
 44
0.0
 45
0.0
 46
0.0
 47
0.0
 48
0.0
 49
0.0
140
0.0
141
0.0
142
1.0
143
1.0
 70
   688
 72
     0
 73
     0
 74
     5
  7

 75
    16
147
1.0
 76
     0
 77
     2
 78
   300
148
0.0
149
0.0
100
AcDbLayout
  1
Layout1
 70
     1
 71
     1
 10
0.0
 20
0.0
 11
12.0
 21
9.0
 12
0.0
 22
0.0
 32
0.0
 14
1.000000000000000E+20
 24
1.000000000000000E+20
 34
1.000000000000000E+20
 15
-1.000000000000000E+20
 25
-1.000000000000000E+20
 35
-1.000000000000000E+20
146
0.0
 13
0.0
 23
0.0
 33
0.0
 16
1.0
 26
0.0
 36
0.0
 17
0.0
 27
1.0
 37
0.0
 76
     0
330
B
  0
LAYOUT
  5
3D1
102
{ACAD_REACTORS
330
3CF
102
}
330
3CF
100
AcDbPlotSettings
  1

  2
HP LaserJet 4350 Series PCL
  4

  6

 40
0.0
 41
0.0
 42
0.0
 43
0.0
 44
0.0
 45
0.0
 46
0.0
 47
0.0
 48
0.0
 49
0.0
140
0.0
141
0.0
142
1.0
143
1.0
 70
  1712
 72
     0
 73
     0
 74
     0
  7

 75
     0
147
1.0
 76
     0
 77
     2
 78
   300
148
0.0
149
0.0
100
AcDbLayout
  1
Model
 70
     1
 71
     0
 10
0.0
 20
0.0
 11
12.0
 21
9.0
 12
0.0
 22
0.0
 32
0.0
 14
0.0
 24
0.0
 34
0.0
 15
0.0
 25
0.0
 35
0.0
146
0.0
 13
0.0
 23
0.0
 33
0.0
 16
1.0
 26
0.0
 36
0.0
 17
0.0
 27
1.0
 37
0.0
 76
     0
330
A
  0
MLINESTYLE
  5
1C
102
{ACAD_REACTORS
330
1B
102
}
330
1B
100
AcDbMlineStyle
  2
STANDARD
 70
     0
  3

 62
     0
 51
90.0
 52
90.0
 71
     2
 49
0.5
 62
   256
  6
BYLAYER
 49
-0.5
 62
   256
  6
BYLAYER
  0
ACDBPLACEHOLDER
  5
3CA
102
{ACAD_REACTORS
330
3C9
102
}
330
3C9
  0
TABLESTYLE
  5
3CE
102
{ACAD_REACTORS
330
3CD
102
}
330
3CD
100
AcDbTableStyle
  3
Standard
 70
     0
 71
     0
 40
0.06
 41
0.06
280
     0
281
     0
  7
STANDARD
140
0.18
170
     2
 62
     0
 63
     7
283
     0
274
    -2
284
     1
 64
     0
275
    -2
285
     1
 65
     0
276
    -2
286
     1
 66
     0
277
    -2
287
     1
 67
     0
278
    -2
288
     1
 68
     0
279
    -2
289
     1
 69
     0
  7
STANDARD
140
0.25
170
     5
 62
     0
 63
     7
283
     0
274
    -2
284
     1
 64
     0
275
    -2
285
     1
 65
     0
276
    -2
286
     1
 66
     0
277
    -2
287
     1
 67
     0
278
    -2
288
     1
 68
     0
279
    -2
289
     1
 69
     0
  7
STANDARD
140
0.18
170
     5
 62
     0
 63
     7
283
     0
274
    -2
284
     1
 64
     0
275
    -2
285
     1
 65
     0
276
    -2
286
     1
 66
     0
277
    -2
287
     1
 67
     0
278
    -2
288
     1
 68
     0
279
    -2
289
     1
 69
     0
  0
DICTIONARYVAR
  5
3DB
102
{ACAD_REACTORS
330
3DA
102
}
330
3DA
100
DictionaryVariables
280
     0
  1
STANDARD
  0
XRECORD
  5
3D8
102
{ACAD_REACTORS
330
3D6
102
}
330
3D6
100
AcDbXrecord
280
     1
  0
ENDSEC
  0
EOF
