  0
SECTION
  2
HEADER
  9
$ACADVER
  1
AC1015
  9
$ACADMAINTVER
 70
    20
  9
$DWGCODEPAGE
  3
ANSI_1252
  9
$INSBASE
 10
0.0
 20
0.0
 30
0.0
  9
$EXTMIN
 10
-45.94720676292822
 20
-1072.763466870019
 30
0.0
  9
$EXTMAX
 10
1203.441933974543
 20
429.3788461873636
 30
0.0
  9
$LIMMIN
 10
0.0
 20
0.0
  9
$LIMMAX
 10
0.0
 20
0.0
  9
$ORTHOMODE
 70
     0
  9
$REGENMODE
 70
     1
  9
$FILLMODE
 70
     1
  9
$QTEXTMODE
 70
     0
  9
$MIRRTEXT
 70
     1
  9
$LTSCALE
 40
1.0
  9
$ATTMODE
 70
     1
  9
$TEXTSIZE
 40
0.0
  9
$TRACEWID
 40
0.05
  9
$TEXTSTYLE
  7
STANDARD
  9
$CLAYER
  8
0
  9
$CELTYPE
  6
CONTINUOUS
  9
$CECOLOR
 62
   256
  9
$CELTSCALE
 40
1.0
  9
$DISPSILH
 70
     0
  9
$DIMSCALE
 40
1.0
  9
$DIMASZ
 40
6.0
  9
$DIMEXO
 40
1.0
  9
$DIMDLI
 40
0.38
  9
$DIMRND
 40
0.0
  9
$DIMDLE
 40
1.0
  9
$DIMEXE
 40
0.18
  9
$DIMTP
 40
0.0
  9
$DIMTM
 40
0.0
  9
$DIMTXT
 40
3.5
  9
$DIMCEN
 40
0.09
  9
$DIMTSZ
 40
0.0
  9
$DIMTOL
 70
     0
  9
$DIMLIM
 70
     0
  9
$DIMTIH
 70
     1
  9
$DIMTOH
 70
     1
  9
$DIMSE1
 70
     0
  9
$DIMSE2
 70
     0
  9
$DIMTAD
 70
     1
  9
$DIMZIN
 70
     0
  9
$DIMBLK
  1

  9
$DIMASO
 70
     1
  9
$DIMSHO
 70
     1
  9
$DIMPOST
  1

  9
$DIMAPOST
  1

  9
$DIMALT
 70
     0
  9
$DIMALTD
 70
     2
  9
$DIMALTF
 40
0.0394
  9
$DIMLFAC
 40
10.0
  9
$DIMTOFL
 70
     0
  9
$DIMTVP
 40
0.0
  9
$DIMTIX
 70
     0
  9
$DIMSOXD
 70
     0
  9
$DIMSAH
 70
     0
  9
$DIMBLK1
  1

  9
$DIMBLK2
  1

  9
$DIMSTYLE
  2
STANDARD
  9
$DIMCLRD
 70
     0
  9
$DIMCLRE
 70
     0
  9
$DIMCLRT
 70
     0
  9
$DIMTFAC
 40
1.0
  9
$DIMGAP
 40
1.0
  9
$DIMJUST
 70
     0
  9
$DIMSD1
 70
     0
  9
$DIMSD2
 70
     0
  9
$DIMTOLJ
 70
     1
  9
$DIMTZIN
 70
     0
  9
$DIMALTZ
 70
     0
  9
$DIMALTTZ
 70
     0
  9
$DIMUPT
 70
     0
  9
$DIMDEC
 70
     4
  9
$DIMTDEC
 70
     4
  9
$DIMALTU
 70
     2
  9
$DIMALTTD
 70
     2
  9
$DIMTXSTY
  7
STANDARD
  9
$DIMAUNIT
 70
     0
  9
$DIMADEC
 70
     0
  9
$DIMALTRND
 40
0.0
  9
$DIMAZIN
 70
     0
  9
$DIMDSEP
 70
    46
  9
$DIMATFIT
 70
     3
  9
$DIMFRAC
 70
     0
  9
$DIMLDRBLK
  1

  9
$DIMLUNIT
 70
     2
  9
$DIMLWD
 70
    -2
  9
$DIMLWE
 70
    -2
  9
$DIMTMOVE
 70
     0
  9
$LUNITS
 70
     2
  9
$LUPREC
 70
     2
  9
$SKETCHINC
 40
0.1
  9
$FILLETRAD
 40
0.0
  9
$AUNITS
 70
     0
  9
$AUPREC
 70
     2
  9
$MENU
  1
acad
  9
$ELEVATION
 40
0.0
  9
$PELEVATION
 40
0.0
  9
$THICKNESS
 40
0.0
  9
$LIMCHECK
 70
     0
  9
$CHAMFERA
 40
0.0
  9
$CHAMFERB
 40
0.0
  9
$CHAMFERC
 40
0.0
  9
$CHAMFERD
 40
0.0
  9
$SKPOLY
 70
     0
  9
$TDCREATE
 40
2444972.041666667
  9
$TDUCREATE
 40
2444972.000000000
  9
$TDUPDATE
 40
2453768.827747755
  9
$TDUUPDATE
 40
2453768.786081088
  9
$TDINDWG
 40
0.0021896644
  9
$TDUSRTIMER
 40
0.0021896644
  9
$USRTIMER
 70
     1
  9
$ANGBASE
 50
0.0
  9
$ANGDIR
 70
     0
  9
$PDMODE
 70
     0
  9
$PDSIZE
 40
-1.0
  9
$PLINEWID
 40
0.0
  9
$SPLFRAME
 70
     0
  9
$SPLINETYPE
 70
     6
  9
$SPLINESEGS
 70
     8
  9
$HANDSEED
  5
C1F
  9
$SURFTAB1
 70
     6
  9
$SURFTAB2
 70
     6
  9
$SURFTYPE
 70
     6
  9
$SURFU
 70
     6
  9
$SURFV
 70
     6
  9
$UCSBASE
  2

  9
$UCSNAME
  2

  9
$UCSORG
 10
0.0
 20
0.0
 30
0.0
  9
$UCSXDIR
 10
1.0
 20
0.0
 30
0.0
  9
$UCSYDIR
 10
0.0
 20
1.0
 30
0.0
  9
$UCSORTHOREF
  2

  9
$UCSORTHOVIEW
 70
     1
  9
$UCSORGTOP
 10
0.0
 20
0.0
 30
0.0
  9
$UCSORGBOTTOM
 10
0.0
 20
0.0
 30
0.0
  9
$UCSORGLEFT
 10
0.0
 20
0.0
 30
0.0
  9
$UCSORGRIGHT
 10
0.0
 20
0.0
 30
0.0
  9
$UCSORGFRONT
 10
0.0
 20
0.0
 30
0.0
  9
$UCSORGBACK
 10
0.0
 20
0.0
 30
0.0
  9
$PUCSBASE
  2

  9
$PUCSNAME
  2

  9
$PUCSORG
 10
0.0
 20
0.0
 30
0.0
  9
$PUCSXDIR
 10
1.0
 20
0.0
 30
0.0
  9
$PUCSYDIR
 10
0.0
 20
1.0
 30
0.0
  9
$PUCSORTHOREF
  2

  9
$PUCSORTHOVIEW
 70
     0
  9
$PUCSORGTOP
 10
0.0
 20
0.0
 30
0.0
  9
$PUCSORGBOTTOM
 10
0.0
 20
0.0
 30
0.0
  9
$PUCSORGLEFT
 10
0.0
 20
0.0
 30
0.0
  9
$PUCSORGRIGHT
 10
0.0
 20
0.0
 30
0.0
  9
$PUCSORGFRONT
 10
0.0
 20
0.0
 30
0.0
  9
$PUCSORGBACK
 10
0.0
 20
0.0
 30
0.0
  9
$USERI1
 70
     0
  9
$USERI2
 70
     0
  9
$USERI3
 70
     0
  9
$USERI4
 70
     0
  9
$USERI5
 70
     0
  9
$USERR1
 40
0.0
  9
$USERR2
 40
0.0
  9
$USERR3
 40
0.0
  9
$USERR4
 40
0.0
  9
$USERR5
 40
0.0
  9
$WORLDVIEW
 70
     1
  9
$SHADEDGE
 70
     3
  9
$SHADEDIF
 70
    70
  9
$TILEMODE
 70
     1
  9
$MAXACTVP
 70
    16
  9
$PINSBASE
 10
0.0
 20
0.0
 30
0.0
  9
$PLIMCHECK
 70
     0
  9
$PEXTMIN
 10
1.000000000000000E+20
 20
1.000000000000000E+20
 30
1.000000000000000E+20
  9
$PEXTMAX
 10
-1.000000000000000E+20
 20
-1.000000000000000E+20
 30
-1.000000000000000E+20
  9
$PLIMMIN
 10
0.0
 20
0.0
  9
$PLIMMAX
 10
12.0
 20
9.0
  9
$UNITMODE
 70
     0
  9
$VISRETAIN
 70
     0
  9
$PLINEGEN
 70
     1
  9
$PSLTSCALE
 70
     1
  9
$TREEDEPTH
 70
  3020
  9
$CMLSTYLE
  2
STANDARD
  9
$CMLJUST
 70
     0
  9
$CMLSCALE
 40
1.0
  9
$PROXYGRAPHICS
 70
     0
  9
$MEASUREMENT
 70
     0
  9
$CELWEIGHT
370
    -1
  9
$ENDCAPS
280
     0
  9
$JOINSTYLE
280
     0
  9
$LWDISPLAY
290
     0
  9
$INSUNITS
 70
     0
  9
$HYPERLINKBASE
  1

  9
$STYLESHEET
  1

  9
$XEDIT
290
     1
  9
$CEPSNTYPE
380
     0
  9
$PSTYLEMODE
290
     1
  9
$FINGERPRINTGUID
  2
{D004B728-81EF-4840-B323-E30A96D62FBB}
  9
$VERSIONGUID
  2
{CDFFD7E1-936C-4410-8A62-1000026E741D}
  9
$EXTNAMES
290
     1
  9
$PSVPSCALE
 40
0.0
  9
$OLESTARTUP
290
     0
  0
ENDSEC
  0
SECTION
  2
CLASSES
  0
CLASS
  1
IMAGE
  2
AcDbRasterImage
  3
ISM
 90
    32895
280
     0
281
     1
  0
CLASS
  1
DICTIONARYVAR
  2
AcDbDictionaryVar
  3
ObjectDBX Classes
 90
        0
280
     0
281
     0
  0
CLASS
  1
RASTERVARIABLES
  2
AcDbRasterVariables
  3
ISM
 90
    32768
280
     0
281
     0
  0
CLASS
  1
IMAGEDEF
  2
AcDbRasterImageDef
  3
ISM
 90
    32768
280
     0
281
     0
  0
CLASS
  1
IMAGEDEF_REACTOR
  2
AcDbRasterImageDefReactor
  3
ISM
 90
    32769
280
     0
281
     0
  0
CLASS
  1
IDBUFFER
  2
AcDbIdBuffer
  3
ObjectDBX Classes
 90
    32768
280
     0
281
     0
  0
CLASS
  1
SPATIAL_FILTER
  2
AcDbSpatialFilter
  3
ObjectDBX Classes
 90
    32768
280
     0
281
     0
  0
CLASS
  1
SORTENTSTABLE
  2
AcDbSortentsTable
  3
ObjectDBX Classes
 90
    32768
280
     0
281
     0
  0
CLASS
  1
LAYER_INDEX
  2
AcDbLayerIndex
  3
ObjectDBX Classes
 90
    32768
280
     0
281
     0
  0
CLASS
  1
SPATIAL_INDEX
  2
AcDbSpatialIndex
  3
ObjectDBX Classes
 90
    32768
280
     0
281
     0
  0
CLASS
  1
OBJECT_PTR
  2
CAseDLPNTableRecord
  3
ASE-LPNTableRecord
 90
    32769
280
     0
281
     0
  0
CLASS
  1
LAYOUT
  2
AcDbLayout
  3
ObjectDBX Classes
 90
        0
280
     0
281
     0
  0
CLASS
  1
PLOTSETTINGS
  2
AcDbPlotSettings
  3
ObjectDBX Classes
 90
    32768
280
     0
281
     0
  0
CLASS
  1
ACDBDICTIONARYWDFLT
  2
AcDbDictionaryWithDefault
  3
ObjectDBX Classes
 90
        0
280
     0
281
     0
  0
CLASS
  1
ACDBPLACEHOLDER
  2
AcDbPlaceHolder
  3
ObjectDBX Classes
 90
        0
280
     0
281
     0
  0
CLASS
  1
VBA_PROJECT
  2
AcDbVbaProject
  3
acad
 90
    32768
280
     0
281
     0
  0
CLASS
  1
WIPEOUT
  2
AcDbWipeout
  3
"WipeOut|Product Desc: Object Enabler for WipeOut entity^I^I^I^I^I^I|Company: Autodesk, Inc.^I^I^I^I^I^I|WEB Address: www.autodesk.com"
 90
    32895
280
     0
281
     1
  0
CLASS
  1
WIPEOUTVARIABLES
  2
AcDbWipeoutVariables
  3
"WipeOut|Product Desc:     WipeOut Dbx Application|Company:          Autodesk, Inc.|WEB Address:      www.autodesk.com"
 90
    32768
280
     0
281
     0
  0
CLASS
  1
RTEXT
  2
RText
  3
RText|AutoCAD Express Tool|expresstools@autodesk.com
 90
    32768
280
     0
281
     1
  0
CLASS
  1
ARCALIGNEDTEXT
  2
AcDbArcAlignedText
  3
ATEXT|AutoCAD Express Tool|expresstools@autodesk.com
 90
    32768
280
     0
281
     1
  0
ENDSEC
  0
SECTION
  2
TABLES
  0
TABLE
  2
VPORT
  5
7
330
0
100
AcDbSymbolTable
 70
     2
  0
VPORT
  5
C17
330
7
100
AcDbSymbolTableRecord
100
AcDbViewportTableRecord
  2
*Active
 70
     0
 10
0.0
 20
0.0
 11
1.0
 21
1.0
 12
662.0789274802024
 22
-302.9395296656657
 13
0.0
 23
0.0
 14
1.0
 24
1.0
 15
0.0
 25
0.0
 16
0.0
 26
0.0
 36
1.0
 17
0.0
 27
0.0
 37
0.0
 40
1551.156027355603
 41
1.569570871261378
 42
50.0
 43
0.0
 44
0.0
 50
0.0
 51
0.0
 71
     0
 72
  2000
 73
     1
 74
     1
 75
     0
 76
     0
 77
     0
 78
     0
281
     0
 65
     1
110
0.0
120
0.0
130
0.0
111
1.0
121
0.0
131
0.0
112
0.0
122
1.0
132
0.0
 79
     1
146
0.0
  0
ENDTAB
  0
TABLE
  2
LTYPE
  5
4
330
0
100
AcDbSymbolTable
 70
     6
  0
LTYPE
  5
11
330
4
100
AcDbSymbolTableRecord
100
AcDbLinetypeTableRecord
  2
BYBLOCK
 70
     0
  3

 72
    65
 73
     0
 40
0.0
  0
LTYPE
  5
12
330
4
100
AcDbSymbolTableRecord
100
AcDbLinetypeTableRecord
  2
BYLAYER
 70
     0
  3

 72
    65
 73
     0
 40
0.0
  0
LTYPE
  5
13
330
4
100
AcDbSymbolTableRecord
100
AcDbLinetypeTableRecord
  2
CONTINUOUS
 70
     0
  3
Solid line
 72
    65
 73
     0
 40
0.0
  0
LTYPE
  5
1E
330
4
100
AcDbSymbolTableRecord
100
AcDbLinetypeTableRecord
  2
HIDDEN
 70
     0
  3
Hidden __ __ __ __ __ __ __ __ __ __ __ __ __ __
 72
    65
 73
     2
 40
1.905
 49
1.27
 74
     0
 49
-0.635
 74
     0
  0
LTYPE
  5
1F
330
4
100
AcDbSymbolTableRecord
100
AcDbLinetypeTableRecord
  2
PHANTOM
 70
     0
  3
Phantom ______  __  __  ______  __  __  ______
 72
    65
 73
     6
 40
12.7
 49
6.349999999999999
 74
     0
 49
-1.27
 74
     0
 49
1.27
 74
     0
 49
-1.27
 74
     0
 49
1.27
 74
     0
 49
-1.27
 74
     0
  0
LTYPE
  5
20
330
4
100
AcDbSymbolTableRecord
100
AcDbLinetypeTableRecord
  2
CENTER
 70
     0
  3
Center ____ _ ____ _ ____ _ ____ _ ____ _ ____
 72
    65
 73
     4
 40
10.16
 49
6.349999999999999
 74
     0
 49
-1.27
 74
     0
 49
1.27
 74
     0
 49
-1.27
 74
     0
  0
LTYPE
  5
21
330
4
100
AcDbSymbolTableRecord
100
AcDbLinetypeTableRecord
  2
CENTERX2
 70
     0
  3
Center (2x) ________  __  ________  __  _____
 72
    65
 73
     4
 40
20.32
 49
12.7
 74
     0
 49
-2.54
 74
     0
 49
2.54
 74
     0
 49
-2.54
 74
     0
  0
LTYPE
  5
22
330
4
100
AcDbSymbolTableRecord
100
AcDbLinetypeTableRecord
  2
DOT2
 70
     0
  3
Dot (.5x) ........................................
 72
    65
 73
     2
 40
0.635
 49
0.0
 74
     0
 49
-0.635
 74
     0
  0
ENDTAB
  0
TABLE
  2
LAYER
  5
2
330
0
100
AcDbSymbolTable
 70
     2
  0
LAYER
  5
14
330
2
100
AcDbSymbolTableRecord
100
AcDbLayerTableRecord
  2
0
 70
     0
 62
     7
  6
CONTINUOUS
370
    -3
390
B9C
  0
LAYER
  5
26
330
2
100
AcDbSymbolTableRecord
100
AcDbLayerTableRecord
  2
DEFPOINTS
 70
     0
 62
     7
  6
CONTINUOUS
290
     0
370
    -3
390
B9C
  0
ENDTAB
  0
TABLE
  2
STYLE
  5
3
330
0
100
AcDbSymbolTable
 70
     1
  0
STYLE
  5
17
330
3
100
AcDbSymbolTableRecord
100
AcDbTextStyleTableRecord
  2
STANDARD
 70
     0
 40
0.0
 41
1.0
 50
0.0
 71
     0
 42
0.0
  3
Century Gothic
  4

  0
ENDTAB
  0
TABLE
  2
VIEW
  5
5
330
0
100
AcDbSymbolTable
 70
     0
  0
ENDTAB
  0
TABLE
  2
UCS
  5
6
330
0
100
AcDbSymbolTable
 70
     0
  0
ENDTAB
  0
TABLE
  2
APPID
  5
8
330
0
100
AcDbSymbolTable
 70
     2
  0
APPID
  5
16
330
8
100
AcDbSymbolTableRecord
100
AcDbRegAppTableRecord
  2
ACAD
 70
     0
  0
APPID
  5
C09
330
8
100
AcDbSymbolTableRecord
100
AcDbRegAppTableRecord
  2
DCO15
 70
     0
  0
ENDTAB
  0
TABLE
  2
DIMSTYLE
  5
9
330
0
100
AcDbSymbolTable
 70
     1
100
AcDbDimStyleTable
 71
     0
  0
DIMSTYLE
105
18
330
9
100
AcDbSymbolTableRecord
100
AcDbDimStyleTableRecord
  2
STANDARD
 70
     0
289
     0
340
17
  0
ENDTAB
  0
TABLE
  2
BLOCK_RECORD
  5
1
330
0
100
AcDbSymbolTable
 70
     0
  0
BLOCK_RECORD
  5
A
102
{ACAD_XDICTIONARY
360
BC6
102
}
330
1
100
AcDbSymbolTableRecord
100
AcDbBlockTableRecord
  2
*MODEL_SPACE
340
B9F
  0
BLOCK_RECORD
  5
B
102
{ACAD_XDICTIONARY
360
BC8
102
}
330
1
100
AcDbSymbolTableRecord
100
AcDbBlockTableRecord
  2
*PAPER_SPACE
340
BA0
  0
ENDTAB
  0
ENDSEC
  0
SECTION
  2
BLOCKS
  0
BLOCK
  5
D
330
A
100
AcDbEntity
  8
0
100
AcDbBlockBegin
  2
*MODEL_SPACE
 70
     0
 10
0.0
 20
0.0
 30
0.0
  3
*MODEL_SPACE
  1

  0
ENDBLK
  5
E
330
A
100
AcDbEntity
  8
0
100
AcDbBlockEnd
  0
BLOCK
  5
F
330
B
100
AcDbEntity
 67
     1
  8
0
100
AcDbBlockBegin
  2
*PAPER_SPACE
 70
     0
 10
0.0
 20
0.0
 30
0.0
  3
*PAPER_SPACE
  1

  0
ENDBLK
  5
10
330
B
100
AcDbEntity
 67
     1
  8
0
100
AcDbBlockEnd
  0
ENDSEC
  0
SECTION
  2
ENTITIES
  0
LINE
  5
27
330
A
100
AcDbEntity
  8
0
  6
Continuous
 62
     7
100
AcDbLine
 10
59.84999999999995
 20
0.8462070835935087
 30
0.0
 11
54.84999999999995
 21
0.8462070835935087
 31
0.0
  0
LINE
  5
28
330
A
100
AcDbEntity
  8
0
  6
Continuous
 62
     7
100
AcDbLine
 10
54.84999999999995
 20
-25.1537629164067
 30
0.0
 11
59.84999999999995
 21
-25.1537629164067
 31
0.0
  0
LINE
  5
29
330
A
100
AcDbEntity
  8
0
  6
Continuous
 62
     7
100
AcDbLine
 10
75.25000500000031
 20
-51.39430591640653
 30
0.0
 11
75.25000500000025
 21
-25.77551152082636
 31
0.0
  0
LINE
  5
2A
330
A
100
AcDbEntity
  8
0
  6
Continuous
 62
     7
100
AcDbLine
 10
64.44999499999973
 20
-25.77551152082636
 30
0.0
 11
64.44999499999969
 21
-51.39430591640653
 31
0.0
  0
LINE
  5
2B
330
A
100
AcDbEntity
  8
0
  6
Continuous
 62
     7
100
AcDbLine
 10
75.25000500000031
 20
-25.77551152082624
 30
0.0
 11
75.2500050000003
 21
-20.93877068102456
 31
0.0
  0
LINE
  5
2C
330
A
100
AcDbEntity
  8
0
  6
Continuous
 62
     7
100
AcDbLine
 10
64.44999499999969
 20
-20.88838775854196
 30
0.0
 11
64.44999499999969
 21
-25.77551152082624
 31
0.0
  0
LINE
  5
2D
330
A
100
AcDbEntity
  8
0
  6
Continuous
 62
     7
100
AcDbLine
 10
64.45001658206741
 20
-2.153777916406474
 30
0.0
 11
61.84999999999996
 21
-2.153777916406474
 31
0.0
  0
LINE
  5
2E
330
A
100
AcDbEntity
  8
0
  6
Continuous
 62
     7
100
AcDbLine
 10
77.84999999999996
 20
-2.153777916406474
 30
0.0
 11
75.19542117676549
 21
-2.153777916406474
 31
0.0
  0
LINE
  5
2F
330
A
100
AcDbEntity
  8
0
  6
Continuous
 62
     7
100
AcDbLine
 10
75.2500050000003
 20
-22.15377791640671
 30
0.0
 11
77.84999999999996
 21
-22.15377791640671
 31
0.0
  0
LINE
  5
30
330
A
100
AcDbEntity
  8
0
  6
Continuous
 62
     7
100
AcDbLine
 10
61.84999999999996
 20
-22.15377791640671
 30
0.0
 11
64.44999499999969
 21
-22.15377791640671
 31
0.0
  0
LINE
  5
31
330
A
100
AcDbEntity
  8
0
  6
Continuous
 62
     7
100
AcDbLine
 10
64.45001349995544
 20
34.34616108359323
 30
0.0
 11
64.45001349995544
 21
-2.153777916466093
 31
0.0
  0
LINE
  5
32
330
A
100
AcDbEntity
  8
0
  6
Continuous
 62
     7
100
AcDbLine
 10
75.24998650004445
 20
-2.153777916406474
 30
0.0
 11
75.24998650004445
 21
34.34616108359323
 31
0.0
  0
LINE
  5
33
330
A
100
AcDbEntity
  8
0
  6
Continuous
 62
     7
100
AcDbLine
 10
61.84999999999996
 20
-8.903794916406692
 30
0.0
 11
59.84999999999995
 21
-8.903794916406692
 31
0.0
  0
LINE
  5
34
330
A
100
AcDbEntity
  8
0
  6
Continuous
 62
     7
100
AcDbLine
 10
59.84999999999995
 20
-15.40372691640679
 30
0.0
 11
61.84999999999996
 21
-15.40372691640679
 31
0.0
  0
LINE
  5
35
330
A
100
AcDbEntity
  8
0
  6
Continuous
 62
     7
100
AcDbLine
 10
76.84999999999995
 20
34.34616108359323
 30
0.0
 11
76.84999999999995
 21
255.973082346134
 31
0.0
  0
LINE
  5
36
330
A
100
AcDbEntity
  8
0
  6
Continuous
 62
     7
100
AcDbLine
 10
76.84999999999995
 20
291.1709723385042
 30
0.0
 11
76.84999999999995
 21
306.1073618985722
 31
0.0
  0
LINE
  5
37
330
A
100
AcDbEntity
  8
0
  6
Continuous
 62
     7
100
AcDbLine
 10
62.84999999999993
 20
306.102079243893
 30
0.0
 11
62.84999999999993
 21
291.1709723386291
 31
0.0
  0
LINE
  5
38
330
A
100
AcDbEntity
  8
0
  6
Continuous
 62
     7
100
AcDbLine
 10
62.84999999999993
 20
255.9730823462627
 30
0.0
 11
62.84999999999993
 21
34.34616108359323
 31
0.0
  0
LINE
  5
39
330
A
100
AcDbEntity
  8
0
  6
Continuous
 62
     7
100
AcDbLine
 10
64.44999499999932
 20
18.81917054206095
 30
0.0
 11
64.44999499999953
 21
-2.153777916406474
 31
0.0
  0
LINE
  5
3A
330
A
100
AcDbEntity
  8
0
  6
Continuous
 62
     7
100
AcDbLine
 10
64.44999499999925
 20
25.00101470455029
 30
0.0
 11
64.44999499999926
 21
23.40977632605845
 31
0.0
  0
LINE
  5
3B
330
A
100
AcDbEntity
  8
0
  6
Continuous
 62
     7
100
AcDbLine
 10
75.25000499999989
 20
23.41032450071379
 30
0.0
 11
75.25000499999987
 21
25.00101470455041
 31
0.0
  0
LINE
  5
3C
330
A
100
AcDbEntity
  8
0
  6
Continuous
 62
     7
100
AcDbLine
 10
75.25000500000015
 20
-2.153777916406474
 30
0.0
 11
75.25000499999993
 21
18.81971631584955
 31
0.0
  0
LWPOLYLINE
  5
3D
330
A
100
AcDbEntity
  8
0
  6
Continuous
 62
     7
100
AcDbPolyline
 90
       24
 70
   128
 43
0.0
 10
-4.313502657844178
 20
337.5159157563856
 10
-4.295877584847021
 20
336.568367134067
 10
-3.94187168881703
 20
334.4490758274611
 10
-3.278796725048618
 20
332.3567500221613
 10
-2.307418189782903
 20
330.2920775475326
 10
-1.026011515773805
 20
328.2582495277255
 10
0.5657359210627516
 20
326.2627609520155
 10
2.463646300704003
 20
324.3166034363643
 10
4.658467239946853
 20
322.431866095231
 10
7.137365632633605
 20
320.6195528098873
 10
9.885857712066979
 20
318.8886608847937
 10
12.8880995115235
 20
317.246810490103
 10
16.12942135077965
 20
315.6995515038681
 10
19.5951865608026
 20
314.2517072660822
 10
23.27041066511391
 20
312.9077468125914
 10
27.13959248137618
 20
311.671892694892
 10
31.18661319985227
 20
310.5481411641358
 10
35.39469586823389
 20
309.5402389595149
 10
39.74641012544688
 20
308.6516426690093
 10
44.2237084268909
 20
307.8854742872606
 10
48.80798346269985
 20
307.2444794725885
 10
53.48013964058726
 20
306.7309912493194
 10
58.22067385955273
 20
306.3469000600152
 10
58.54229392143856
 20
306.3298912592431
  0
LWPOLYLINE
  5
57
330
A
100
AcDbEntity
  8
0
  6
Continuous
 62
     7
100
AcDbPolyline
 90
        6
 70
   128
 43
0.0
 10
61.56693383159439
 20
306.1699338942153
 10
63.00976240347586
 20
306.0936302470374
 10
67.82735182636449
 20
305.9721227329648
 10
72.65325235982047
 20
305.982823610875
 10
77.46722092365432
 20
306.1256779002842
 10
78.13254689011555
 20
306.1638635640505
  0
LWPOLYLINE
  5
5F
330
A
100
AcDbEntity
  8
0
  6
Continuous
 62
     7
100
AcDbPolyline
 90
       24
 70
   128
 43
0.0
 10
81.15835924983725
 20
306.3375267896159
 10
82.2489464322361
 20
306.4001198606129
 10
86.97840319606934
 20
306.8050867154044
 10
91.63580999597423
 20
307.3390311225094
 10
96.20172341241273
 20
307.9999382585754
 10
100.6571288791812
 20
308.7853496757972
 10
104.983528188189
 20
309.6923947456634
 10
109.1630216832646
 20
310.7178307222555
 10
113.1783824881628
 20
311.8580925966655
 10
117.0131186677966
 20
313.1093538083596
 10
120.6515169329395
 20
314.467598160487
 10
124.0786580018337
 20
315.9287011813857
 10
127.2803887281785
 20
317.48851413901
 10
130.2432298934719
 20
319.1429330543004
 10
132.9541936000237
 20
320.8879135442808
 10
135.4004889321115
 20
322.7193540513189
 10
137.5688365629488
 20
324.6324303502031
 10
139.4448178889869
 20
326.6201248456797
 10
141.0144823665989
 20
328.6730344581157
 10
142.2650096898364
 20
330.7776574048093
 10
143.1872559395118
 20
332.9164061817652
 10
143.7782984690664
 20
335.0699981974622
 10
144.0417068564876
 20
337.2215324248248
 10
144.0139876485001
 20
338.2594468579607
  0
LWPOLYLINE
  5
79
330
A
100
AcDbEntity
  8
0
  6
Continuous
 62
     7
100
AcDbPolyline
 90
       50
 70
   128
 43
0.0
 10
144.0258780344144
 20
338.0868158285161
 10
143.9846058262609
 20
339.6322070441672
 10
143.6136421436082
 20
341.7500489359346
 10
142.9337654092345
 20
343.840892029414
 10
141.9455230288121
 20
345.9039999893554
 10
140.6471629393676
 20
347.9359693385688
 10
139.0385566939333
 20
349.929071859245
 10
137.1241684150373
 20
351.8721882608225
 10
134.9134959462447
 20
353.7532416880113
 10
132.4195088550987
 20
355.5613262613968
 10
129.656737155676
 20
357.2875564558346
 10
126.641075849779
 20
358.9243785698368
 10
123.3871276988091
 20
360.4663334799164
 10
119.9095430042319
 20
361.9086221690438
 10
116.2233306788292
 20
363.246790787362
 10
112.3440236106393
 20
364.476629100947
 10
108.2877759538856
 20
365.5941536297013
 10
104.0714007758856
 20
366.5956323402853
 10
99.71236327928494
 20
367.477625760088
 10
95.22874318668128
 20
368.2370313940628
 10
90.63917639618717
 20
368.8711252183537
 10
85.96278288598679
 20
369.3775976440573
 10
81.21908553652879
 20
369.7545831117797
 10
76.42792297158314
 20
370.0006832645862
 10
71.60935850210286
 20
370.11498393784
 10
69.85000000000656
 20
370.1237729530557
 10
67.30956430446359
 20
370.1054449267884
 10
62.4950448583848
 20
369.9698072760483
 10
57.7110398284686
 20
369.7025290312871
 10
52.97821508850574
 20
369.3046552047338
 10
48.31636783917119
 20
368.7777070652336
 10
43.7449623254899
 20
368.1236744558264
 10
39.28303883336194
 20
367.3449923343954
 10
34.94912595170684
 20
366.4445097691397
 10
30.76115803014559
 20
365.4254503756649
 10
26.73640042632812
 20
364.2913630275714
 10
22.89138654609927
 20
363.0460617577327
 10
19.2418729136171
 20
361.6935544378144
 10
15.8028219296659
 20
360.2379618219079
 10
12.5884268962198
 20
358.6834333561763
 10
9.612200063412075
 20
357.034076593325
 10
6.887149622877827
 20
355.2939378268681
 10
4.42606777008965
 20
353.4671087893709
 10
2.242154579690083
 20
351.55831507021
 10
0.3498456868569893
 20
349.574484974658
 10
-1.236897076288129
 20
347.5248289253805
 10
-2.505134724241256
 20
345.4226072364816
 10
-3.445447205636526
 20
343.2852227950633
 10
-4.054535381068744
 20
341.13196531384
 10
-4.182551310671772
 20
340.1520249466587
  0
LWPOLYLINE
  5
AD
330
A
100
AcDbEntity
  8
0
  6
Continuous
 62
     7
100
AcDbPolyline
 90
        3
 70
   128
 43
0.0
 10
-4.222499239821431
 20
339.8462302812569
 10
-4.335664675839289
 20
338.9799679397856
 10
-4.320860216523531
 20
338.1840594615447
  0
LINE
  5
B2
330
A
100
AcDbEntity
  8
0
  6
Continuous
 62
     7
100
AcDbLine
 10
138.0906454956352
 20
350.8912078151307
 30
0.0
 11
104.1195161518486
 21
417.2425879781082
 31
0.0
  0
LINE
  5
B3
330
A
100
AcDbEntity
  8
0
  6
Continuous
 62
     7
100
AcDbLine
 10
35.58048384816241
 20
417.2425879781078
 30
0.0
 11
1.613445894980275
 21
350.8991989952467
 31
0.0
  0
LWPOLYLINE
  5
B4
330
A
100
AcDbEntity
  8
0
  6
Continuous
 62
     7
100
AcDbPolyline
 90
       30
 70
   128
 43
0.0
 10
104.0375107599078
 20
417.3422693196381
 10
103.4083557171987
 20
418.4240482986743
 10
102.2616496947661
 20
419.8333203809526
 10
100.8062845344596
 20
421.1925084460071
 10
99.05241661932596
 20
422.4822369600839
 10
97.02470064084096
 20
423.6827219594231
 10
94.75459680635688
 20
424.7793446305302
 10
92.26881968122066
 20
425.7649672399954
 10
89.59102511830115
 20
426.6352189093146
 10
86.74469779145567
 20
427.3862412344822
 10
83.75407229580439
 20
428.0143658879494
 10
80.64449199274625
 20
428.5161990649243
 10
77.44242753801074
 20
428.8888083840293
 10
74.17531662077405
 20
429.1298996325108
 10
70.87131415375804
 20
429.2379511267486
 10
69.85000000000582
 20
429.244305916406
 10
68.10569531004365
 20
429.2257615946517
 10
64.80934780942978
 20
429.088705383703
 10
61.55669607445424
 20
428.8191048683366
 10
58.37670436022647
 20
428.4188931508536
 10
55.29660528456225
 20
427.8907631838755
 10
52.34252328967389
 20
427.2380430240257
 10
49.53920159940032
 20
426.4644765978775
 10
46.90979369026769
 20
425.573908088987
 10
44.47579013588721
 20
424.569850168222
 10
42.25722523433041
 20
423.4549490855269
 10
40.27344129903292
 20
422.2304965337356
 10
38.54484675357863
 20
420.8965646950254
 10
37.09769400074999
 20
419.4563921390526
 10
36.57752778187602
 20
418.7531657384914
  0
LWPOLYLINE
  5
D4
330
A
100
AcDbEntity
  8
0
  6
Continuous
 62
     7
100
AcDbPolyline
 90
        3
 70
   128
 43
0.0
 10
36.47046835917635
 20
418.6084292874503
 10
35.96457510803677
 20
417.9244988875923
 10
35.74584264023741
 20
417.4836609526196
  0
LWPOLYLINE
  5
D9
330
A
100
AcDbEntity
  8
0
  6
Continuous
 62
     7
100
AcDbPolyline
 90
       14
 70
   128
 43
0.0
 10
64.36754446516804
 20
238.2330844783156
 10
64.49480618954296
 20
237.4705067622003
 10
64.94268291345363
 20
236.319790489957
 10
65.66596928278412
 20
235.30393107218
 10
66.62522098442484
 20
234.4762651470409
 10
67.77026635815136
 20
233.8819912964078
 10
69.03957728178024
 20
233.5567500731314
 10
70.36225885465121
 20
233.5230227329847
 10
71.66199424563216
 20
233.7873839326586
 10
72.86081059420651
 20
234.3386519152987
 10
73.88486811099956
 20
235.1470948782364
 10
74.66960600723163
 20
236.1643271282592
 10
75.16661869046783
 20
237.3257939736077
 10
75.33245553484308
 20
238.2330844783164
  0
LWPOLYLINE
  5
E9
330
A
100
AcDbEntity
  8
0
  6
Continuous
 62
     7
100
AcDbPolyline
 90
       11
 70
   128
 43
0.0
 10
72.34337223560825
 20
238.4887816238538
 10
72.29488301568268
 20
238.1985803009008
 10
71.95167134584259
 20
237.4872501737165
 10
71.33350563272411
 20
236.9215747860997
 10
70.53732392742796
 20
236.5839625868908
 10
69.66638962037855
 20
236.5065415757157
 10
68.8284394319762
 20
236.689225129427
 10
68.12412574138193
 20
237.0967749684812
 10
67.62643146868409
 20
237.668149439471
 10
67.37505658661925
 20
238.3427906321093
 10
67.35662776440282
 20
238.4887816238536
  0
LINE
  5
F6
330
A
100
AcDbEntity
  8
0
  6
Continuous
 62
     7
100
AcDbLine
 10
58.35545835038779
 20
308.5139871511088
 30
0.0
 11
64.36754242964692
 21
238.2331082866095
 31
0.0
  0
LINE
  5
F7
330
A
100
AcDbEntity
  8
0
  6
Continuous
 62
     7
100
AcDbLine
 10
67.35660146278192
 20
238.4890869203658
 30
0.0
 11
61.34454164962257
 21
308.7696842966466
 31
0.0
  0
LINE
  5
F8
330
A
100
AcDbEntity
  8
0
  6
Continuous
 62
     7
100
AcDbLine
 10
78.35545835038785
 20
308.769684296647
 30
0.0
 11
72.34337223560827
 21
238.488781623854
 31
0.0
  0
LINE
  5
F9
330
A
100
AcDbEntity
  8
0
  6
Continuous
 62
     7
100
AcDbLine
 10
75.33245749436152
 20
238.2331073971771
 30
0.0
 11
81.34454164962265
 21
308.5139871511093
 31
0.0
  0
LINE
  5
FA
330
A
100
AcDbEntity
  8
0
  6
Continuous
 62
     7
100
AcDbLine
 10
184.85
 20
-101.8943059164065
 30
0.0
 11
184.85
 21
-92.89430591640652
 31
0.0
  0
LINE
  5
FB
330
A
100
AcDbEntity
  8
0
  6
Continuous
 62
     7
100
AcDbLine
 10
-45.15000000000001
 20
-92.89430591640652
 30
0.0
 11
-45.15000000000001
 21
-101.8943059164065
 31
0.0
  0
ARC
  5
FC
330
A
100
AcDbEntity
  8
0
  6
Continuous
 62
     7
100
AcDbCircle
 10
-44.15
 20
-101.8943059164065
 30
0.0
 40
1.000000000000007
100
AcDbArc
 50
180.0000000000004
 51
270.0000000000008
  0
ARC
  5
FD
330
A
100
AcDbEntity
  8
0
  6
Continuous
 62
     7
100
AcDbCircle
 10
183.85
 20
-101.8943059164065
 30
0.0
 40
1.0
100
AcDbArc
 50
270.0000000000008
 51
0.0
  0
ARC
  5
FE
330
A
100
AcDbEntity
  8
0
  6
Continuous
 62
     7
100
AcDbCircle
 10
-43.65000000000001
 20
-92.89430591640652
 30
0.0
 40
1.500000000000014
100
AcDbArc
 50
90.0
 51
180.0000000000004
  0
ARC
  5
FF
330
A
100
AcDbEntity
  8
0
  6
Continuous
 62
     7
100
AcDbCircle
 10
183.35
 20
-92.89430591640652
 30
0.0
 40
1.500000000000014
100
AcDbArc
 50
0.0
 51
90.0
  0
LINE
  5
100
330
A
100
AcDbEntity
  8
0
  6
Continuous
 62
     7
100
AcDbLine
 10
108.897597471245
 20
-105.3943059164065
 30
0.0
 11
108.897597471245
 21
-102.8943059164065
 31
0.0
  0
LINE
  5
101
330
A
100
AcDbEntity
  8
0
  6
Continuous
 62
     7
100
AcDbLine
 10
88.89759747124506
 20
-102.8943059164065
 30
0.0
 11
88.89759747124506
 21
-105.3943059164065
 31
0.0
  0
LINE
  5
102
330
A
100
AcDbEntity
  8
0
  6
Continuous
 62
     7
100
AcDbLine
 10
3.802402528754925
 20
-105.3943059164065
 30
0.0
 11
3.802402528754925
 21
-102.8943059164065
 31
0.0
  0
LINE
  5
103
330
A
100
AcDbEntity
  8
0
  6
Continuous
 62
     7
100
AcDbLine
 10
-16.19759747124506
 20
-102.8943059164065
 30
0.0
 11
-16.19759747124506
 21
-105.3943059164065
 31
0.0
  0
LINE
  5
104
330
A
100
AcDbEntity
  8
0
  6
Continuous
 62
     7
100
AcDbLine
 10
173.85
 20
-105.3943059164065
 30
0.0
 11
173.85
 21
-102.8943059164065
 31
0.0
  0
LINE
  5
105
330
A
100
AcDbEntity
  8
0
  6
Continuous
 62
     7
100
AcDbLine
 10
153.85
 20
-102.8943059164065
 30
0.0
 11
153.85
 21
-105.3943059164065
 31
0.0
  0
ARC
  5
106
330
A
100
AcDbEntity
  8
0
  6
Continuous
 62
     7
100
AcDbCircle
 10
48.13881791054893
 20
-89.3943059164065
 30
0.0
 40
2.000000000000004
100
AcDbArc
 50
270.0000000000008
 51
351.0999999999991
  0
ARC
  5
107
330
A
100
AcDbEntity
  8
0
  6
Continuous
 62
     7
100
AcDbCircle
 10
91.56118208945107
 20
-89.3943059164065
 30
0.0
 40
2.000000000000011
100
AcDbArc
 50
188.9000000000025
 51
270.0000000000008
  0
LINE
  5
108
330
A
100
AcDbEntity
  8
0
  6
Continuous
 62
     7
100
AcDbLine
 10
89.5852623579123
 20
-89.7037266890055
 30
0.0
 11
83.71853598087133
 21
-52.23959553010707
 31
0.0
  0
LINE
  5
109
330
A
100
AcDbEntity
  8
0
  6
Continuous
 62
     7
100
AcDbLine
 10
55.98146401912866
 20
-52.23959553010707
 30
0.0
 11
50.11473764208769
 21
-89.7037266890055
 31
0.0
  0
ARC
  5
10A
330
A
100
AcDbEntity
  8
0
  6
Continuous
 62
     7
100
AcDbCircle
 10
56.96942388489805
 20
-52.39430591640654
 30
0.0
 40
1.000000000000001
100
AcDbArc
 50
90.0
 51
171.0999999999999
  0
ARC
  5
10B
330
A
100
AcDbEntity
  8
0
  6
Continuous
 62
     7
100
AcDbCircle
 10
82.73057611510195
 20
-52.39430591640654
 30
0.0
 40
1.000000000000008
100
AcDbArc
 50
8.900000000000048
 51
90.0
  0
ARC
  5
10C
330
A
100
AcDbEntity
  8
0
  6
Continuous
 62
     7
100
AcDbCircle
 10
69.84999999999999
 20
365.8462180835958
 30
0.0
 40
27.50000000000002
100
AcDbArc
 50
184.5134091149617
 51
355.4865908850445
  0
LINE
  5
10D
330
A
100
AcDbEntity
  8
0
  6
Continuous
 62
     7
100
AcDbLine
 10
74.74897946515399
 20
34.34616108359345
 30
0.0
 11
64.95102053484612
 21
34.34616108359345
 31
0.0
  0
LINE
  5
10E
330
A
100
AcDbEntity
  8
0
  6
Continuous
 62
     7
100
AcDbLine
 10
59.8500000000001
 20
-12.15377791640648
 30
0.0
 11
59.84999999999995
 21
0.8462070835935087
 31
0.0
  0
LINE
  5
10F
330
A
100
AcDbEntity
  8
0
  6
Continuous
 62
     7
100
AcDbLine
 10
59.84999999999995
 20
-25.1537629164067
 30
0.0
 11
59.8500000000001
 21
-12.15377791640648
 31
0.0
  0
LINE
  5
110
330
A
100
AcDbEntity
  8
0
  6
Continuous
 62
     7
100
AcDbLine
 10
54.8500000000001
 20
-12.15377791640648
 30
0.0
 11
54.84999999999995
 21
0.8462070835935087
 31
0.0
  0
LINE
  5
111
330
A
100
AcDbEntity
  8
0
  6
Continuous
 62
     7
100
AcDbLine
 10
54.84999999999995
 20
-25.1537629164067
 30
0.0
 11
54.8500000000001
 21
-12.15377791640648
 31
0.0
  0
LINE
  5
112
330
A
100
AcDbEntity
  8
0
  6
Continuous
 62
     7
100
AcDbLine
 10
64.95102053484612
 20
34.34616108359345
 30
0.0
 11
62.99142874878445
 21
34.34616108359256
 31
0.0
  0
LINE
  5
113
330
A
100
AcDbEntity
  8
0
  6
Continuous
 62
     7
100
AcDbLine
 10
76.70857125121547
 20
34.34616108359256
 30
0.0
 11
74.74897946515399
 21
34.34616108359345
 31
0.0
  0
LWPOLYLINE
  5
114
330
A
100
AcDbEntity
  8
0
  6
Continuous
 62
     7
100
AcDbPolyline
 90
       13
 70
   128
 43
0.0
 10
75.22969512562491
 20
-20.95342024108093
 10
75.24967231871466
 20
-20.89436248393683
 10
75.01093970796286
 20
-19.99754229972195
 10
74.31047510600969
 20
-18.88830729611113
 10
73.05276494650525
 20
-17.64994075460147
 10
71.58101727419917
 20
-16.7954299434998
 10
70.21581430358111
 20
-16.46644561675381
 10
68.80276782844919
 20
-16.57678236215976
 10
67.5682409496065
 20
-17.05181662575583
 10
66.08630732430881
 20
-18.13067460042217
 10
65.02509828305725
 20
-19.39274488799747
 10
64.47456758189931
 20
-20.65465558209878
 10
64.51352554786717
 20
-20.8886121046864
  0
LWPOLYLINE
  5
123
330
A
100
AcDbEntity
  8
0
  6
Continuous
 62
     7
100
AcDbPolyline
 90
       13
 70
   128
 43
0.0
 10
75.19542117676549
 20
-2.182989926731382
 10
75.2321497209381
 20
-2.163396958899221
 10
74.86719991837147
 20
-2.355177067078773
 10
74.0583007206365
 20
-2.743667702625574
 10
72.74553844871012
 20
-3.252957549096158
 10
70.96972150235544
 20
-3.662942472101637
 10
69.20498970858448
 20
-3.712418191448074
 10
67.73086235756278
 20
-3.474421208940259
 10
66.37794153446782
 20
-3.049074672736518
 10
65.20165805247569
 20
-2.538819867231145
 10
64.53591826862609
 20
-2.199900448684455
 10
64.45001349995544
 20
-2.153777916466093
 10
64.45001658206741
 20
-2.153779571261393
  0
LINE
  5
132
330
A
100
AcDbEntity
  8
0
  6
Continuous
 62
     7
100
AcDbLine
 10
77.85000000000005
 20
-12.15377791640648
 30
0.0
 11
77.84999999999996
 21
-2.153777916406474
 31
0.0
  0
LINE
  5
133
330
A
100
AcDbEntity
  8
0
  6
Continuous
 62
     7
100
AcDbLine
 10
77.84999999999996
 20
-22.15377791640671
 30
0.0
 11
77.85000000000005
 21
-12.15377791640648
 31
0.0
  0
LINE
  5
134
330
A
100
AcDbEntity
  8
0
  6
Continuous
 62
     7
100
AcDbLine
 10
61.85000000000005
 20
-12.15377791640648
 30
0.0
 11
61.84999999999996
 21
-2.153777916406474
 31
0.0
  0
LINE
  5
135
330
A
100
AcDbEntity
  8
0
  6
Continuous
 62
     7
100
AcDbLine
 10
61.84999999999996
 20
-22.15377791640671
 30
0.0
 11
61.85000000000005
 21
-12.15377791640648
 31
0.0
  0
LINE
  5
136
330
A
100
AcDbEntity
  8
0
  6
Continuous
 62
     7
100
AcDbLine
 10
62.99142874878445
 20
34.34616108359256
 30
0.0
 11
62.84999999999993
 21
34.34616108359323
 31
0.0
  0
LINE
  5
137
330
A
100
AcDbEntity
  8
0
  6
Continuous
 62
     7
100
AcDbLine
 10
76.84999999999995
 20
34.34616108359323
 30
0.0
 11
76.70857125121547
 21
34.34616108359256
 31
0.0
  0
LINE
  5
138
330
A
100
AcDbEntity
  8
0
  6
Continuous
 62
     7
100
AcDbLine
 10
144.0540970606111
 20
338.2193727668057
 30
0.0
 11
144.0579482744733
 21
337.9058438452809
 31
0.0
  0
LINE
  5
139
330
A
100
AcDbEntity
  8
0
  6
Continuous
 62
     7
100
AcDbLine
 10
-4.353270207691037
 20
337.5602939315925
 30
0.0
 11
-4.357948274461592
 21
337.9058438452801
 31
0.0
  0
LINE
  5
13A
330
A
100
AcDbEntity
  8
0
  6
Continuous
 62
     7
100
AcDbLine
 10
144.0565943944534
 20
337.9925378203215
 30
0.0
 11
144.0579482744733
 21
338.1784348857167
 31
0.0
  0
LWPOLYLINE
  5
13B
330
A
100
AcDbEntity
  8
0
  6
Continuous
 62
     7
100
AcDbPolyline
 90
       86
 70
   128
 43
0.0
 10
81.18182031800619
 20
306.6117851779856
 10
85.36197106502315
 20
306.941004418614
 10
90.271603336286
 20
307.4662664776561
 10
95.0798740239743
 20
308.1335808040511
 10
99.76291752247753
 20
308.9396352172733
 10
104.2974897849331
 20
309.8804289074735
 10
108.6610836938642
 20
310.9512922932928
 10
112.832040774106
 20
312.1469101990913
 10
116.7896586935392
 20
313.4613482365507
 10
120.5142940180568
 20
314.8880822597069
 10
123.9874597107442
 20
316.4200307472147
 10
127.1919168913418
 20
318.0495899511171
 10
130.1117604005446
 20
319.7686716376592
 10
132.7324977444478
 20
321.5687432328223
 10
135.0411210272979
 20
323.4408701733194
 10
137.0261715155192
 20
325.3757602528425
 10
138.6777965125505
 20
327.3638097434533
 10
139.9877982622012
 20
329.3951510631961
 10
140.9496746377949
 20
331.4597017533352
 10
141.5586514151424
 20
333.5472145221239
 10
141.8117059691588
 20
335.6473281067128
 10
141.7075822765094
 20
337.7496187007476
 10
141.2467971498166
 20
339.843651692399
 10
140.4316376724871
 20
341.9190334560248
 10
139.2661498468905
 20
343.9654629403992
 10
137.7561185122333
 20
345.9727827974532
 10
135.9090386318054
 20
347.9310297977528
 10
133.7340780921134
 20
349.8304842824782
 10
131.2420321985446
 20
351.6617184064535
 10
128.4452700934213
 20
353.4156429327738
 10
125.357673362395
 20
355.0835523467676
 10
121.9945671339066
 20
356.6571680653738
 10
118.372644013695
 20
358.128679527465
 10
114.5098812319024
 20
359.4907829611686
 10
110.4254514140122
 20
360.7367176357641
 10
106.1396274185028
 20
361.860299418225
 10
101.6736817135518
 20
362.8559514678464
 10
97.04978079222838
 20
363.7187319166085
 10
92.29087515023824
 20
364.4443583978861
 10
87.42058537231274
 20
365.0292293017557
 10
82.46308489264455
 20
365.4704416514028
 10
77.44298001128344
 20
365.7658055118984
 10
72.38518776202477
 20
365.9138548598289
 10
67.31481223798664
 20
365.9138548598289
 10
62.25701998872796
 20
365.7658055118982
 10
57.23691510736686
 20
365.4704416514027
 10
52.27941462769866
 20
365.0292293017555
 10
47.40912484977319
 20
364.4443583978859
 10
42.65021920778305
 20
363.7187319166083
 10
38.02631828645957
 20
362.8559514678462
 10
33.56037258150863
 20
361.8602994182247
 10
29.27454858599924
 20
360.7367176357638
 10
25.19011876810903
 20
359.4907829611683
 10
21.32735598631648
 20
358.1286795274647
 10
17.70543286610487
 20
356.6571680653735
 10
14.34232663761649
 20
355.0835523467672
 10
11.25472990659019
 20
353.4156429327734
 10
8.457967801466875
 20
351.6617184064531
 10
5.965921907898144
 20
349.8304842824777
 10
3.790961368206141
 20
347.9310297977523
 10
1.943881487778242
 20
345.9727827974526
 10
0.4338501531210016
 20
343.9654629403987
 10
-0.7316376724755686
 20
341.9190334560243
 10
-1.546797149805004
 20
339.8436516923984
 10
-2.007582276497776
 20
337.749618700747
 10
-2.111705969147142
 20
335.6473281067122
 10
-1.858651415130696
 20
333.5472145221233
 10
-1.24967463778329
 20
331.4597017533346
 10
-0.2877982621895398
 20
329.3951510631954
 10
1.022203487461251
 20
327.3638097434528
 10
2.673828484492532
 20
325.3757602528419
 10
4.65887897271379
 20
323.4408701733189
 10
6.967502255564042
 20
321.5687432328218
 10
9.588239599467183
 20
319.7686716376586
 10
12.50808310867007
 20
318.0495899511167
 10
15.71254028926763
 20
316.4200307472142
 10
19.18570598195512
 20
314.8880822597064
 10
22.91034130647271
 20
313.4613482365503
 10
26.86795922590593
 20
312.1469101990909
 10
31.03891630614772
 20
310.9512922932925
 10
35.40251021507885
 20
309.8804289074732
 10
39.93708247753448
 20
308.9396352172731
 10
44.62012597603772
 20
308.1335808040507
 10
49.42839666372606
 20
307.4662664776559
 10
54.33802893498891
 20
306.9410044186137
 10
58.51817968200422
 20
306.6117851779856
  0
LWPOLYLINE
  5
193
330
A
100
AcDbEntity
  8
0
  6
Continuous
 62
     7
100
AcDbPolyline
 90
        9
 70
   128
 43
0.0
 10
61.54392258317558
 20
306.4389339184376
 10
62.62849345772067
 20
306.390126916177
 10
65.03115466487677
 20
306.3064734948534
 10
67.43922443297376
 20
306.2562438562601
 10
69.85000000000436
 20
306.2394943769859
 10
72.26077556703497
 20
306.2562438562602
 10
74.66884533513196
 20
306.3064734948533
 10
77.07150654228806
 20
306.3901269161769
 10
78.15607741683483
 20
306.4389339184376
  0
LINE
  5
19E
330
A
100
AcDbEntity
  8
0
  6
Continuous
 62
     7
100
AcDbLine
 10
104.1195161518486
 20
417.2425879781082
 30
0.0
 11
104.0732314005817
 21
417.3316156048218
 31
0.0
  0
LINE
  5
19F
330
A
100
AcDbEntity
  8
0
  6
Continuous
 62
     7
100
AcDbLine
 10
35.69193055019723
 20
417.4526002773242
 30
0.0
 11
35.58048384816241
 21
417.2425879781078
 31
0.0
  0
LWPOLYLINE
  5
1A0
330
A
100
AcDbEntity
  8
0
  6
Continuous
 62
     7
100
AcDbPolyline
 90
       10
 70
   128
 43
0.0
 10
61.34454164962257
 20
308.7696842966466
 10
61.29668217027706
 20
308.9013780146783
 10
61.03240047936576
 20
309.1048854584691
 10
60.57886869953462
 20
309.2342790931272
 10
60.00867723577689
 20
309.2688487131916
 10
59.4130885555062
 20
309.2030612494653
 10
58.88743009867914
 20
309.0474463689917
 10
58.51583656536769
 20
308.826911140468
 10
58.35778366659261
 20
308.5767535127168
 10
58.35545835038779
 20
308.5139871511088
  0
LWPOLYLINE
  5
1AC
330
A
100
AcDbEntity
  8
0
  6
Continuous
 62
     7
100
AcDbPolyline
 90
       10
 70
   128
 43
0.0
 10
78.35545835038785
 20
308.769684296647
 10
78.40331782973336
 20
308.9013780146788
 10
78.66759952064471
 20
309.1048854584696
 10
79.12113130047586
 20
309.2342790931276
 10
79.69132276423355
 20
309.268848713192
 10
80.28691144450419
 20
309.2030612494657
 10
80.81256990133125
 20
309.0474463689921
 10
81.18416343464271
 20
308.8269111404685
 10
81.34221633341786
 20
308.5767535127173
 10
81.34454164962265
 20
308.5139871511093
  0
LINE
  5
1B8
330
A
100
AcDbEntity
  8
0
  6
Continuous
 62
     7
100
AcDbLine
 10
69.84999999999999
 20
-102.8943059164065
 30
0.0
 11
-44.15
 21
-102.8943059164065
 31
0.0
  0
LINE
  5
1B9
330
A
100
AcDbEntity
  8
0
  6
Continuous
 62
     7
100
AcDbLine
 10
183.85
 20
-102.8943059164065
 30
0.0
 11
69.84999999999999
 21
-102.8943059164065
 31
0.0
  0
LINE
  5
1BA
330
A
100
AcDbEntity
  8
0
  6
Continuous
 62
     7
100
AcDbLine
 10
69.84999999999999
 20
-91.39430591640651
 30
0.0
 11
183.35
 21
-91.39430591640651
 31
0.0
  0
LINE
  5
1BB
330
A
100
AcDbEntity
  8
0
  6
Continuous
 62
     7
100
AcDbLine
 10
-43.65000000000001
 20
-91.39430591640651
 30
0.0
 11
69.84999999999999
 21
-91.39430591640651
 31
0.0
  0
LINE
  5
1BC
330
A
100
AcDbEntity
  8
0
  6
Continuous
 62
     7
100
AcDbLine
 10
98.89759747124506
 20
-105.3943059164065
 30
0.0
 11
108.897597471245
 21
-105.3943059164065
 31
0.0
  0
LINE
  5
1BD
330
A
100
AcDbEntity
  8
0
  6
Continuous
 62
     7
100
AcDbLine
 10
88.89759747124506
 20
-105.3943059164065
 30
0.0
 11
98.89759747124506
 21
-105.3943059164065
 31
0.0
  0
LINE
  5
1BE
330
A
100
AcDbEntity
  8
0
  6
Continuous
 62
     7
100
AcDbLine
 10
-6.197597471245069
 20
-105.3943059164065
 30
0.0
 11
3.802402528754925
 21
-105.3943059164065
 31
0.0
  0
LINE
  5
1BF
330
A
100
AcDbEntity
  8
0
  6
Continuous
 62
     7
100
AcDbLine
 10
-16.19759747124506
 20
-105.3943059164065
 30
0.0
 11
-6.197597471245069
 21
-105.3943059164065
 31
0.0
  0
LINE
  5
1C0
330
A
100
AcDbEntity
  8
0
  6
Continuous
 62
     7
100
AcDbLine
 10
163.85
 20
-105.3943059164065
 30
0.0
 11
173.85
 21
-105.3943059164065
 31
0.0
  0
LINE
  5
1C1
330
A
100
AcDbEntity
  8
0
  6
Continuous
 62
     7
100
AcDbLine
 10
153.85
 20
-105.3943059164065
 30
0.0
 11
163.85
 21
-105.3943059164065
 31
0.0
  0
LINE
  5
1C2
330
A
100
AcDbEntity
  8
0
  6
Continuous
 62
     7
100
AcDbLine
 10
69.84999999999999
 20
-51.39430591640653
 30
0.0
 11
82.73057611510195
 21
-51.39430591640653
 31
0.0
  0
LINE
  5
1C3
330
A
100
AcDbEntity
  8
0
  6
Continuous
 62
     7
100
AcDbLine
 10
56.96942388489805
 20
-51.39430591640653
 30
0.0
 11
69.84999999999999
 21
-51.39430591640653
 31
0.0
  0
LINE
  5
1C4
330
A
100
AcDbEntity
  8
0
  6
PHANTOM
 62
     7
100
AcDbLine
 10
64.95102053484612
 20
306.044668530085
 30
0.0
 11
64.95102053484612
 21
266.6101764844163
 31
0.0
  0
LINE
  5
1C5
330
A
100
AcDbEntity
  8
0
  6
PHANTOM
 62
     7
100
AcDbLine
 10
64.95102053484612
 20
236.3080802579209
 30
0.0
 11
64.95102053484612
 21
34.34616108359345
 31
0.0
  0
LINE
  5
1C6
330
A
100
AcDbEntity
  8
0
  6
PHANTOM
 62
     7
100
AcDbLine
 10
74.74897946515399
 20
306.0450142135884
 30
0.0
 11
74.74897946515399
 21
266.6101764842915
 31
0.0
  0
LINE
  5
1C7
330
A
100
AcDbEntity
  8
0
  6
PHANTOM
 62
     7
100
AcDbLine
 10
74.74897946515399
 20
236.349814627647
 30
0.0
 11
74.74897946515399
 21
34.34616108359345
 31
0.0
  0
LINE
  5
1C8
330
A
100
AcDbEntity
  8
0
  6
PHANTOM
 62
     7
100
AcDbLine
 10
62.99142874878445
 20
306.094599818022
 30
0.0
 11
62.99142874878445
 21
289.5176792987933
 31
0.0
  0
LINE
  5
1C9
330
A
100
AcDbEntity
  8
0
  6
PHANTOM
 62
     7
100
AcDbLine
 10
62.99142874878445
 20
254.319789306427
 30
0.0
 11
62.99142874878445
 21
34.34616108359256
 31
0.0
  0
LINE
  5
1CA
330
A
100
AcDbEntity
  8
0
  6
PHANTOM
 62
     7
100
AcDbLine
 10
76.70857125121547
 20
306.1031650071422
 30
0.0
 11
76.70857125121547
 21
289.5176792986686
 31
0.0
  0
LINE
  5
1CB
330
A
100
AcDbEntity
  8
0
  6
PHANTOM
 62
     7
100
AcDbLine
 10
76.70857125121547
 20
254.3197893062984
 30
0.0
 11
76.70857125121547
 21
34.34616108359256
 31
0.0
  0
LINE
  5
1CC
330
A
100
AcDbEntity
  8
0
  6
PHANTOM
 62
     7
100
AcDbLine
 10
64.44999499999973
 20
-25.77551152082636
 30
0.0
 11
75.25000500000025
 21
-25.77551152082636
 31
0.0
  0
LWPOLYLINE
  5
1CD
330
A
100
AcDbEntity
  8
0
  6
PHANTOM
 62
     7
100
AcDbPolyline
 90
       44
 70
   128
 43
0.0
 10
69.85000000000657
 20
366.0312743902584
 10
64.81302815208149
 20
365.9583290517738
 10
59.80059592468485
 20
365.7398484186767
 10
54.83712338378062
 20
365.3768969066498
 10
49.94679206866155
 20
364.871242778976
 10
45.15342718192054
 20
364.2253495317373
 10
40.48038151545841
 20
363.442363891909
 10
35.95042167802929
 20
362.5261004868232
 10
31.58561717861112
 20
361.4810232596868
 10
27.40723290597649
 20
360.3122237216997
 10
23.43562552829195
 20
359.0253961467236
 10
19.69014431747698
 20
357.6268098293524
 10
16.18903688149623
 20
356.1232785415389
 10
12.9493602638477
 20
354.5221273365829
 10
9.98689784336145
 20
352.8311568622076
 10
7.316082439164387
 20
351.0586053565888
 10
4.949925995436324
 20
349.2131085124853
 10
2.899956188525898
 20
347.3036574050129
 10
1.17616026527012
 20
345.3395546880301
 10
-0.2130636138682335
 20
343.3303692725428
 10
-1.260947289794325
 20
341.2858897079328
 10
-1.962385578571937
 20
339.2160764931285
 10
-2.31396114336646
 20
337.1310135500555
 10
-2.313961143366502
 20
335.0408590957828
 10
-1.962385578572006
 20
332.9557961527099
 10
-1.260947289794464
 20
330.8859829379056
 10
-0.2130636138684277
 20
328.8415033732956
 10
1.176160265269885
 20
326.8323179578083
 10
2.899956188525579
 20
324.8682152408254
 10
4.949925995435963
 20
322.9587641333531
 10
7.31608243916397
 20
321.1132672892496
 10
9.986897843361001
 20
319.3407157836307
 10
12.9493602638472
 20
317.6497453092555
 10
16.18903688149567
 20
316.0485941042995
 10
19.69014431747637
 20
314.545062816486
 10
23.43562552829129
 20
313.1464764991148
 10
27.40723290597581
 20
311.8596489241387
 10
31.58561717861041
 20
310.6908493861517
 10
35.95042167802854
 20
309.6457721590153
 10
40.48038151545764
 20
308.7295087539295
 10
45.15342718191974
 20
307.9465231141012
 10
49.94679206866074
 20
307.3006298668625
 10
54.83712338377978
 20
306.7949757391888
 10
58.52679466276775
 20
306.5110766031232
  0
LWPOLYLINE
  5
1FB
330
A
100
AcDbEntity
  8
0
  6
PHANTOM
 62
     7
100
AcDbPolyline
 90
        5
 70
   128
 43
0.0
 10
61.55247435411811
 20
306.3389642623453
 10
64.81302815208062
 20
306.2135435940647
 10
69.85000000000567
 20
306.1405982555801
 10
74.88697184793075
 20
306.2135435940648
 10
78.1475256458923
 20
306.3389642623453
  0
LWPOLYLINE
  5
202
330
A
100
AcDbEntity
  8
0
  6
PHANTOM
 62
     7
100
AcDbPolyline
 90
       44
 70
   128
 43
0.0
 10
81.17320533724267
 20
306.5110766031232
 10
84.8628766162316
 20
306.7949757391888
 10
89.75320793135063
 20
307.3006298668626
 10
94.54657281809165
 20
307.9465231141014
 10
99.21961848455374
 20
308.7295087539297
 10
103.7495783219828
 20
309.6457721590155
 10
108.114382821401
 20
310.6908493861519
 10
112.2927670940356
 20
311.8596489241391
 10
116.2643744717201
 20
313.1464764991151
 10
120.009855682535
 20
314.5450628164863
 10
123.5109631185157
 20
316.0485941042999
 10
126.7506397361642
 20
317.6497453092559
 10
129.7131021566505
 20
319.340715783631
 10
132.3839175608475
 20
321.11326728925
 10
134.7500740045755
 20
322.9587641333534
 10
136.8000438114859
 20
324.8682152408258
 10
138.5238397347416
 20
326.8323179578087
 10
139.91306361388
 20
328.841503373296
 10
140.960947289806
 20
330.885982937906
 10
141.6623855785836
 20
332.9557961527103
 10
142.0139611433781
 20
335.0408590957832
 10
142.0139611433781
 20
337.131013550056
 10
141.6623855785836
 20
339.2160764931289
 10
140.960947289806
 20
341.2858897079332
 10
139.9130636138799
 20
343.3303692725432
 10
138.5238397347416
 20
345.3395546880304
 10
136.8000438114858
 20
347.3036574050133
 10
134.7500740045754
 20
349.2131085124857
 10
132.3839175608474
 20
351.0586053565891
 10
129.7131021566503
 20
352.831156862208
 10
126.7506397361641
 20
354.5221273365831
 10
123.5109631185156
 20
356.1232785415392
 10
120.0098556825349
 20
357.6268098293526
 10
116.26437447172
 20
359.0253961467238
 10
112.2927670940354
 20
360.3122237216999
 10
108.1143828214008
 20
361.481023259687
 10
103.7495783219827
 20
362.5261004868233
 10
99.21961848455358
 20
363.4423638919091
 10
94.54657281809147
 20
364.2253495317373
 10
89.75320793135049
 20
364.871242778976
 10
84.86287661623144
 20
365.3768969066498
 10
79.89940407532724
 20
365.7398484186766
 10
74.88697184793062
 20
365.9583290517738
 10
69.85000000000657
 20
366.0312743902584
  0
LWPOLYLINE
  5
230
330
A
100
AcDbEntity
  8
0
  6
PHANTOM
 62
     7
100
AcDbPolyline
 90
       24
 70
   128
 43
0.0
 10
69.85000000000657
 20
368.680601354189
 10
74.96969127535905
 20
368.6072734870501
 10
80.06498489028984
 20
368.3876393263138
 10
85.1115994503398
 20
368.0227455287767
 10
90.0854855389146
 20
367.5143309795559
 10
94.96294032370689
 20
366.864818505509
 10
99.72072051148636
 20
366.0773033293615
 10
104.336153112977
 20
365.1555383195599
 10
108.7872434899763
 20
364.1039161061454
 10
113.0527801698224
 20
362.9274481478713
 10
117.112435927721
 20
361.6317408503192
 10
120.9468646552286
 20
360.2229688488236
 10
124.5377935532694
 20
358.7078455835232
 10
127.8681102103442
 20
357.0935913067604
 10
130.9219441509642
 20
355.3878986752913
 10
133.6847424656937
 20
353.598896091273
 10
136.1433391623919
 20
351.7351089667258
 10
138.2860179081601
 20
349.805419096062
 10
140.1025678630041
 20
347.8190223302914
 10
141.5843323391368
 20
345.785384754603
 10
142.7242500540376
 20
343.7141975781583
 10
143.5168887806793
 20
341.6153309510668
 10
143.9584712345637
 20
339.498786928625
 10
144.0540970606111
 20
338.2193727668057
  0
LWPOLYLINE
  5
24A
330
A
100
AcDbEntity
  8
0
  6
PHANTOM
 62
     7
100
AcDbPolyline
 90
       24
 70
   128
 43
0.0
 10
-4.357948274461592
 20
337.9058438452801
 10
-4.258471234551683
 20
339.4987869286254
 10
-3.816888780667077
 20
341.6153309510672
 10
-3.024250054025234
 20
343.7141975781588
 10
-1.884332339124286
 20
345.7853847546033
 10
-0.4025678629913932
 20
347.8190223302918
 10
1.413982091852755
 20
349.8054190960624
 10
3.556660837621059
 20
351.7351089667261
 10
6.015257534319376
 20
353.5988960912733
 10
8.778055849049129
 20
355.3878986752916
 10
11.83188978966916
 20
357.0935913067607
 10
15.16220644674409
 20
358.7078455835234
 10
18.75313534478503
 20
360.2229688488238
 10
22.58756407229277
 20
361.6317408503193
 10
26.64721983019146
 20
362.9274481478714
 10
30.91275651003758
 20
364.1039161061456
 10
35.36384688703696
 20
365.1555383195599
 10
39.97927948852769
 20
366.0773033293615
 10
44.73705967630722
 20
366.8648185055091
 10
49.61451446109953
 20
367.5143309795559
 10
54.58840054967435
 20
368.0227455287767
 10
59.63501510972431
 20
368.3876393263137
 10
64.73030872465511
 20
368.60727348705
 10
69.85000000000657
 20
368.680601354189
  0
LWPOLYLINE
  5
264
330
A
100
AcDbEntity
  8
0
  6
PHANTOM
 62
     7
100
AcDbPolyline
 90
       24
 70
   128
 43
0.0
 10
69.85000000000657
 20
368.9531923946248
 10
64.73030872465407
 20
368.879864527486
 10
59.63501510972327
 20
368.6602303667497
 10
54.58840054967328
 20
368.2953365692126
 10
49.61451446109844
 20
367.7869220199917
 10
44.73705967630611
 20
367.1374095459449
 10
39.97927948852659
 20
366.3498943697974
 10
35.36384688703585
 20
365.4281293599958
 10
30.91275651003648
 20
364.3765071465813
 10
26.64721983019036
 20
363.2000391883072
 10
22.58756407229169
 20
361.904331890755
 10
18.75313534478397
 20
360.4955598892595
 10
15.16220644674306
 20
358.9804366239591
 10
11.83188978966818
 20
357.3661823471962
 10
8.778055849048186
 20
355.6604897157272
 10
6.015257534318488
 20
353.8714871317089
 10
3.55666083762024
 20
352.0077000071617
 10
1.413982091851992
 20
350.0780101364979
 10
-0.4025678629921009
 20
348.0916133707273
 10
-1.884332339124925
 20
346.0579757950389
 10
-3.024250054025789
 20
343.9867886185942
 10
-3.816888780667576
 20
341.8879219915027
 10
-4.258471234552113
 20
339.7713779690608
 10
-4.357948274461592
 20
338.178434885716
  0
LWPOLYLINE
  5
27E
330
A
100
AcDbEntity
  8
0
  6
PHANTOM
 62
     7
100
AcDbPolyline
 90
       24
 70
   128
 43
0.0
 10
144.0579482744733
 20
338.1784348857167
 10
143.9584712345637
 20
339.7713779690612
 10
143.5168887806792
 20
341.8879219915031
 10
142.7242500540374
 20
343.9867886185947
 10
141.5843323391366
 20
346.0579757950392
 10
140.1025678630038
 20
348.0916133707276
 10
138.2860179081597
 20
350.0780101364983
 10
136.1433391623915
 20
352.007700007162
 10
133.6847424656932
 20
353.8714871317091
 10
130.9219441509636
 20
355.6604897157275
 10
127.8681102103436
 20
357.3661823471965
 10
124.5377935532687
 20
358.9804366239593
 10
120.9468646552279
 20
360.4955598892597
 10
117.1124359277202
 20
361.9043318907551
 10
113.0527801698215
 20
363.2000391883073
 10
108.7872434899754
 20
364.3765071465815
 10
104.3361531129761
 20
365.4281293599958
 10
99.72072051148543
 20
366.3498943697974
 10
94.96294032370592
 20
367.137409545945
 10
90.08548553891364
 20
367.7869220199917
 10
85.11159945033881
 20
368.2953365692126
 10
80.06498489028887
 20
368.6602303667495
 10
74.96969127535807
 20
368.8798645274859
 10
69.85000000000657
 20
368.9531923946248
  0
LWPOLYLINE
  5
298
330
A
100
AcDbEntity
  8
0
  6
PHANTOM
 62
     7
100
AcDbPolyline
 90
       29
 70
   128
 43
0.0
 10
104.0732314005817
 20
417.3316156048218
 10
103.7651097178946
 20
417.8666859804605
 10
102.7027199229812
 20
419.2709267227161
 10
101.303216764825
 20
420.6233896790769
 10
99.58096103965893
 20
421.9101967494367
 10
97.5536254218076
 20
423.118143551925
 10
95.2420131181336
 20
424.234834917735
 10
92.66984439898385
 20
425.2488120823289
 10
89.86351319611726
 20
426.1496702678674
 10
86.85181626524808
 20
426.9281654503112
 10
83.66565769236414
 20
427.5763092156159
 10
80.33773177598467
 20
428.0874507316709
 10
76.90218753941502
 20
428.4563449948367
 10
73.39427831555652
 20
428.6792066507793
 10
69.8500000000056
 20
428.7537488373287
 10
66.30572168445468
 20
428.6792066507792
 10
62.79781246059618
 20
428.4563449948366
 10
59.36226822402652
 20
428.0874507316709
 10
56.03434230764704
 20
427.5763092156158
 10
52.84818373476309
 20
426.928165450311
 10
49.8364868038939
 20
426.1496702678672
 10
47.03015560102729
 20
425.2488120823287
 10
44.45798688187752
 20
424.2348349177349
 10
42.14637457820351
 20
423.1181435519247
 10
40.11903896035218
 20
421.9101967494365
 10
38.3967832351861
 20
420.6233896790768
 10
36.99728007702984
 20
419.2709267227158
 10
35.93489028211645
 20
417.8666859804605
 10
35.69193055019723
 20
417.4526002773242
  0
LWPOLYLINE
  5
2B7
330
A
100
AcDbEntity
  8
0
  6
PHANTOM
 62
     7
100
AcDbPolyline
 90
        6
 70
   128
 43
0.0
 10
73.83791388522569
 20
238.9801813289699
 10
74.41020460031534
 20
238.8924315794642
 10
74.89536924186082
 20
238.7237659970589
 10
75.21954589121531
 20
238.499862387718
 10
75.33338159218319
 20
238.2548080462723
 10
75.33245749436152
 20
238.2331073971771
  0
LWPOLYLINE
  5
2BF
330
A
100
AcDbEntity
  8
0
  6
PHANTOM
 62
     7
100
AcDbPolyline
 90
        5
 70
   128
 43
0.0
 10
72.34464442996055
 20
238.5004657974518
 10
72.45628187923606
 20
238.6959558273865
 10
72.78045852859055
 20
238.8738494181721
 10
73.26562317013605
 20
238.9736561416672
 10
73.83791388522569
 20
238.9801813289699
  0
LWPOLYLINE
  5
2C6
330
A
100
AcDbEntity
  8
0
  6
PHANTOM
 62
     7
100
AcDbPolyline
 90
        6
 70
   128
 43
0.0
 10
65.86208611478544
 20
238.9801813289694
 10
65.28979539969579
 20
238.8924315794636
 10
64.8046307581503
 20
238.7237659970584
 10
64.48045410879581
 20
238.4998623877175
 10
64.36661840782793
 20
238.2548080462718
 10
64.36754242964692
 20
238.2331082866095
  0
LWPOLYLINE
  5
2CE
330
A
100
AcDbEntity
  8
0
  6
PHANTOM
 62
     7
100
AcDbPolyline
 90
        5
 70
   128
 43
0.0
 10
67.35660146278192
 20
238.4890869203658
 10
67.24371812077506
 20
238.6959558273861
 10
66.91954147142059
 20
238.8738494181717
 10
66.43437682987507
 20
238.9736561416668
 10
65.86208611478544
 20
238.9801813289694
  0
LINE
  5
2D5
330
A
100
AcDbEntity
  8
0
  6
PHANTOM
 62
     7
100
AcDbLine
 10
69.84999999999999
 20
-101.8943059164065
 30
0.0
 11
184.85
 21
-101.8943059164065
 31
0.0
  0
LINE
  5
2D6
330
A
100
AcDbEntity
  8
0
  6
PHANTOM
 62
     7
100
AcDbLine
 10
-45.15000000000001
 20
-101.8943059164065
 30
0.0
 11
69.84999999999999
 21
-101.8943059164065
 31
0.0
  0
LINE
  5
2D7
330
A
100
AcDbEntity
  8
0
  6
PHANTOM
 62
     7
100
AcDbLine
 10
69.84999999999999
 20
-92.89430591640652
 30
0.0
 11
-45.15000000000001
 21
-92.89430591640652
 31
0.0
  0
LINE
  5
2D8
330
A
100
AcDbEntity
  8
0
  6
PHANTOM
 62
     7
100
AcDbLine
 10
184.85
 20
-92.89430591640652
 30
0.0
 11
69.84999999999999
 21
-92.89430591640652
 31
0.0
  0
LINE
  5
2D9
330
A
100
AcDbEntity
  8
0
  6
PHANTOM
 62
     7
100
AcDbLine
 10
69.84999999999999
 20
-89.7037266890055
 30
0.0
 11
89.5852623579123
 21
-89.7037266890055
 31
0.0
  0
LINE
  5
2DA
330
A
100
AcDbEntity
  8
0
  6
PHANTOM
 62
     7
100
AcDbLine
 10
50.11473764208769
 20
-89.7037266890055
 30
0.0
 11
69.84999999999999
 21
-89.7037266890055
 31
0.0
  0
LINE
  5
2DB
330
A
100
AcDbEntity
  8
0
  6
PHANTOM
 62
     7
100
AcDbLine
 10
83.71853598087133
 20
-52.23959553010707
 30
0.0
 11
55.98146401912866
 21
-52.23959553010707
 31
0.0
  0
LINE
  5
2DC
330
A
100
AcDbEntity
  8
0
  6
Continuous
 62
     7
100
AcDbLine
 10
70.6000000000038
 20
-807.1031151729327
 30
0.0
 11
70.60000000000002
 21
-446.1947538600578
 31
0.0
  0
LINE
  5
2DD
330
A
100
AcDbEntity
  8
0
  6
Continuous
 62
     7
100
AcDbLine
 10
69.10000000000001
 20
-446.1482035769095
 30
0.0
 11
69.1000000000038
 21
-807.0998355724235
 31
0.0
  0
LINE
  5
2DE
330
A
100
AcDbEntity
  8
0
  6
Continuous
 62
     7
100
AcDbLine
 10
67.85000000000005
 20
-448.9009089014841
 30
0.0
 11
69.10000000000003
 21
-448.9009089014841
 31
0.0
  0
LINE
  5
2DF
330
A
100
AcDbEntity
  8
0
  6
Continuous
 62
     7
100
AcDbLine
 10
70.60000000000005
 20
-448.9009089014841
 30
0.0
 11
71.85000000000004
 21
-448.9009089014839
 31
0.0
  0
LWPOLYLINE
  5
2E0
330
A
100
AcDbEntity
  8
0
  6
Continuous
 62
     7
100
AcDbPolyline
 90
        9
 70
   128
 43
0.0
 10
74.12644858940466
 20
-428.9494344570838
 10
73.49470654632864
 20
-428.3822976335613
 10
72.47174428381679
 20
-427.7773325192108
 10
71.28734457543746
 20
-427.3818820428809
 10
69.99215779562222
 20
-427.2250042853726
 10
68.66518351009597
 20
-427.3304322302055
 10
67.37853706879189
 20
-427.7115503644359
 10
66.32141098897278
 20
-428.2973033006875
 10
65.57355141059504
 20
-428.949434457084
  0
LINE
  5
2EB
330
A
100
AcDbEntity
  8
0
  6
Continuous
 62
     7
100
AcDbLine
 10
59.8500000000001
 20
-455.920848977113
 30
0.0
 11
54.8500000000001
 21
-455.9208489771116
 31
0.0
  0
LINE
  5
2EC
330
A
100
AcDbEntity
  8
0
  6
Continuous
 62
     7
100
AcDbLine
 10
54.85000000000038
 20
-481.9208189771116
 30
0.0
 11
59.85000000000038
 21
-481.920818977113
 31
0.0
  0
LINE
  5
2ED
330
A
100
AcDbEntity
  8
0
  6
Continuous
 62
     7
100
AcDbLine
 10
69.10000000000376
 20
-803.420859977113
 30
0.0
 11
64.85000000000375
 21
-803.420859977113
 31
0.0
  0
LINE
  5
2EE
330
A
100
AcDbEntity
  8
0
  6
Continuous
 62
     7
100
AcDbLine
 10
74.85000000000376
 20
-803.4208599771128
 30
0.0
 11
70.60000000000377
 21
-803.420859977113
 31
0.0
  0
LINE
  5
2EF
330
A
100
AcDbEntity
  8
0
  6
Continuous
 62
     7
100
AcDbLine
 10
69.9897651537139
 20
-817.4208819771127
 30
0.0
 11
74.8500000000039
 21
-817.4208819771127
 31
0.0
  0
LINE
  5
2F0
330
A
100
AcDbEntity
  8
0
  6
Continuous
 62
     7
100
AcDbLine
 10
64.8500000000039
 20
-817.4208819771129
 30
0.0
 11
69.9897651537139
 21
-817.4208819771127
 31
0.0
  0
LINE
  5
2F1
330
A
100
AcDbEntity
  8
0
  6
Continuous
 62
     7
100
AcDbLine
 10
77.85000000000015
 20
-458.9208339771127
 30
0.0
 11
74.35000000000016
 21
-458.9208339771127
 31
0.0
  0
LINE
  5
2F2
330
A
100
AcDbEntity
  8
0
  6
Continuous
 62
     7
100
AcDbLine
 10
65.35000000000017
 20
-458.9208339771129
 30
0.0
 11
61.85000000000016
 21
-458.9208339771129
 31
0.0
  0
LINE
  5
2F3
330
A
100
AcDbEntity
  8
0
  6
Continuous
 62
     7
100
AcDbLine
 10
61.85000000000037
 20
-478.9208339771129
 30
0.0
 11
69.10000000000035
 21
-478.9208339771128
 31
0.0
  0
LINE
  5
2F4
330
A
100
AcDbEntity
  8
0
  6
Continuous
 62
     7
100
AcDbLine
 10
70.60000000000036
 20
-478.9208339771128
 30
0.0
 11
77.85000000000036
 21
-478.9208339771114
 31
0.0
  0
LINE
  5
2F5
330
A
100
AcDbEntity
  8
0
  6
Continuous
 62
     7
100
AcDbLine
 10
62.85000000000074
 20
-515.4208429771127
 30
0.0
 11
62.85000000000373
 21
-800.4208729771129
 31
0.0
  0
LINE
  5
2F6
330
A
100
AcDbEntity
  8
0
  6
Continuous
 62
     7
100
AcDbLine
 10
76.85000000000373
 20
-800.4208729771127
 30
0.0
 11
76.85000000000075
 21
-515.4208429771125
 31
0.0
  0
LINE
  5
2F7
330
A
100
AcDbEntity
  8
0
  6
Continuous
 62
     7
100
AcDbLine
 10
75.25000450000071
 20
-515.4208429771125
 30
0.0
 11
75.25000450000035
 21
-480.4208429771127
 31
0.0
  0
LINE
  5
2F8
330
A
100
AcDbEntity
  8
0
  6
Continuous
 62
     7
100
AcDbLine
 10
64.4499955000004
 20
-480.4208429771131
 30
0.0
 11
64.44999550000075
 21
-515.4208429771127
 31
0.0
  0
LINE
  5
2F9
330
A
100
AcDbEntity
  8
0
  6
Continuous
 62
     7
100
AcDbLine
 10
65.35000200000388
 20
-817.4208819771129
 30
0.0
 11
65.35000200000395
 21
-824.2291756252575
 31
0.0
  0
LINE
  5
2FA
330
A
100
AcDbEntity
  8
0
  6
Continuous
 62
     7
100
AcDbLine
 10
65.35000200000371
 20
-800.4208729771129
 30
0.0
 11
65.35000200000374
 21
-803.420859977113
 31
0.0
  0
LINE
  5
2FB
330
A
100
AcDbEntity
  8
0
  6
Continuous
 62
     7
100
AcDbLine
 10
74.34999800000378
 20
-803.420859977113
 30
0.0
 11
74.34999800000375
 21
-800.4208729771127
 31
0.0
  0
LINE
  5
2FC
330
A
100
AcDbEntity
  8
0
  6
Continuous
 62
     7
100
AcDbLine
 10
74.34999800000399
 20
-824.2214422940978
 30
0.0
 11
74.3499980000039
 21
-817.4208819771129
 31
0.0
  0
LINE
  5
2FD
330
A
100
AcDbEntity
  8
0
  6
Continuous
 62
     7
100
AcDbLine
 10
61.85000000000023
 20
-465.770828977113
 30
0.0
 11
59.8500000000002
 21
-465.770828977113
 31
0.0
  0
LINE
  5
2FE
330
A
100
AcDbEntity
  8
0
  6
Continuous
 62
     7
100
AcDbLine
 10
59.85000000000027
 20
-472.0708749771127
 30
0.0
 11
61.8500000000003
 21
-472.0708749771127
 31
0.0
  0
LINE
  5
2FF
330
A
100
AcDbEntity
  8
0
  6
Continuous
 62
     7
100
AcDbLine
 10
74.3499999999998
 20
-425.5051056289716
 30
0.0
 11
65.34999999999979
 21
-425.5051056289719
 31
0.0
  0
LINE
  5
300
330
A
100
AcDbEntity
  8
0
  6
Continuous
 62
     7
100
AcDbLine
 10
65.34999999999978
 20
-426.020886977113
 30
0.0
 11
64.34999999999978
 21
-426.020886977113
 31
0.0
  0
LINE
  5
301
330
A
100
AcDbEntity
  8
0
  6
Continuous
 62
     7
100
AcDbLine
 10
64.34999999999994
 20
-440.0208729771129
 30
0.0
 11
65.34999999999993
 21
-440.0208729771129
 31
0.0
  0
LINE
  5
302
330
A
100
AcDbEntity
  8
0
  6
Continuous
 62
     7
100
AcDbLine
 10
69.09999999999969
 20
-406.5003453105801
 30
0.0
 11
69.09999999999989
 21
-425.5051056289719
 31
0.0
  0
LINE
  5
303
330
A
100
AcDbEntity
  8
0
  6
Continuous
 62
     7
100
AcDbLine
 10
70.59999999999971
 20
-425.5051056289718
 30
0.0
 11
70.59999999999951
 21
-406.5005765618399
 31
0.0
  0
LWPOLYLINE
  5
304
330
A
100
AcDbEntity
  8
0
  6
Continuous
 62
     7
100
AcDbPolyline
 90
        8
 70
   128
 43
0.0
 10
75.22609306844628
 20
-402.1303830401647
 10
75.13328629625651
 20
-401.214070093303
 10
74.73320522441266
 20
-400.2022265046266
 10
74.09213996314676
 20
-399.3270630078515
 10
73.23492465189733
 20
-398.6024864138428
 10
72.18023586364586
 20
-398.0524593969574
 10
70.96591529821721
 20
-397.7137201856932
 10
69.84999999999951
 20
-397.6182965750203
  0
LWPOLYLINE
  5
30E
330
A
100
AcDbEntity
  8
0
  6
Continuous
 62
     7
100
AcDbPolyline
 90
        8
 70
   128
 43
0.0
 10
69.84999999999951
 20
-397.6182965750203
 10
69.05327723707099
 20
-397.6666561944568
 10
67.75341284631988
 20
-397.9659240556967
 10
66.54501272298377
 20
-398.5500150949548
 10
65.64779157426166
 20
-399.2849697796541
 10
64.98479261185614
 20
-400.1702107811408
 10
64.57979134353109
 20
-401.1627091153568
 10
64.47630504340484
 20
-402.11089443662
  0
LINE
  5
318
330
A
100
AcDbEntity
  8
0
  6
Continuous
 62
     7
100
AcDbLine
 10
64.44999499999932
 20
-408.3531093476342
 30
0.0
 11
64.44999499999949
 21
-426.020886977113
 31
0.0
  0
LINE
  5
319
330
A
100
AcDbEntity
  8
0
  6
Continuous
 62
     7
100
AcDbLine
 10
64.44999499999925
 20
-402.1684414993973
 30
0.0
 11
64.44999499999926
 21
-403.760406709076
 31
0.0
  0
LINE
  5
31A
330
A
100
AcDbEntity
  8
0
  6
Continuous
 62
     7
100
AcDbLine
 10
75.25000499999989
 20
-403.7598582840306
 30
0.0
 11
75.25000499999987
 21
-402.1684414993971
 31
0.0
  0
LINE
  5
31B
330
A
100
AcDbEntity
  8
0
  6
Continuous
 62
     7
100
AcDbLine
 10
75.25000500000017
 20
-432.2526448763553
 30
0.0
 11
75.25000499999993
 21
-408.3525633245518
 31
0.0
  0
LINE
  5
31C
330
A
100
AcDbEntity
  8
0
  6
Continuous
 62
     7
100
AcDbLine
 10
67.84999999999972
 20
-419.2308499771139
 30
0.0
 11
69.09999999999982
 21
-419.2308499771139
 31
0.0
  0
LINE
  5
31D
330
A
100
AcDbEntity
  8
0
  6
Continuous
 62
     7
100
AcDbLine
 10
70.59999999999965
 20
-419.2308499771138
 30
0.0
 11
71.84999999999973
 21
-419.2308499771139
 31
0.0
  0
LINE
  5
31E
330
A
100
AcDbEntity
  8
0
  6
Continuous
 62
     7
100
AcDbLine
 10
74.6818298198759
 20
-409.2008309771138
 30
0.0
 11
74.84999999999963
 21
-409.200830977114
 31
0.0
  0
LINE
  5
31F
330
A
100
AcDbEntity
  8
0
  6
Continuous
 62
     7
100
AcDbLine
 10
59.84999999999981
 20
-426.2609159771137
 30
0.0
 11
54.84999999999981
 21
-426.260915977114
 31
0.0
  0
LINE
  5
320
330
A
100
AcDbEntity
  8
0
  6
Continuous
 62
     7
100
AcDbLine
 10
54.8500000000001
 20
-452.260885977114
 30
0.0
 11
59.8500000000001
 21
-452.2608859771124
 31
0.0
  0
LINE
  5
321
330
A
100
AcDbEntity
  8
0
  6
Continuous
 62
     7
100
AcDbLine
 10
77.84999999999985
 20
-429.2609009771123
 30
0.0
 11
75.25000500000015
 21
-429.2609009771123
 31
0.0
  0
LINE
  5
322
330
A
100
AcDbEntity
  8
0
  6
Continuous
 62
     7
100
AcDbLine
 10
64.3499999999998
 20
-429.2609009771124
 30
0.0
 11
61.84999999999985
 21
-429.2609009771124
 31
0.0
  0
LINE
  5
323
330
A
100
AcDbEntity
  8
0
  6
Continuous
 62
     7
100
AcDbLine
 10
61.85000000000005
 20
-449.2609009771125
 30
0.0
 11
64.74690594177485
 21
-449.2609009771124
 31
0.0
  0
LINE
  5
324
330
A
100
AcDbEntity
  8
0
  6
Continuous
 62
     7
100
AcDbLine
 10
74.95309405822553
 20
-449.2609009771123
 30
0.0
 11
77.85000000000005
 21
-449.2609009771122
 31
0.0
  0
LINE
  5
325
330
A
100
AcDbEntity
  8
0
  6
Continuous
 62
     7
100
AcDbLine
 10
61.84999999999991
 20
-436.0108829771125
 30
0.0
 11
59.84999999999992
 21
-436.0108829771125
 31
0.0
  0
LINE
  5
326
330
A
100
AcDbEntity
  8
0
  6
Continuous
 62
     7
100
AcDbLine
 10
59.84999999999999
 20
-442.5108149771126
 30
0.0
 11
61.84999999999998
 21
-442.5108149771126
 31
0.0
  0
LINE
  5
327
330
A
100
AcDbEntity
  8
0
  6
Continuous
 62
     7
100
AcDbLine
 10
70.21950595943064
 20
-938.398167240348
 30
0.0
 11
70.19320442626585
 21
-938.3979327684279
 31
0.0
  0
LINE
  5
328
330
A
100
AcDbEntity
  8
0
  6
Continuous
 62
     7
100
AcDbLine
 10
69.50679557374449
 20
-938.3979327684279
 30
0.0
 11
69.48057230719475
 21
-938.3981665426196
 31
0.0
  0
LWPOLYLINE
  5
329
330
A
100
AcDbEntity
  8
0
  6
Continuous
 62
     7
100
AcDbPolyline
 90
       22
 70
   128
 43
0.0
 10
82.31076527921763
 20
-971.464952202846
 10
82.30367092466172
 20
-972.4106291922105
 10
81.97542338014629
 20
-974.1661238789699
 10
81.33935856425116
 20
-975.8547671333273
 10
80.41208085898871
 20
-977.4317064294903
 10
79.21837679114758
 20
-978.8560098542385
 10
77.78964684315941
 20
-980.0917689067242
 10
76.16265426947315
 20
-981.1084828517676
 10
74.37864227211093
 20
-981.8813134181342
 10
72.4825406458048
 20
-982.3914781600825
 10
70.52203179134219
 20
-982.6267363130767
 10
68.54640329759433
 20
-982.5818116761031
 10
66.60527271462678
 20
-982.2586267735266
 10
64.74732599718925
 20
-981.6663357696066
 10
63.01849813584026
 20
-980.8208683543741
 10
61.46097261715464
 20
-979.7442385301923
 10
60.11218911622596
 20
-978.4635959000338
 10
59.00423772840545
 20
-977.0101521215504
 10
58.16367547359037
 20
-975.4182375428726
 10
57.61160200316362
 20
-973.7247985994644
 10
57.36356414504494
 20
-971.9694936740337
 10
57.36403174350436
 20
-971.9567686344676
  0
LWPOLYLINE
  5
341
330
A
100
AcDbEntity
  8
0
  6
Continuous
 62
     7
100
AcDbPolyline
 90
        4
 70
   128
 43
0.0
 10
43.3713924983561
 20
-944.6338693162493
 10
43.32842713716647
 20
-944.9056196335291
 10
43.27364138341005
 20
-945.0164273718758
 10
43.27968454623943
 20
-945.0100162596493
  0
LWPOLYLINE
  5
347
330
A
100
AcDbEntity
  8
0
  6
Continuous
 62
     7
100
AcDbPolyline
 90
        4
 70
   128
 43
0.0
 10
96.43504787831211
 20
-945.0150538762487
 10
96.44319449605898
 20
-945.0233545984435
 10
96.38233205233483
 20
-944.911320899282
 10
96.32046923079265
 20
-944.5999311487357
  0
LINE
  5
34D
330
A
100
AcDbEntity
  8
0
  6
Continuous
 62
     7
100
AcDbLine
 10
96.36979539418522
 20
-944.6168656179819
 30
0.0
 11
96.36979539418513
 21
-938.0147461405757
 31
0.0
  0
LINE
  5
34E
330
A
100
AcDbEntity
  8
0
  6
Continuous
 62
     7
100
AcDbLine
 10
43.33020460582519
 20
-938.0147461405764
 30
0.0
 11
43.33020460582526
 21
-944.6338648538944
 31
0.0
  0
LWPOLYLINE
  5
34F
330
A
100
AcDbEntity
  8
0
  6
Continuous
 62
     7
100
AcDbPolyline
 90
        8
 70
   128
 43
0.0
 10
44.12724385548733
 20
-937.0356583173373
 10
44.11364564834656
 20
-937.0382119337946
 10
44.01368172976426
 20
-937.0659849748317
 10
43.82084915657802
 20
-937.1540904563129
 10
43.61589083639239
 20
-937.3148628831875
 10
43.43177017606634
 20
-937.5756096611469
 10
43.33484420743331
 20
-937.918523624716
 10
43.34414785025055
 20
-938.0274329372902
  0
LWPOLYLINE
  5
359
330
A
100
AcDbEntity
  8
0
  6
Continuous
 62
     7
100
AcDbPolyline
 90
        9
 70
   128
 43
0.0
 10
96.35329555415973
 20
-938.0132647711791
 10
96.35165564912307
 20
-937.8251287589174
 10
96.23623899036786
 20
-937.5154372450753
 10
96.0728247427537
 20
-937.3035257494795
 10
95.89603400555015
 20
-937.1643140716848
 10
95.73326709321012
 20
-937.082990082494
 10
95.61723223070806
 20
-937.045612007226
 10
95.55153246398898
 20
-937.031081940605
 10
95.54531229266734
 20
-937.0300728487341
  0
LINE
  5
364
330
A
100
AcDbEntity
  8
0
  6
Continuous
 62
     7
100
AcDbLine
 10
94.36979539418478
 20
-900.4174318969171
 30
0.0
 11
94.36979539418475
 21
-897.868276069644
 31
0.0
  0
LINE
  5
365
330
A
100
AcDbEntity
  8
0
  6
Continuous
 62
     7
100
AcDbLine
 10
94.369795394185
 20
-917.873943553916
 30
0.0
 11
94.36979539418492
 21
-915.3136333932724
 31
0.0
  0
LINE
  5
366
330
A
100
AcDbEntity
  8
0
  6
Continuous
 62
     7
100
AcDbLine
 10
45.33020460582494
 20
-915.3186775407391
 30
0.0
 11
45.33020460582493
 21
-917.8739435539167
 31
0.0
  0
LINE
  5
367
330
A
100
AcDbEntity
  8
0
  6
Continuous
 62
     7
100
AcDbLine
 10
45.33020460582474
 20
-897.8682760696445
 30
0.0
 11
45.33020460582477
 21
-900.4180496690555
 31
0.0
  0
LWPOLYLINE
  5
368
330
A
100
AcDbEntity
  8
0
  6
Continuous
 62
     7
100
AcDbPolyline
 90
       17
 70
   128
 43
0.0
 10
91.34121628947134
 20
-865.9117277617445
 10
91.27261906888399
 20
-864.5241303165601
 10
90.89589083447867
 20
-862.8728812467008
 10
90.28876110308054
 20
-861.3924394422673
 10
89.50219643420968
 20
-860.0955453658384
 10
88.58404444307097
 20
-858.9898949974072
 10
87.58018195968507
 20
-858.0770143753971
 10
86.53490880886701
 20
-857.3519997318255
 10
85.49118885305118
 20
-856.8035802562929
 10
84.49105182662213
 20
-856.4143580558466
 10
83.57668101421598
 20
-856.1612865425123
 10
82.79561510251484
 20
-856.0168328915052
 10
82.22559245201074
 20
-855.9512252675871
 10
81.90233646468501
 20
-855.9285433935373
 10
81.74346397850866
 20
-855.9211373471852
 10
81.62616457449837
 20
-855.91716279219
 10
81.54497104496767
 20
-855.9152261079212
  0
LWPOLYLINE
  5
37B
330
A
100
AcDbEntity
  8
0
  6
Continuous
 62
     7
100
AcDbPolyline
 90
       16
 70
   128
 43
0.0
 10
58.15526531327563
 20
-855.9152718210382
 10
58.11597436140953
 20
-855.9160189771855
 10
57.97087341254968
 20
-855.9205857789779
 10
57.78339248567933
 20
-855.9293273071533
 10
57.41894064313666
 20
-855.9561640233731
 10
56.75285485387187
 20
-856.0398661235876
 10
55.21066856760126
 20
-856.4137929620832
 10
54.09015589138544
 20
-856.8581914225484
 10
52.69892611239879
 20
-857.6511103968927
 10
51.59228122005661
 20
-858.5256105590202
 10
50.53699982521067
 20
-859.6485703009246
 10
49.6326242273822
 20
-860.9800479453909
 10
48.93983968959655
 20
-862.4766626263657
 10
48.49842888902594
 20
-864.0883193382618
 10
48.33137316482138
 20
-865.7619749765828
 10
48.34359901064881
 20
-865.9267717732115
  0
LINE
  5
38D
330
A
100
AcDbEntity
  8
0
  6
Continuous
 62
     7
100
AcDbLine
 10
91.36979539418472
 20
-897.8682760696441
 30
0.0
 11
91.36979539333855
 21
-865.9148468619592
 31
0.0
  0
LINE
  5
38E
330
A
100
AcDbEntity
  8
0
  6
Continuous
 62
     7
100
AcDbLine
 10
48.33020461125581
 20
-865.9148483104059
 30
0.0
 11
48.33020460582479
 21
-897.8682760696445
 31
0.0
  0
LINE
  5
38F
330
A
100
AcDbEntity
  8
0
  6
Continuous
 62
     7
100
AcDbLine
 10
91.36979539418511
 20
-937.0147484477648
 30
0.0
 11
91.3697953941849
 21
-917.8991889786894
 31
0.0
  0
LINE
  5
390
330
A
100
AcDbEntity
  8
0
  6
Continuous
 62
     7
100
AcDbLine
 10
48.33020460582499
 20
-917.89918897869
 30
0.0
 11
48.33020460582519
 21
-937.0147484477653
 31
0.0
  0
LINE
  5
391
330
A
100
AcDbEntity
  8
0
  6
Continuous
 62
     7
100
AcDbLine
 10
94.36979010134953
 20
-915.3161529771125
 30
0.0
 11
103.8500000000054
 21
-915.3161529771125
 31
0.0
  0
LINE
  5
392
330
A
100
AcDbEntity
  8
0
  6
Continuous
 62
     7
100
AcDbLine
 10
98.85000000000477
 20
-900.3161529771125
 30
0.0
 11
94.36979539418478
 21
-900.3161529771126
 31
0.0
  0
LINE
  5
393
330
A
100
AcDbEntity
  8
0
  6
Continuous
 62
     7
100
AcDbLine
 10
103.8500000000053
 20
-900.3161529771125
 30
0.0
 11
102.8500000000047
 21
-900.3161529771125
 31
0.0
  0
LINE
  5
394
330
A
100
AcDbEntity
  8
0
  6
Continuous
 62
     7
100
AcDbLine
 10
35.85000000000544
 20
-915.3161529771132
 30
0.0
 11
45.33020989866041
 21
-915.3161529771132
 31
0.0
  0
LINE
  5
395
330
A
100
AcDbEntity
  8
0
  6
Continuous
 62
     7
100
AcDbLine
 10
36.85000000000478
 20
-900.3161529771132
 30
0.0
 11
35.8500000000053
 21
-900.3161529771132
 31
0.0
  0
LINE
  5
396
330
A
100
AcDbEntity
  8
0
  6
Continuous
 62
     7
100
AcDbLine
 10
45.33020460582477
 20
-900.3161529771132
 30
0.0
 11
40.85000000000476
 21
-900.3161529771132
 31
0.0
  0
LINE
  5
397
330
A
100
AcDbEntity
  8
0
  6
Continuous
 62
     7
100
AcDbLine
 10
77.59999811925315
 20
-855.9114047688321
 30
0.0
 11
77.59999811925306
 21
-846.9375193479766
 31
0.0
  0
LINE
  5
398
330
A
100
AcDbEntity
  8
0
  6
Continuous
 62
     7
100
AcDbLine
 10
62.10000188075538
 20
-846.937519347977
 30
0.0
 11
62.10000188075547
 21
-855.9114047688323
 31
0.0
  0
LWPOLYLINE
  5
399
330
A
100
AcDbEntity
  8
0
  6
Continuous
 62
     7
100
AcDbPolyline
 90
       14
 70
   128
 43
0.0
 10
138.7385121074673
 20
-979.8454504205187
 10
137.5238832685346
 20
-977.1505040977205
 10
135.394459760054
 20
-973.1832842615968
 10
132.9858878998414
 20
-969.3510423316096
 10
130.3083460779916
 20
-965.6700890223387
 10
127.3731652867352
 20
-962.1561124957743
 10
124.1927855764151
 20
-958.8241073223999
 10
120.7807058101447
 20
-955.6883055631814
 10
117.151426996863
 20
-952.7621109948606
 10
113.3203897332546
 20
-950.0580373573669
 10
109.3039064473465
 20
-947.5876513024282
 10
105.1190892110734
 20
-945.3615205072482
 10
100.7837738893543
 20
-943.3891672174789
 10
96.36979539418518
 20
-941.6994517886969
  0
LWPOLYLINE
  5
3A9
330
A
100
AcDbEntity
  8
0
  6
Continuous
 62
     7
100
AcDbPolyline
 90
       14
 70
   128
 43
0.0
 10
43.33020460582522
 20
-941.7205780362888
 10
39.65467796781612
 20
-943.0846841830478
 10
35.29400612188031
 20
-945.0146888444111
 10
31.08064683365979
 20
-947.200346914726
 10
27.03261509413715
 20
-949.6323470819305
 10
23.16722557698141
 20
-952.3003131952419
 10
19.50101519298966
 20
-955.1928463207675
 10
16.04966811174706
 20
-958.2975721849791
 10
12.82794383739516
 20
-961.6011941439662
 10
9.849609044928541
 20
-965.0895517243652
 10
7.127373987112147
 20
-968.7476846327868
 10
4.672834344772724
 20
-972.5599019245366
 10
2.496419386679257
 20
-976.5098557722195
 10
1.301394268982083
 20
-979.0850164052145
  0
LWPOLYLINE
  5
3B9
330
A
100
AcDbEntity
  8
0
  6
Continuous
 62
     7
100
AcDbPolyline
 90
       20
 70
   128
 43
0.0
 10
1.468088854980925
 20
-1031.28493406962
 10
1.948464240871084
 20
-1032.37403809737
 10
4.045028472575928
 20
-1036.355778262384
 10
6.421841188036167
 20
-1040.204462158413
 10
9.068859687245369
 20
-1043.903711768912
 10
11.97488406995856
 20
-1047.437763333196
 10
15.12760000134103
 20
-1050.79153856123
 10
18.51362819166537
 20
-1053.950713850868
 10
22.11858034431777
 20
-1056.901786474091
 10
25.92712106624817
 20
-1059.632136833135
 10
29.92303506221081
 20
-1062.130086082879
 10
34.08929884996886
 20
-1064.384948631064
 10
38.40815622576799
 20
-1066.387079230549
 10
42.8611967567404
 20
-1068.127914546605
 10
47.42943665661822
 20
-1069.60000920766
 10
52.09340149348093
 20
-1070.797066429963
 10
56.83321026835909
 20
-1071.713963351391
 10
61.62866048272221
 20
-1072.346771226014
 10
66.45931387642598
 20
-1072.692770628185
 10
69.85000000000657
 20
-1072.763466870019
  0
LWPOLYLINE
  5
3CF
330
A
100
AcDbEntity
  8
0
  6
Continuous
 62
     7
100
AcDbPolyline
 90
       20
 70
   128
 43
0.0
 10
69.85000000000657
 20
-1072.763466870019
 10
72.42487945933175
 20
-1072.722706433816
 10
77.25916195478411
 20
-1072.425231194385
 10
82.06262165774591
 20
-1071.84050286292
 10
86.81415977834488
 20
-1070.971000746999
 10
91.49350867610428
 20
-1069.820396839118
 10
96.08070025862343
 20
-1068.393561680096
 10
100.5561500481449
 20
-1066.696546217961
 10
104.9007405587113
 20
-1064.736559014751
 10
109.0959035538998
 20
-1062.521938720035
 10
113.1237009419841
 20
-1060.06212167252
 10
116.9669040076674
 20
-1057.367604459638
 10
120.6090705987258
 20
-1054.44990124814
 10
124.0346197837373
 20
-1051.321495707863
 10
127.2289033800406
 20
-1047.995787398711
 10
130.1782736323583
 20
-1044.4870325891
 10
132.8701462220713
 20
-1040.810279630129
 10
135.2930577311076
 20
-1036.981299221669
 10
137.4367167006109
 20
-1033.016510160519
 10
138.5851885634684
 20
-1030.488707766375
  0
LWPOLYLINE
  5
3E5
330
A
100
AcDbEntity
  8
0
  6
Continuous
 62
     7
100
AcDbPolyline
 90
        7
 70
   128
 43
0.0
 10
65.34999999999989
 20
-433.9530696351107
 10
65.48097320418574
 20
-433.3598378680862
 10
65.85516626598303
 20
-432.775129654618
 10
66.43282549785091
 20
-432.2476079055808
 10
67.16819305528402
 20
-431.8133668337475
 10
67.83927899999818
 20
-431.5526455029494
 10
67.84999999999986
 20
-431.549333710613
  0
LWPOLYLINE
  5
3EE
330
A
100
AcDbEntity
  8
0
  6
Continuous
 62
     7
100
AcDbPolyline
 90
        7
 70
   128
 43
0.0
 10
74.34999999999989
 20
-433.9530696351089
 10
74.219026795814
 20
-433.3598378680846
 10
73.84483373401671
 20
-432.7751296546164
 10
73.26717450214907
 20
-432.2476079055793
 10
72.53180694471573
 20
-431.8133668337475
 10
71.86072100000147
 20
-431.5526455029496
 10
71.84999999999985
 20
-431.549333710613
  0
LINE
  5
3F7
330
A
100
AcDbEntity
  8
0
  6
Continuous
 62
     7
100
AcDbLine
 10
74.3500000000002
 20
-464.3408998938763
 30
0.0
 11
74.34999999999989
 21
-433.9530696351089
 31
0.0
  0
LWPOLYLINE
  5
3F8
330
A
100
AcDbEntity
  8
0
  6
Continuous
 62
     7
100
AcDbPolyline
 90
        4
 70
   128
 43
0.0
 10
65.35000000000017
 20
-464.3408998938768
 10
66.6560751296753
 20
-465.6794989590181
 10
68.3682750880546
 20
-466.591009353374
 10
69.10000000000024
 20
-466.6813745701309
  0
LWPOLYLINE
  5
3FE
330
A
100
AcDbEntity
  8
0
  6
Continuous
 62
     7
100
AcDbPolyline
 90
        4
 70
   128
 43
0.0
 10
70.60000000000023
 20
-466.7176789253089
 10
71.71416885924436
 20
-466.4505998840136
 10
73.08887233351848
 20
-465.6447888536961
 10
74.35000000000029
 20
-464.3408998938763
  0
LINE
  5
404
330
A
100
AcDbEntity
  8
0
  6
Continuous
 62
     7
100
AcDbLine
 10
65.34999999999989
 20
-433.9530696351107
 30
0.0
 11
65.35000000000017
 21
-464.3408998938768
 31
0.0
  0
LWPOLYLINE
  5
405
330
A
100
AcDbEntity
  8
0
  6
Continuous
 62
     7
100
AcDbPolyline
 90
        4
 70
   128
 43
0.0
 10
67.84999999999993
 20
-439.2601515672417
 10
68.47608257734022
 20
-439.3980038823598
 10
70.2454408293012
 20
-439.5109358433663
 10
71.84999999999994
 20
-439.2601515672402
  0
LWPOLYLINE
  5
40B
330
A
100
AcDbEntity
  8
0
  6
Continuous
 62
     7
100
AcDbPolyline
 90
        7
 70
   128
 43
0.0
 10
71.84999999999982
 20
-428.5124616673029
 10
71.86072100000149
 20
-428.5091823829338
 10
72.5318069447154
 20
-428.3824426604584
 10
73.26717450214871
 20
-428.4370825597478
 10
73.84483373401652
 20
-428.6910826655933
 10
74.21902679581393
 20
-429.1079908114094
 10
74.34999999999985
 20
-429.6440335824648
  0
LINE
  5
414
330
A
100
AcDbEntity
  8
0
  6
Continuous
 62
     7
100
AcDbLine
 10
74.34999999999985
 20
-429.6440335824648
 30
0.0
 11
74.34999999999989
 21
-433.9530696351089
 31
0.0
  0
LINE
  5
415
330
A
100
AcDbEntity
  8
0
  6
Continuous
 62
     7
100
AcDbLine
 10
65.34999999999989
 20
-433.9530696351107
 30
0.0
 11
65.34999999999984
 21
-429.6440335824664
 31
0.0
  0
LWPOLYLINE
  5
416
330
A
100
AcDbEntity
  8
0
  6
Continuous
 62
     7
100
AcDbPolyline
 90
        7
 70
   128
 43
0.0
 10
67.84999999999981
 20
-428.5124616673045
 10
67.8392789999982
 20
-428.5091823829354
 10
67.16819305528423
 20
-428.38244266046
 10
66.43282549785094
 20
-428.4370825597494
 10
65.85516626598312
 20
-428.6910826655949
 10
65.48097320418573
 20
-429.1079908114109
 10
65.34999999999985
 20
-429.6440335824664
  0
LWPOLYLINE
  5
41F
330
A
100
AcDbEntity
  8
0
  6
Continuous
 62
     7
100
AcDbPolyline
 90
        9
 70
   128
 43
0.0
 10
69.35088821005603
 20
-439.8875869971067
 10
69.46047802879779
 20
-439.8350559197086
 10
69.58293972960397
 20
-439.7962424353918
 10
69.7142265251642
 20
-439.7724291485524
 10
69.84999999999995
 20
-439.7644029771115
 10
69.98577347483571
 20
-439.7724291485524
 10
70.11706027039593
 20
-439.7962424353918
 10
70.23952197120211
 20
-439.8350559197086
 10
70.34911178994386
 20
-439.8875869971067
  0
LWPOLYLINE
  5
42A
330
A
100
AcDbEntity
  8
0
  6
Continuous
 62
     7
100
AcDbPolyline
 90
        4
 70
   128
 43
0.0
 10
70.34911178994386
 20
-439.8875869971067
 10
70.35945686984074
 20
-441.027330460913
 10
70.35405490340824
 20
-442.4704530343103
 10
70.33564636580419
 20
-443.7218900225254
  0
LWPOLYLINE
  5
430
330
A
100
AcDbEntity
  8
0
  6
Continuous
 62
     7
100
AcDbPolyline
 90
        4
 70
   128
 43
0.0
 10
69.3643536341958
 20
-443.7218900225254
 10
69.34382475804561
 20
-442.2257432744167
 10
69.34136116496905
 20
-440.8049103002618
 10
69.35088821005603
 20
-439.8875869971067
  0
LINE
  5
436
330
A
100
AcDbEntity
  8
0
  6
Continuous
 62
     7
100
AcDbLine
 10
69.79417859564236
 20
-808.7107124238576
 30
0.0
 11
69.90582140436527
 21
-808.7107124238576
 31
0.0
  0
LWPOLYLINE
  5
437
330
A
100
AcDbEntity
  8
0
  6
Continuous
 62
     7
100
AcDbPolyline
 90
        6
 70
   128
 43
0.0
 10
69.79417859564238
 20
-808.7107124238585
 10
69.75796004636039
 20
-808.6997512763369
 10
69.65539609184012
 20
-808.6396328735979
 10
69.50827566119078
 20
-808.4779092895621
 10
69.2372989388521
 20
-807.9054695679825
 10
69.11316548265316
 20
-807.099553423299
  0
LWPOLYLINE
  5
43F
330
A
100
AcDbEntity
  8
0
  6
Continuous
 62
     7
100
AcDbPolyline
 90
        8
 70
   128
 43
0.0
 10
70.59167475437781
 20
-807.1032355889064
 10
70.59895773376483
 20
-807.160865390163
 10
70.42325228485475
 20
-808.0191006889023
 10
70.3056471481909
 20
-808.2880896798005
 10
70.12686245519629
 20
-808.5603064339249
 10
70.03209714901406
 20
-808.649263598706
 10
69.91344049387826
 20
-808.7088522530212
 10
69.90582140436524
 20
-808.7107124238585
  0
LWPOLYLINE
  5
449
330
A
100
AcDbEntity
  8
0
  6
Continuous
 62
     7
100
AcDbPolyline
 90
        3
 70
   128
 43
0.0
 10
69.3643536341958
 20
-443.7218900225254
 10
69.22637646722566
 20
-445.0990963264722
 10
69.13453572046387
 20
-446.1476402732211
  0
LWPOLYLINE
  5
44E
330
A
100
AcDbEntity
  8
0
  6
Continuous
 62
     7
100
AcDbPolyline
 90
        5
 70
   128
 43
0.0
 10
70.59178682375843
 20
-446.1948733533633
 10
70.59899126227422
 20
-446.1311933481859
 10
70.42803884241789
 20
-444.8200636087269
 10
70.33523640833518
 20
-443.7452510993488
 10
70.33564636580419
 20
-443.7218900225254
  0
LINE
  5
455
330
A
100
AcDbEntity
  8
0
  6
Continuous
 62
     7
100
AcDbLine
 10
71.85000000000004
 20
-448.9009089014839
 30
0.0
 11
71.84999999999994
 21
-439.2601515672402
 31
0.0
  0
LINE
  5
456
330
A
100
AcDbEntity
  8
0
  6
Continuous
 62
     7
100
AcDbLine
 10
67.85000000000005
 20
-448.9009089014841
 30
0.0
 11
67.84999999999993
 21
-439.2601515672417
 31
0.0
  0
LINE
  5
457
330
A
100
AcDbEntity
  8
0
  6
Continuous
 62
     7
100
AcDbLine
 10
65.34999999999991
 20
-436.1874898702235
 30
0.0
 11
65.34999999999986
 21
-431.5207979771113
 31
0.0
  0
LINE
  5
458
330
A
100
AcDbEntity
  8
0
  6
Continuous
 62
     7
100
AcDbLine
 10
74.34999999999991
 20
-436.187489870222
 30
0.0
 11
74.34999999999987
 21
-431.5207979771111
 31
0.0
  0
LINE
  5
459
330
A
100
AcDbEntity
  8
0
  6
Continuous
 62
     7
100
AcDbLine
 10
59.85000000000038
 20
-481.920818977113
 30
0.0
 11
59.8500000000001
 21
-455.920848977113
 31
0.0
  0
LINE
  5
45A
330
A
100
AcDbEntity
  8
0
  6
Continuous
 62
     7
100
AcDbLine
 10
54.85000000000038
 20
-481.9208189771116
 30
0.0
 11
54.8500000000001
 21
-455.9208489771116
 31
0.0
  0
LINE
  5
45B
330
A
100
AcDbEntity
  8
0
  6
Continuous
 62
     7
100
AcDbLine
 10
74.8500000000039
 20
-817.4208819771127
 30
0.0
 11
74.85000000000376
 21
-803.4208599771128
 31
0.0
  0
LINE
  5
45C
330
A
100
AcDbEntity
  8
0
  6
Continuous
 62
     7
100
AcDbLine
 10
64.8500000000039
 20
-817.4208819771129
 30
0.0
 11
64.85000000000375
 21
-803.420859977113
 31
0.0
  0
LINE
  5
45D
330
A
100
AcDbEntity
  8
0
  6
Continuous
 62
     7
100
AcDbLine
 10
77.85000000000036
 20
-478.9208339771114
 30
0.0
 11
77.85000000000015
 21
-458.9208339771127
 31
0.0
  0
LINE
  5
45E
330
A
100
AcDbEntity
  8
0
  6
Continuous
 62
     7
100
AcDbLine
 10
61.85000000000037
 20
-478.9208339771129
 30
0.0
 11
61.85000000000016
 21
-458.9208339771129
 31
0.0
  0
LINE
  5
45F
330
A
100
AcDbEntity
  8
0
  6
Continuous
 62
     7
100
AcDbLine
 10
76.85000000000373
 20
-800.4208729771127
 30
0.0
 11
70.60000000000373
 21
-800.4208729771129
 31
0.0
  0
LINE
  5
460
330
A
100
AcDbEntity
  8
0
  6
Continuous
 62
     7
100
AcDbLine
 10
69.10000000000372
 20
-800.4208729771129
 30
0.0
 11
62.85000000000373
 21
-800.4208729771129
 31
0.0
  0
LINE
  5
461
330
A
100
AcDbEntity
  8
0
  6
Continuous
 62
     7
100
AcDbLine
 10
76.85000000000075
 20
-515.4208429771125
 30
0.0
 11
70.60000000000075
 21
-515.4208429771127
 31
0.0
  0
LINE
  5
462
330
A
100
AcDbEntity
  8
0
  6
Continuous
 62
     7
100
AcDbLine
 10
69.10000000000073
 20
-515.4208429771127
 30
0.0
 11
62.85000000000074
 21
-515.4208429771127
 31
0.0
  0
LINE
  5
463
330
A
100
AcDbEntity
  8
0
  6
Continuous
 62
     7
100
AcDbLine
 10
75.25000450000035
 20
-480.4208429771127
 30
0.0
 11
70.60000000000037
 21
-480.4208429771128
 31
0.0
  0
LINE
  5
464
330
A
100
AcDbEntity
  8
0
  6
Continuous
 62
     7
100
AcDbLine
 10
69.10000000000036
 20
-480.4208429771128
 30
0.0
 11
64.4499955000004
 21
-480.4208429771131
 31
0.0
  0
LWPOLYLINE
  5
465
330
A
100
AcDbEntity
  8
0
  6
Continuous
 62
     7
100
AcDbPolyline
 90
        7
 70
   128
 43
0.0
 10
74.08356084932538
 20
-824.1946019444426
 10
73.67362224427354
 20
-824.1431829587604
 10
72.67842999301946
 20
-824.042353778311
 10
71.35683508086987
 20
-823.9553382303636
 10
69.8673180192104
 20
-823.9209225212585
 10
68.3875211335511
 20
-823.953340638684
 10
67.25771429766325
 20
-824.0260896208734
  0
LINE
  5
46E
330
A
100
AcDbEntity
  8
0
  6
Continuous
 62
     7
100
AcDbLine
 10
74.34999999999985
 20
-429.6007786535802
 30
0.0
 11
74.3499999999998
 21
-425.5051056289716
 31
0.0
  0
LINE
  5
46F
330
A
100
AcDbEntity
  8
0
  6
Continuous
 62
     7
100
AcDbLine
 10
65.34999999999984
 20
-429.6440335824664
 30
0.0
 11
65.34999999999979
 21
-425.5051056289719
 31
0.0
  0
LINE
  5
470
330
A
100
AcDbEntity
  8
0
  6
Continuous
 62
     7
100
AcDbLine
 10
64.34999999999994
 20
-440.0208729771129
 30
0.0
 11
64.34999999999978
 21
-426.020886977113
 31
0.0
  0
LWPOLYLINE
  5
471
330
A
100
AcDbEntity
  8
0
  6
Continuous
 62
     7
100
AcDbPolyline
 90
        7
 70
   128
 43
0.0
 10
69.35860869837359
 20
-405.9701110299707
 10
69.50630855311693
 20
-405.8767114772594
 10
69.720888039219
 20
-405.8090006321721
 10
69.92781808478788
 20
-405.8022825672426
 10
70.10910372011323
 20
-405.8418418776699
 10
70.27020772516628
 20
-405.9191582002901
 10
70.34139130162564
 20
-405.9701110299707
  0
LWPOLYLINE
  5
47A
330
A
100
AcDbEntity
  8
0
  6
Continuous
 62
     7
100
AcDbPolyline
 90
        4
 70
   128
 43
0.0
 10
70.34139130162564
 20
-405.9701110299707
 10
70.45733023999651
 20
-406.0880805892906
 10
70.58558662935195
 20
-406.3629065686377
 10
70.58245081711041
 20
-406.5002003252529
  0
LWPOLYLINE
  5
480
330
A
100
AcDbEntity
  8
0
  6
Continuous
 62
     7
100
AcDbPolyline
 90
        3
 70
   128
 43
0.0
 10
69.10212702397463
 20
-406.5007422497157
 10
69.15485997613879
 20
-406.2361971108788
 10
69.35860869837359
 20
-405.9701110299707
  0
LINE
  5
485
330
A
100
AcDbEntity
  8
0
  6
Continuous
 62
     7
100
AcDbLine
 10
76.70857125121547
 20
-440.660855117113
 30
0.0
 11
74.74897946515399
 21
-450.2608540771127
 31
0.0
  0
ARC
  5
486
330
A
100
AcDbEntity
  8
0
  6
Continuous
 62
     7
100
AcDbCircle
 10
69.85000000000005
 20
-449.2608539771128
 30
0.0
 40
4.999999999999984
100
AcDbArc
 50
334.1580672368348
 51
348.4630397976411
  0
ARC
  5
487
330
A
100
AcDbEntity
  8
0
  6
Continuous
 62
     7
100
AcDbCircle
 10
69.85000000000005
 20
-449.2608539771128
 30
0.0
 40
4.999999999999951
100
AcDbArc
 50
191.5369602023594
 51
205.8419327631675
  0
LINE
  5
488
330
A
100
AcDbEntity
  8
0
  6
Continuous
 62
     7
100
AcDbLine
 10
64.95102053484612
 20
-450.2608540771114
 30
0.0
 11
62.99142874878445
 21
-440.6608551171117
 31
0.0
  0
ARC
  5
489
330
A
100
AcDbEntity
  8
0
  6
Continuous
 62
     7
100
AcDbCircle
 10
69.84999999999994
 20
-439.260854977113
 30
0.0
 40
6.999999999999985
100
AcDbArc
 50
141.7867892982627
 51
191.5369602023621
  0
ARC
  5
48A
330
A
100
AcDbEntity
  8
0
  6
Continuous
 62
     7
100
AcDbCircle
 10
69.84999999999994
 20
-439.260854977113
 30
0.0
 40
7.000000000000037
100
AcDbArc
 50
348.4630397976395
 51
49.32400201977961
  0
LWPOLYLINE
  5
48B
330
A
100
AcDbEntity
  8
0
  6
Continuous
 62
     7
100
AcDbPolyline
 90
        4
 70
   128
 43
0.0
 10
71.84999999999964
 20
-409.6081640830846
 10
71.29240977210473
 20
-409.7349980696438
 10
70.71049535053894
 20
-409.8234819466934
 10
70.59999999999954
 20
-409.8295798019332
  0
LWPOLYLINE
  5
491
330
A
100
AcDbEntity
  8
0
  6
Continuous
 62
     7
100
AcDbPolyline
 90
        4
 70
   128
 43
0.0
 10
69.09999999999972
 20
-409.8264448533123
 10
68.91667922189562
 20
-409.8148587482987
 10
68.37837825635824
 20
-409.7293755808729
 10
67.84999999999964
 20
-409.6081640830846
  0
LWPOLYLINE
  5
497
330
A
100
AcDbEntity
  8
0
  6
Continuous
 62
     7
100
AcDbPolyline
 90
       12
 70
   128
 43
0.0
 10
75.24988600738935
 20
-408.329846105305
 10
75.21286398640994
 20
-408.7530644066374
 10
75.03733646106131
 20
-409.1429203922209
 10
74.74526993274512
 20
-409.2811258040322
 10
74.39987187493317
 20
-409.085992856906
 10
74.21357684560971
 20
-408.6325144552771
 10
74.21920675297915
 20
-407.9368123629548
 10
74.39075392690568
 20
-407.1711382686382
 10
74.68148724620593
 20
-406.2493620023925
 10
75.02388965385645
 20
-405.1418147582839
 10
75.23101092870593
 20
-404.1039532384071
 10
75.24988600738931
 20
-403.732602683551
  0
LWPOLYLINE
  5
4A5
330
A
100
AcDbEntity
  8
0
  6
Continuous
 62
     7
100
AcDbPolyline
 90
        5
 70
   128
 43
0.0
 10
74.84999999999961
 20
-406.9132884338213
 10
74.89002934817854
 20
-406.984706936032
 10
75.08610346279162
 20
-407.4217869995211
 10
75.20663532782485
 20
-407.8723334286393
 10
75.24988600738935
 20
-408.329846105305
  0
LWPOLYLINE
  5
4AC
330
A
100
AcDbEntity
  8
0
  6
Continuous
 62
     7
100
AcDbPolyline
 90
        5
 70
   128
 43
0.0
 10
64.45011399260988
 20
-408.3298461053037
 10
64.4933646721742
 20
-407.8723334286382
 10
64.6138965372075
 20
-407.4217869995202
 10
64.80997065182065
 20
-406.9847069360312
 10
64.8499999999996
 20
-406.9132884338213
  0
LWPOLYLINE
  5
4B3
330
A
100
AcDbEntity
  8
0
  6
Continuous
 62
     7
100
AcDbPolyline
 90
       12
 70
   128
 43
0.0
 10
64.45011399260983
 20
-403.732602683551
 10
64.48242849185596
 20
-404.2188748790064
 10
64.65214830683639
 20
-405.05199368224
 10
64.93971579694452
 20
-406.0090367180741
 10
65.28578611680075
 20
-407.0899056162917
 10
65.48155525547485
 20
-407.9422216092582
 10
65.48470458146924
 20
-408.642248110125
 10
65.3181996765447
 20
-409.0621741001704
 10
65.03157628528157
 20
-409.2708636367188
 10
64.68816151923681
 20
-409.1697402672624
 10
64.47270737293917
 20
-408.6741095888801
 10
64.45011399260988
 20
-408.3298461053037
  0
LWPOLYLINE
  5
4C1
330
A
100
AcDbEntity
  8
0
  6
Continuous
 62
     7
100
AcDbPolyline
 90
        3
 70
   128
 43
0.0
 10
74.56675626248138
 20
-434.2517813478025
 10
75.12713419926251
 20
-433.0888099593056
 10
75.18497579079184
 20
-432.2503299196403
  0
LINE
  5
4C6
330
A
100
AcDbEntity
  8
0
  6
Continuous
 62
     7
100
AcDbLine
 10
67.84999999999972
 20
-419.2308499771139
 30
0.0
 11
67.84999999999964
 21
-409.6081640830846
 31
0.0
  0
LINE
  5
4C7
330
A
100
AcDbEntity
  8
0
  6
Continuous
 62
     7
100
AcDbLine
 10
71.84999999999973
 20
-419.2308499771139
 30
0.0
 11
71.84999999999964
 21
-409.6081640830846
 31
0.0
  0
LINE
  5
4C8
330
A
100
AcDbEntity
  8
0
  6
Continuous
 62
     7
100
AcDbLine
 10
74.84999999999963
 20
-409.200830977114
 30
0.0
 11
74.8499999999996
 21
-405.6929003712122
 31
0.0
  0
LINE
  5
4C9
330
A
100
AcDbEntity
  8
0
  6
Continuous
 62
     7
100
AcDbLine
 10
64.84999999999963
 20
-409.200830977114
 30
0.0
 11
64.84999999999958
 21
-405.6991944605313
 31
0.0
  0
LINE
  5
4CA
330
A
100
AcDbEntity
  8
0
  6
Continuous
 62
     7
100
AcDbLine
 10
59.8500000000001
 20
-452.2608859771124
 30
0.0
 11
59.84999999999981
 21
-426.2609159771137
 31
0.0
  0
LINE
  5
4CB
330
A
100
AcDbEntity
  8
0
  6
Continuous
 62
     7
100
AcDbLine
 10
54.8500000000001
 20
-452.260885977114
 30
0.0
 11
54.84999999999981
 21
-426.260915977114
 31
0.0
  0
LINE
  5
4CC
330
A
100
AcDbEntity
  8
0
  6
Continuous
 62
     7
100
AcDbLine
 10
61.85000000000005
 20
-449.2609009771125
 30
0.0
 11
61.84999999999985
 21
-429.2609009771124
 31
0.0
  0
LINE
  5
4CD
330
A
100
AcDbEntity
  8
0
  6
Continuous
 62
     7
100
AcDbLine
 10
77.85000000000005
 20
-449.2609009771122
 30
0.0
 11
77.84999999999985
 21
-429.2609009771123
 31
0.0
  0
LWPOLYLINE
  5
4CE
330
A
100
AcDbEntity
  8
0
  6
Continuous
 62
     7
100
AcDbPolyline
 90
       10
 70
   128
 43
0.0
 10
69.85000000000517
 20
-938.3964030121699
 10
73.39427831555609
 20
-938.5599630630142
 10
76.9021875394146
 20
-939.048964868094
 10
80.33773177598424
 20
-939.8583906071637
 10
83.66565769236373
 20
-940.9799344768126
 10
86.85181626524768
 20
-942.4020879192466
 10
89.8635131961169
 20
-944.1102577156655
 10
92.66984439898351
 20
-946.0869157324344
 10
95.2420131181333
 20
-948.3117787834562
 10
96.70624022464714
 20
-949.8045852904409
  0
LWPOLYLINE
  5
4DA
330
A
100
AcDbEntity
  8
0
  6
Continuous
 62
     7
100
AcDbPolyline
 90
       11
 70
   128
 43
0.0
 10
41.97397268246304
 20
-950.966386953076
 10
42.14637457820353
 20
-950.7620167631067
 10
44.45798688187754
 20
-948.3117787834565
 10
47.03015560102731
 20
-946.0869157324346
 10
49.83648680389393
 20
-944.1102577156655
 10
52.84818373476312
 20
-942.4020879192466
 10
56.03434230764707
 20
-940.9799344768128
 10
59.36226822402655
 20
-939.8583906071637
 10
62.79781246059624
 20
-939.048964868094
 10
66.30572168445472
 20
-938.5599630630142
 10
69.85000000000517
 20
-938.3964030121699
  0
LWPOLYLINE
  5
4E7
330
A
100
AcDbEntity
  8
0
  6
Continuous
 62
     7
100
AcDbPolyline
 90
        8
 70
   128
 43
0.0
 10
69.85000000000579
 20
-998.4513604880989
 10
66.55042808252161
 20
-998.2913363471274
 10
63.28824163330454
 20
-997.8130770616724
 10
60.10040252832782
 20
-997.0220015005409
 10
57.02303025844668
 20
-995.9270728659383
 10
54.09099268113446
 20
-994.5406971368058
 10
51.33751095372487
 20
-992.8785825041222
 10
49.60300757702094
 20
-991.6158943689429
  0
LWPOLYLINE
  5
4F1
330
A
100
AcDbEntity
  8
0
  6
Continuous
 62
     7
100
AcDbPolyline
 90
        8
 70
   128
 43
0.0
 10
89.94011136658427
 20
-991.7379065401663
 10
88.36248904628623
 20
-992.8785825041218
 10
85.60900731887665
 20
-994.5406971368056
 10
82.67696974156443
 20
-995.9270728659381
 10
79.5995974716833
 20
-997.0220015005409
 10
76.41175836670658
 20
-997.8130770616724
 10
73.14957191748952
 20
-998.2913363471272
 10
69.85000000000579
 20
-998.4513604880989
  0
LWPOLYLINE
  5
4FB
330
A
100
AcDbEntity
  8
0
  6
Continuous
 62
     7
100
AcDbPolyline
 90
       41
 70
   128
 43
0.0
 10
69.85000000000654
 20
-1069.809814572792
 10
64.81302815208147
 20
-1069.649758317083
 10
59.80059592468484
 20
-1069.170369327947
 10
54.83712338378061
 20
-1068.37398314035
 10
49.94679206866154
 20
-1067.264479667747
 10
45.15342718192052
 20
-1065.847264299527
 10
40.4803815154584
 20
-1064.129241566508
 10
35.95042167802926
 20
-1062.11878150275
 10
31.5856171786111
 20
-1059.825678867592
 10
27.40723290597648
 20
-1057.261105426571
 10
23.43562552829193
 20
-1054.437555523702
 10
19.69014431747696
 20
-1051.36878521029
 10
16.18903688149621
 20
-1048.069745226829
 10
12.94936026384769
 20
-1044.556508164501
 10
9.986897843361438
 20
-1040.846190161124
 10
7.316082439164358
 20
-1036.95686751305
 10
4.949925995436296
 20
-1032.907488609268
 10
2.89995618852587
 20
-1028.717781616754
 10
1.176160265270107
 20
-1024.408158366829
 10
-0.2130636138682473
 20
-1019.999614910764
 10
-1.260947289794353
 20
-1015.513629229132
 10
-1.962385578571951
 20
-1010.972056593244
 10
-2.313961143366488
 20
-1006.397023088465
 10
-2.313961143366516
 20
-1001.810817818149
 10
-1.962385578572034
 20
-997.2357843133705
 10
-1.260947289794478
 20
-992.6942116774823
 10
-0.2130636138684416
 20
-988.2082259958504
 10
1.176160265269857
 20
-983.7996825397853
 10
2.899956188525565
 20
-979.4900592898603
 10
4.94992599543595
 20
-975.3003522973468
 10
7.316082439163956
 20
-971.2509733935647
 10
9.98689784336098
 20
-967.3616507454907
 10
12.94936026384718
 20
-963.6513327421134
 10
16.18903688149565
 20
-960.1380956797852
 10
19.69014431747635
 20
-956.8390556963242
 10
23.43562552829126
 20
-953.7702853829117
 10
27.40723290597579
 20
-950.9467354800426
 10
31.5856171786104
 20
-948.3821620390221
 10
35.95042167802853
 20
-946.0890594038641
 10
40.48038151545763
 20
-944.0785993401057
 10
43.33020460582525
 20
-942.9899175491081
  0
LWPOLYLINE
  5
526
330
A
100
AcDbEntity
  8
0
  6
Continuous
 62
     7
100
AcDbPolyline
 90
       41
 70
   128
 43
0.0
 10
96.36979539418518
 20
-942.9899175491076
 10
99.21961848455371
 20
-944.0785993401055
 10
103.7495783219828
 20
-946.0890594038639
 10
108.114382821401
 20
-948.3821620390218
 10
112.2927670940355
 20
-950.9467354800424
 10
116.2643744717201
 20
-953.7702853829113
 10
120.009855682535
 20
-956.8390556963237
 10
123.5109631185157
 20
-960.1380956797848
 10
126.7506397361642
 20
-963.651332742113
 10
129.7131021566505
 20
-967.3616507454905
 10
132.3839175608475
 20
-971.2509733935641
 10
134.7500740045755
 20
-975.3003522973463
 10
136.8000438114859
 20
-979.4900592898597
 10
138.5238397347416
 20
-983.7996825397848
 10
139.9130636138799
 20
-988.2082259958499
 10
140.960947289806
 20
-992.6942116774819
 10
141.6623855785836
 20
-997.2357843133698
 10
142.0139611433781
 20
-1001.810817818149
 10
142.013961143378
 20
-1006.397023088465
 10
141.6623855785836
 20
-1010.972056593243
 10
140.9609472898059
 20
-1015.513629229131
 10
139.9130636138799
 20
-1019.999614910763
 10
138.5238397347416
 20
-1024.408158366828
 10
136.8000438114858
 20
-1028.717781616753
 10
134.7500740045754
 20
-1032.907488609267
 10
132.3839175608473
 20
-1036.956867513049
 10
129.7131021566503
 20
-1040.846190161123
 10
126.7506397361641
 20
-1044.5565081645
 10
123.5109631185156
 20
-1048.069745226829
 10
120.0098556825349
 20
-1051.36878521029
 10
116.2643744717199
 20
-1054.437555523702
 10
112.2927670940354
 20
-1057.261105426571
 10
108.1143828214008
 20
-1059.825678867591
 10
103.7495783219826
 20
-1062.118781502749
 10
99.21961848455357
 20
-1064.129241566508
 10
94.54657281809145
 20
-1065.847264299527
 10
89.75320793135047
 20
-1067.264479667746
 10
84.86287661623142
 20
-1068.37398314035
 10
79.89940407532721
 20
-1069.170369327947
 10
74.8869718479306
 20
-1069.649758317083
 10
69.85000000000654
 20
-1069.809814572792
  0
LWPOLYLINE
  5
551
330
A
100
AcDbEntity
  8
0
  6
Continuous
 62
     7
100
AcDbPolyline
 90
        6
 70
   128
 43
0.0
 10
52.24276348333468
 20
-941.9964090961205
 10
49.15525585556714
 20
-943.26030693203
 10
46.59734645606953
 20
-944.3688873142241
 10
44.62623371177089
 20
-945.1862456392621
 10
43.3458658275263
 20
-945.6067785910436
 10
43.32767042979068
 20
-945.6064740441686
  0
LINE
  5
559
330
A
100
AcDbEntity
  8
0
  6
Continuous
 62
     7
100
AcDbLine
 10
43.06467926548959
 20
-945.1788472720929
 30
0.0
 11
43.2851486531109
 21
-944.9931531729708
 31
0.0
  0
LINE
  5
55A
330
A
100
AcDbEntity
  8
0
  6
Continuous
 62
     7
100
AcDbLine
 10
96.43425895943128
 20
-945.0248251109119
 30
0.0
 11
96.67301159520398
 21
-945.2313534518239
 31
0.0
  0
LWPOLYLINE
  5
55B
330
A
100
AcDbEntity
  8
0
  6
Continuous
 62
     7
100
AcDbPolyline
 90
       11
 70
   128
 43
0.0
 10
96.24348539199594
 20
-945.5557672724475
 10
96.04994244619053
 20
-945.5286218878244
 10
94.7865549576489
 20
-945.0747561193198
 10
93.00733660982965
 20
-944.3276323087317
 10
90.69681653799131
 20
-943.325592348752
 10
87.95052052198148
 20
-942.1897495251972
 10
84.34612694736854
 20
-940.874251965728
 10
80.28841860304575
 20
-939.697148860173
 10
76.52947001782637
 20
-938.9352009818425
 10
72.57393229082193
 20
-938.486040403113
 10
70.21870290418817
 20
-938.448359429964
  0
LWPOLYLINE
  5
568
330
A
100
AcDbEntity
  8
0
  6
Continuous
 62
     7
100
AcDbPolyline
 90
        7
 70
   128
 43
0.0
 10
69.47995847128405
 20
-938.436540364994
 10
68.52418334654401
 20
-938.4212490574823
 10
64.51706577597825
 20
-938.7389446161524
 10
60.87126616542825
 20
-939.3632794729246
 10
57.44877267439889
 20
-940.2225122530792
 10
54.73430296637677
 20
-941.0829365223344
 10
52.24276348333469
 20
-941.9964090961205
  0
LWPOLYLINE
  5
571
330
A
100
AcDbEntity
  8
0
  6
Continuous
 62
     7
100
AcDbPolyline
 90
       11
 70
   128
 43
0.0
 10
69.85000000000539
 20
-960.0742013454949
 10
67.73748974598227
 20
-960.2378120514982
 10
65.68575256572964
 20
-960.7239373873817
 10
63.75381320233493
 20
-961.518592412318
 10
61.99725003380983
 20
-962.5989163480642
 10
60.46659618434631
 20
-963.9338302419306
 10
59.20588577833898
 20
-965.4849310516615
 10
58.25138715879901
 20
-967.2075964310433
 10
57.63055951315934
 20
-969.0522684335601
 10
57.36126292244692
 20
-970.9658792042855
 10
57.36352160858068
 20
-971.9775385379778
  0
LWPOLYLINE
  5
57E
330
A
100
AcDbEntity
  8
0
  6
Continuous
 62
     7
100
AcDbPolyline
 90
       11
 70
   128
 43
0.0
 10
82.34999126496138
 20
-971.4620702487847
 10
82.33873707756409
 20
-970.9658792042851
 10
82.0694404868516
 20
-969.0522684335597
 10
81.44861284121184
 20
-967.207596431043
 10
80.49411422167182
 20
-965.484931051661
 10
79.23340381566443
 20
-963.9338302419302
 10
77.70274996620085
 20
-962.5989163480641
 10
75.94618679767574
 20
-961.5185924123178
 10
74.01424743428098
 20
-960.7239373873815
 10
71.96251025402834
 20
-960.2378120514982
 10
69.85000000000539
 20
-960.0742013454949
  0
LWPOLYLINE
  5
58B
330
A
100
AcDbEntity
  8
0
  6
Continuous
 62
     7
100
AcDbPolyline
 90
       14
 70
   128
 43
0.0
 10
69.85000000000515
 20
-937.0609753153077
 10
72.60189035504421
 20
-937.0605957933642
 10
75.30859474653361
 20
-937.0594634592734
 10
77.92566916319604
 20
-937.0575969059299
 10
80.41014131546278
 20
-937.0550267820879
 10
82.72121623928057
 20
-937.05179528911
 10
84.82094614829348
 20
-937.0479554880214
 10
86.67485353544559
 20
-937.0435704282495
 10
88.25249729269396
 20
-937.0387121123554
 10
89.52797255316088
 20
-937.0334603137509
 10
90.48033604833189
 20
-937.0279012668243
 10
91.09394999594581
 20
-937.0221262509724
 10
91.35873887194708
 20
-937.0162300917959
 10
91.36979539418511
 20
-937.0147484477648
  0
LWPOLYLINE
  5
59B
330
A
100
AcDbEntity
  8
0
  6
Continuous
 62
     7
100
AcDbPolyline
 90
       14
 70
   128
 43
0.0
 10
48.33020460582519
 20
-937.0147484477653
 10
48.34126112806326
 20
-937.0162300917964
 10
48.60605000406456
 20
-937.022126250973
 10
49.21966395167853
 20
-937.0279012668246
 10
50.17202744684958
 20
-937.0334603137512
 10
51.44750270731653
 20
-937.0387121123556
 10
53.02514646456494
 20
-937.0435704282501
 10
54.87905385171709
 20
-937.0479554880215
 10
56.97878376072998
 20
-937.0517952891102
 10
59.2898586845478
 20
-937.0550267820881
 10
61.77433083681457
 20
-937.05759690593
 10
64.391405253477
 20
-937.0594634592734
 10
67.09810964496643
 20
-937.0605957933642
 10
69.85000000000515
 20
-937.0609753153077
  0
LWPOLYLINE
  5
5AB
330
A
100
AcDbEntity
  8
0
  6
Continuous
 62
     7
100
AcDbPolyline
 90
        5
 70
   128
 43
0.0
 10
77.86945108968828
 20
-936.962706172577
 10
73.59893510055761
 20
-936.9604189429619
 10
69.71162755901928
 20
-936.9597593792114
 10
65.71348803870034
 20
-936.9605613588804
 10
61.83054891032937
 20
-936.9627061725774
  0
LWPOLYLINE
  5
5B2
330
A
100
AcDbEntity
  8
0
  6
Continuous
 62
     7
100
AcDbPolyline
 90
       12
 70
   128
 43
0.0
 10
76.88522758917972
 20
-937.0674435171981
 10
79.79662441140703
 20
-937.0652324211109
 10
82.56238295589318
 20
-937.062282139685
 10
85.14200704077721
 20
-937.0586358708832
 10
87.49772586127113
 20
-937.0543470033009
 10
89.59504702903606
 20
-937.0494783344522
 10
91.40326160904946
 20
-937.04410115129
 10
92.89589375922387
 20
-937.0382941864239
 10
94.05108838916268
 20
-937.0321424653186
 10
94.85193116196104
 20
-937.0257360613523
 10
95.28669615359206
 20
-937.0191687769654
 10
95.36960527551066
 20
-937.0149600506081
  0
LWPOLYLINE
  5
5C0
330
A
100
AcDbEntity
  8
0
  6
Continuous
 62
     7
100
AcDbPolyline
 90
       12
 70
   128
 43
0.0
 10
95.36790606617953
 20
-937.0140814021054
 10
95.3490175436544
 20
-937.012536770206
 10
95.03798282358834
 20
-937.0059371467856
 10
94.35814615760831
 20
-936.9994665382597
 10
93.31946170072034
 20
-936.9932196871502
 10
91.93713785018179
 20
-936.9872880597277
 10
90.2314145644495
 20
-936.9817585067631
 10
88.22726701010886
 20
-936.9767119918614
 10
85.95403987597903
 20
-936.9722224059945
 10
83.44501770876002
 20
-936.9683554855892
 10
80.73693756135892
 20
-936.9651678500179
 10
77.86945108968828
 20
-936.962706172577
  0
LWPOLYLINE
  5
5CE
330
A
100
AcDbEntity
  8
0
  6
Continuous
 62
     7
100
AcDbPolyline
 90
       12
 70
   128
 43
0.0
 10
61.83054891032937
 20
-936.9627061725774
 10
58.96306243865691
 20
-936.9651678500179
 10
56.25498229125406
 20
-936.9683554855894
 10
53.74596012403348
 20
-936.9722224059946
 10
51.47273298990229
 20
-936.9767119918618
 10
49.46858543556057
 20
-936.9817585067632
 10
47.7628621498275
 20
-936.9872880597281
 10
46.38053829928852
 20
-936.9932196871507
 10
45.34185384240053
 20
-936.9994665382602
 10
44.66201717642085
 20
-937.005937146786
 10
44.35098245635557
 20
-937.0125367702065
 10
44.33174558359727
 20
-937.014146024757
  0
LWPOLYLINE
  5
5DC
330
A
100
AcDbEntity
  8
0
  6
Continuous
 62
     7
100
AcDbPolyline
 90
       12
 70
   128
 43
0.0
 10
44.33046403483294
 20
-937.0149956304718
 10
44.41330384641906
 20
-937.019168776966
 10
44.84806883805165
 20
-937.0257360613528
 10
45.64891161085189
 20
-937.0321424653191
 10
46.80410624079288
 20
-937.0382941864246
 10
48.29673839096976
 20
-937.0441011512905
 10
50.10495297098584
 20
-937.0494783344527
 10
52.20227413875357
 20
-937.0543470033014
 10
54.55799295925035
 20
-937.0586358708838
 10
57.1376170441372
 20
-937.0622821396855
 10
59.9033755886261
 20
-937.0652324211112
 10
62.81477241085601
 20
-937.0674435171981
  0
LWPOLYLINE
  5
5EA
330
A
100
AcDbEntity
  8
0
  6
Continuous
 62
     7
100
AcDbPolyline
 90
       14
 70
   128
 43
0.0
 10
69.85000000000496
 20
-917.9266147486512
 10
66.89446526265074
 20
-917.9262307163391
 10
63.98202887705176
 20
-917.9250842194583
 10
61.15516072394565
 20
-917.9231919765152
 10
58.4550829065574
 20
-917.9205815806728
 10
55.9211686395103
 20
-917.9172910973807
 10
53.59036809869586
 20
-917.9133685092946
 10
51.49666960450492
 20
-917.9088710165819
 10
49.67060399558118
 20
-917.9038642028137
 10
48.1387994204444
 20
-917.898421078609
 10
46.92359303912359
 20
-917.8926210169759
 10
46.04270529706485
 20
-917.8865485958734
 10
45.50898152113385
 20
-917.8802923648749
 10
45.33020460582493
 20
-917.8739435539167
  0
LWPOLYLINE
  5
5FA
330
A
100
AcDbEntity
  8
0
  6
Continuous
 62
     7
100
AcDbPolyline
 90
       14
 70
   128
 43
0.0
 10
94.369795394185
 20
-917.873943553916
 10
94.19101847887603
 20
-917.8802923648744
 10
93.65729470294501
 20
-917.8865485958729
 10
92.77640696088623
 20
-917.8926210169754
 10
91.56120057956538
 20
-917.8984210786087
 10
90.02939600442855
 20
-917.9038642028132
 10
88.20333039550479
 20
-917.9088710165814
 10
86.1096319013138
 20
-917.9133685092942
 10
83.77883136049936
 20
-917.9172910973802
 10
81.24491709345221
 20
-917.9205815806724
 10
78.54483927606395
 20
-917.923191976515
 10
75.71797112295783
 20
-917.9250842194582
 10
72.80553473735884
 20
-917.9262307163389
 10
69.85000000000496
 20
-917.9266147486512
  0
LWPOLYLINE
  5
60A
330
A
100
AcDbEntity
  8
0
  6
Continuous
 62
     7
100
AcDbPolyline
 90
       53
 70
   128
 43
0.0
 10
69.85000000000474
 20
-897.9209472643793
 10
66.89446526265053
 20
-897.920563232067
 10
63.98202887705154
 20
-897.9194167351863
 10
61.15516072394544
 20
-897.9175244922432
 10
58.4550829065572
 20
-897.9149140964009
 10
55.92116863951009
 20
-897.9116236131089
 10
53.59036809869565
 20
-897.9077010250227
 10
51.49666960450471
 20
-897.9032035323101
 10
49.67060399558097
 20
-897.8981967185417
 10
48.13879942044419
 20
-897.8927535943372
 10
46.92359303912338
 20
-897.8869535327039
 10
46.04270529706464
 20
-897.8808811116016
 10
45.50898152113364
 20
-897.8746248806031
 10
45.33020460582473
 20
-897.8682760696447
 10
45.50898152113365
 20
-897.8619272586863
 10
46.04270529706467
 20
-897.8556710276878
 10
46.92359303912343
 20
-897.8495986065853
 10
48.13879942044427
 20
-897.8437985449522
 10
49.67060399558106
 20
-897.8383554207475
 10
51.49666960450481
 20
-897.8333486069791
 10
53.59036809869578
 20
-897.8288511142665
 10
55.92116863951021
 20
-897.8249285261803
 10
58.45508290655735
 20
-897.8216380428881
 10
61.15516072394559
 20
-897.8190276470456
 10
63.98202887705171
 20
-897.8171354041025
 10
66.89446526265069
 20
-897.8159889072216
 10
69.85000000000493
 20
-897.8156048749095
 10
72.80553473735915
 20
-897.8159889072216
 10
75.71797112295811
 20
-897.8171354041025
 10
78.54483927606422
 20
-897.8190276470455
 10
81.24491709345246
 20
-897.8216380428877
 10
83.77883136049955
 20
-897.8249285261799
 10
86.10963190131398
 20
-897.8288511142661
 10
88.2033303955049
 20
-897.8333486069789
 10
90.02939600442863
 20
-897.8383554207471
 10
91.5612005795654
 20
-897.8437985449517
 10
92.77640696088619
 20
-897.8495986065849
 10
93.65729470294491
 20
-897.8556710276873
 10
94.1910184788759
 20
-897.8619272586856
 10
94.36979539418478
 20
-897.8682760696441
 10
94.19101847887585
 20
-897.8746248806025
 10
93.65729470294478
 20
-897.880881111601
 10
92.77640696088601
 20
-897.8869535327035
 10
91.56120057956515
 20
-897.8927535943366
 10
90.02939600442834
 20
-897.8981967185413
 10
88.20333039550456
 20
-897.9032035323095
 10
86.10963190131361
 20
-897.9077010250223
 10
83.77883136049915
 20
-897.9116236131083
 10
81.24491709345202
 20
-897.9149140964008
 10
78.54483927606374
 20
-897.917524492243
 10
75.71797112295762
 20
-897.9194167351861
 10
72.80553473735864
 20
-897.920563232067
 10
69.85000000000474
 20
-897.9209472643793
  0
LWPOLYLINE
  5
641
330
A
100
AcDbEntity
  8
0
  6
Continuous
 62
     7
100
AcDbPolyline
 90
       12
 70
   128
 43
0.0
 10
45.36117067598826
 20
-900.4180494208945
 10
45.36612046432057
 20
-900.4372862039314
 10
45.59472331394013
 20
-901.2399580600055
 10
45.95897467444998
 20
-902.7475905383322
 10
46.31976604442216
 20
-904.8811342192953
 10
46.5005911749341
 20
-907.3583906318161
 10
46.42376393129187
 20
-909.7857167517515
 10
46.14209299803195
 20
-911.9641332243244
 10
45.76078803687788
 20
-913.7690103387576
 10
45.43961315887965
 20
-914.9552933556371
 10
45.33020989866041
 20
-915.3161529771132
 10
45.33020989866039
 20
-915.3161529771132
  0
LWPOLYLINE
  5
64F
330
A
100
AcDbEntity
  8
0
  6
Continuous
 62
     7
100
AcDbPolyline
 90
       11
 70
   128
 43
0.0
 10
94.36979010134953
 20
-915.3161529771111
 10
94.24862256823894
 20
-914.9151960371447
 10
93.93872786096595
 20
-913.767053279362
 10
93.55456345238023
 20
-911.9449449072051
 10
93.26138599282122
 20
-909.5989020539063
 10
93.20589525305114
 20
-907.1059137056629
 10
93.39262047068407
 20
-904.7838150730296
 10
93.73873027186149
 20
-902.7584154465076
 10
94.11367706316992
 20
-901.2089552293
 10
94.34469118942775
 20
-900.4010378114674
 10
94.33901968723633
 20
-900.4174322349729
  0
LWPOLYLINE
  5
65C
330
A
100
AcDbEntity
  8
0
  6
Continuous
 62
     7
100
AcDbPolyline
 90
       14
 70
   128
 43
0.0
 10
69.85000000000474
 20
-897.9145029371869
 10
72.60189035504379
 20
-897.9141234152434
 10
75.30859474653322
 20
-897.9129910811527
 10
77.92566916319562
 20
-897.911124527809
 10
80.41014131546239
 20
-897.9085544039671
 10
82.72121623928018
 20
-897.9053229109892
 10
84.82094614829305
 20
-897.9014831099005
 10
86.67485353544519
 20
-897.8970980501289
 10
88.25249729269355
 20
-897.8922397342346
 10
89.52797255316047
 20
-897.8869879356301
 10
90.48033604833149
 20
-897.8814288887035
 10
91.0939499959454
 20
-897.8756538728518
 10
91.35873887194668
 20
-897.8697577136752
 10
91.36979539418472
 20
-897.8682760696441
  0
LWPOLYLINE
  5
66C
330
A
100
AcDbEntity
  8
0
  6
Continuous
 62
     7
100
AcDbPolyline
 90
       14
 70
   128
 43
0.0
 10
48.33020460582479
 20
-897.8682760696445
 10
48.34126112806284
 20
-897.8697577136756
 10
48.60605000406415
 20
-897.8756538728521
 10
49.2196639516781
 20
-897.881428888704
 10
50.17202744684916
 20
-897.8869879356306
 10
51.44750270731612
 20
-897.8922397342349
 10
53.02514646456453
 20
-897.8970980501292
 10
54.87905385171668
 20
-897.9014831099007
 10
56.97878376072958
 20
-897.9053229109894
 10
59.28985868454739
 20
-897.9085544039675
 10
61.77433083681416
 20
-897.9111245278092
 10
64.39140525347659
 20
-897.9129910811527
 10
67.09810964496601
 20
-897.9141234152434
 10
69.85000000000474
 20
-897.9145029371869
  0
LWPOLYLINE
  5
67C
330
A
100
AcDbEntity
  8
0
  6
Continuous
 62
     7
100
AcDbPolyline
 90
       10
 70
   128
 43
0.0
 10
69.85000000000431
 20
-855.8901245668005
 10
67.84960852270905
 20
-855.8905005107551
 10
65.90999792820449
 20
-855.8916169197521
 10
64.0901023029143
 20
-855.8934398722691
 10
62.44521825450133
 20
-855.8959139788161
 10
61.02532475242512
 20
-855.8989640649178
 10
59.87356454224545
 20
-855.9024974552517
 10
59.02493327512987
 20
-855.90640678954
 10
58.50521618270152
 20
-855.9105732846388
 10
58.38676526349106
 20
-855.9124211834868
  0
LWPOLYLINE
  5
688
330
A
100
AcDbEntity
  8
0
  6
Continuous
 62
     7
100
AcDbPolyline
 90
       19
 70
   128
 43
0.0
 10
58.3396716903108
 20
-855.9158733706235
 10
58.50521618270153
 20
-855.9191674027669
 10
59.02493327512988
 20
-855.9233338978657
 10
59.87356454224549
 20
-855.927243232154
 10
61.02532475242516
 20
-855.9307766224877
 10
62.4452182545014
 20
-855.9338267085895
 10
64.09010230291437
 20
-855.9363008151366
 10
65.90999792820454
 20
-855.9381237676536
 10
67.84960852270913
 20
-855.9392401766505
 10
69.85000000000439
 20
-855.939616120605
 10
71.85039147729963
 20
-855.9392401766505
 10
73.79000207180421
 20
-855.9381237676532
 10
75.6098976970944
 20
-855.9363008151363
 10
77.25478174550734
 20
-855.9338267085895
 10
78.67467524758357
 20
-855.9307766224875
 10
79.82643545776321
 20
-855.9272432321538
 10
80.67506672487878
 20
-855.9233338978655
 10
81.19478381730711
 20
-855.9191674027667
 10
81.36020807278605
 20
-855.9158797173745
  0
LWPOLYLINE
  5
69D
330
A
100
AcDbEntity
  8
0
  6
Continuous
 62
     7
100
AcDbPolyline
 90
       10
 70
   128
 43
0.0
 10
81.31384915544904
 20
-855.9124344898766
 10
81.19478381730706
 20
-855.9105732846386
 10
80.67506672487871
 20
-855.9064067895398
 10
79.82643545776309
 20
-855.9024974552514
 10
78.67467524758341
 20
-855.8989640649178
 10
77.25478174550715
 20
-855.8959139788159
 10
75.60989769709419
 20
-855.8934398722689
 10
73.79000207180398
 20
-855.8916169197519
 10
71.85039147729941
 20
-855.8905005107551
 10
69.85000000000431
 20
-855.8901245668005
  0
LWPOLYLINE
  5
6A9
330
A
100
AcDbEntity
  8
0
  6
Continuous
 62
     7
100
AcDbPolyline
 90
       16
 70
   128
 43
0.0
 10
62.10000188075547
 20
-855.9114047688323
 10
62.20209630628263
 20
-855.9140980898211
 10
62.65043216859825
 20
-855.9175667700669
 10
63.43541182096548
 20
-855.9207473219837
 10
64.52033048728186
 20
-855.9234910264986
 10
65.85445857651095
 20
-855.9256695910377
 10
67.37541374197724
 20
-855.9271811483451
 10
69.01207781056378
 20
-855.9279550196803
 10
70.68792218944494
 20
-855.9279550196803
 10
72.32458625803149
 20
-855.9271811483451
 10
73.84554142349775
 20
-855.9256695910377
 10
75.17966951272682
 20
-855.9234910264985
 10
76.26458817904318
 20
-855.9207473219837
 10
77.04956783141041
 20
-855.9175667700669
 10
77.497903693726
 20
-855.9140980898209
 10
77.59999811925315
 20
-855.9114047688321
  0
LINE
  5
6BB
330
A
100
AcDbEntity
  8
0
  6
Continuous
 62
     7
100
AcDbLine
 10
102.8500000000048
 20
-901.8147959035916
 30
0.0
 11
98.85000000000481
 21
-901.8147959035916
 31
0.0
  0
LINE
  5
6BC
330
A
100
AcDbEntity
  8
0
  6
Continuous
 62
     7
100
AcDbLine
 10
103.8500000000054
 20
-915.3161529771125
 30
0.0
 11
103.8500000000053
 21
-900.3161529771125
 31
0.0
  0
LINE
  5
6BD
330
A
100
AcDbEntity
  8
0
  6
Continuous
 62
     7
100
AcDbLine
 10
35.85000000000544
 20
-915.3161529771132
 30
0.0
 11
35.8500000000053
 21
-900.3161529771132
 31
0.0
  0
LINE
  5
6BE
330
A
100
AcDbEntity
  8
0
  6
Continuous
 62
     7
100
AcDbLine
 10
40.85000000000478
 20
-901.8147959035923
 30
0.0
 11
36.8500000000048
 21
-901.8147959035923
 31
0.0
  0
LWPOLYLINE
  5
6BF
330
A
100
AcDbEntity
  8
0
  6
Continuous
 62
     7
100
AcDbPolyline
 90
       30
 70
   128
 43
0.0
 10
69.85000000000422
 20
-846.9208715067704
 10
68.18397949267468
 20
-846.9212607240464
 10
66.59586025261909
 20
-846.9224101765073
 10
65.15990097043465
 20
-846.9242661170335
 10
63.9432455062022
 20
-846.9267417639086
 10
63.00278331721385
 20
-846.9297213586365
 10
62.38248937017801
 20
-846.9330655786789
 10
62.1113679206509
 20
-846.9366180520237
 10
62.20209630628254
 20
-846.9402126689656
 10
62.65043216859815
 20
-846.9436813492114
 10
63.43541182096539
 20
-846.9468619011282
 10
64.52033048728178
 20
-846.9496056056431
 10
65.85445857651085
 20
-846.9517841701824
 10
67.37541374197714
 20
-846.9532957274896
 10
69.0120778105637
 20
-846.954069598825
 10
70.68792218944484
 20
-846.954069598825
 10
72.32458625803139
 20
-846.9532957274896
 10
73.84554142349765
 20
-846.9517841701824
 10
75.17966951272673
 20
-846.949605605643
 10
76.26458817904309
 20
-846.9468619011282
 10
77.04956783141032
 20
-846.9436813492114
 10
77.4979036937259
 20
-846.9402126689656
 10
77.58863207935752
 20
-846.9366180520237
 10
77.3175106298304
 20
-846.9330655786787
 10
76.69721668279454
 20
-846.9297213586363
 10
75.75675449380615
 20
-846.9267417639086
 10
74.5400990295737
 20
-846.9242661170333
 10
73.10413974738924
 20
-846.9224101765073
 10
71.51602050733365
 20
-846.9212607240464
 10
69.85000000000422
 20
-846.9208715067704
  0
LINE
  5
6DF
330
A
100
AcDbEntity
  8
0
  6
Continuous
 62
     7
100
AcDbLine
 10
98.85000000000452
 20
-856.9209179771107
 30
0.0
 11
98.85000000000481
 21
-901.8147959035916
 31
0.0
  0
ARC
  5
6E0
330
A
100
AcDbEntity
  8
0
  6
Continuous
 62
     7
100
AcDbCircle
 10
69.85000000000454
 20
-856.9209179771098
 30
0.0
 40
29.00000000000022
100
AcDbArc
 50
360.0000000000008
 51
180.0000000000004
  0
LINE
  5
6E1
330
A
100
AcDbEntity
  8
0
  6
Continuous
 62
     7
100
AcDbLine
 10
40.85000000000478
 20
-901.8147959035923
 30
0.0
 11
40.85000000000433
 21
-856.9209179771116
 31
0.0
  0
ARC
  5
6E2
330
A
100
AcDbEntity
  8
0
  6
Continuous
 62
     7
100
AcDbCircle
 10
69.85000000000454
 20
-856.9209179771098
 30
0.0
 40
32.99999999999998
100
AcDbArc
 50
360.0000000000008
 51
180.0000000000004
  0
LINE
  5
6E3
330
A
100
AcDbEntity
  8
0
  6
Continuous
 62
     7
100
AcDbLine
 10
36.85000000000457
 20
-856.9209179771116
 30
0.0
 11
36.8500000000048
 21
-901.8147959035923
 31
0.0
  0
LINE
  5
6E4
330
A
100
AcDbEntity
  8
0
  6
Continuous
 62
     7
100
AcDbLine
 10
102.8500000000048
 20
-901.8147959035916
 30
0.0
 11
102.8500000000043
 21
-856.9209179771108
 31
0.0
  0
LWPOLYLINE
  5
6E5
330
A
100
AcDbEntity
  8
0
  6
Continuous
 62
     7
100
AcDbPolyline
 90
       13
 70
   128
 43
0.0
 10
1.066613678064293
 20
-1030.276252213508
 10
-0.4025678629919067
 20
-1026.684780952546
 10
-1.884332339124716
 20
-1022.222584702662
 10
-3.024250054025595
 20
-1017.67799732779
 10
-3.816888780667382
 20
-1013.072675856365
 10
-4.258471234551905
 20
-1008.42856674245
 10
-4.346893074190893
 20
-1003.767801280889
 10
-4.081732929251346
 20
-999.1125901416067
 10
-3.464254408577185
 20
-994.4851175256539
 10
-2.497400078517592
 20
-989.9074354473848
 10
-1.18577744025837
 20
-985.4013586465674
 10
0.4643630270195071
 20
-980.9883606312135
 10
1.24038011572794
 20
-979.203367140383
  0
LWPOLYLINE
  5
6F4
330
A
100
AcDbEntity
  8
0
  6
Continuous
 62
     7
100
AcDbPolyline
 90
       14
 70
   128
 43
0.0
 10
138.7972688410562
 20
-979.9618857202332
 10
139.2356369729919
 20
-980.9883606312132
 10
140.8857774402698
 20
-985.4013586465669
 10
142.1974000785291
 20
-989.9074354473841
 10
143.1642544085887
 20
-994.4851175256532
 10
143.7817329292629
 20
-999.1125901416062
 10
144.0468930742024
 20
-1003.767801280888
 10
143.9584712345635
 20
-1008.428566742449
 10
143.516888780679
 20
-1013.072675856364
 10
142.7242500540372
 20
-1017.677997327789
 10
141.5843323391363
 20
-1022.222584702661
 10
140.1025678630036
 20
-1026.684780952545
 10
138.2860179081595
 20
-1031.043321680237
 10
138.2632223449078
 20
-1031.092739548405
  0
LWPOLYLINE
  5
704
330
A
100
AcDbEntity
  8
0
  6
Continuous
 62
     7
100
AcDbPolyline
 90
        7
 70
   128
 43
0.0
 10
138.6461514306479
 20
-1030.37177881467
 10
140.1025678630043
 20
-1026.809013808201
 10
141.584332339137
 20
-1022.346817558317
 10
142.7242500540378
 20
-1017.802230183446
 10
143.5168887806795
 20
-1013.19690871202
 10
143.9584712345639
 20
-1008.552799598105
 10
144.0579482744733
 20
-1005.057572750533
  0
LWPOLYLINE
  5
70D
330
A
100
AcDbEntity
  8
0
  6
Continuous
 62
     7
100
AcDbPolyline
 90
        7
 70
   128
 43
0.0
 10
-4.357948274461592
 20
-1005.057572750535
 10
-4.258471234551891
 20
-1008.552799598108
 10
-3.816888780667285
 20
-1013.196908712023
 10
-3.024250054025428
 20
-1017.802230183448
 10
-1.884332339124481
 20
-1022.34681755832
 10
-0.4025678629915875
 20
-1026.809013808204
 10
1.412115261652052
 20
-1031.163502612255
  0
ARC
  5
716
330
A
100
AcDbEntity
  8
0
  6
Continuous
 62
     7
100
AcDbCircle
 10
69.84999999999999
 20
-444.6608529771142
 30
0.0
 40
7.250000000000024
100
AcDbArc
 50
313.2041268501398
 51
320.6178770339441
  0
ARC
  5
717
330
A
100
AcDbEntity
  8
0
  6
Continuous
 62
     7
100
AcDbCircle
 10
69.84999999999999
 20
-444.6608529771142
 30
0.0
 40
7.250000000000015
100
AcDbArc
 50
219.3821229660588
 51
226.7958731498671
  0
ARC
  5
718
330
A
100
AcDbEntity
  8
0
  6
Continuous
 62
     7
100
AcDbCircle
 10
69.84999999999999
 20
-530.6608529771141
 30
0.0
 40
115.0000000000001
100
AcDbArc
 50
92.69140268013641
 51
266.5102735791551
  0
ARC
  5
719
330
A
100
AcDbEntity
  8
0
  6
Continuous
 62
     7
100
AcDbCircle
 10
69.84999999999999
 20
-530.6608529771141
 30
0.0
 40
115.0000000000001
100
AcDbArc
 50
273.4897264208486
 51
87.30859731986388
  0
LWPOLYLINE
  5
71A
330
A
100
AcDbEntity
  8
0
  6
PHANTOM
 62
     7
100
AcDbPolyline
 90
        9
 70
   128
 43
0.0
 10
74.34999999999989
 20
-433.9530696351089
 10
73.48102270007015
 20
-434.6577887054199
 10
72.39709916885887
 20
-435.1932490602044
 10
71.16239460093415
 20
-435.5277529672341
 10
69.85000000000036
 20
-435.641498745246
 10
68.53760539906656
 20
-435.5277529672344
 10
67.30290083114176
 20
-435.193249060205
 10
66.21897729993031
 20
-434.6577887054208
 10
65.34999999999989
 20
-433.9530696351107
  0
LWPOLYLINE
  5
725
330
A
100
AcDbEntity
  8
0
  6
PHANTOM
 62
     7
100
AcDbPolyline
 90
        9
 70
   128
 43
0.0
 10
67.84999999999984
 20
-431.549333710613
 10
68.28525075288514
 20
-431.7863255724403
 10
68.77533758673649
 20
-431.9617990882923
 10
69.30308558272843
 20
-432.0696048512012
 10
69.84999999999985
 20
-432.1059648465402
 10
70.39691441727129
 20
-432.0696048512012
 10
70.92466241326322
 20
-431.9617990882922
 10
71.41474924711459
 20
-431.7863255724403
 10
71.84999999999988
 20
-431.549333710613
  0
LINE
  5
730
330
A
100
AcDbEntity
  8
0
  6
PHANTOM
 62
     7
100
AcDbLine
 10
71.84999999999988
 20
-431.549333710613
 30
0.0
 11
71.84999999999982
 21
-428.5124616673029
 31
0.0
  0
LINE
  5
731
330
A
100
AcDbEntity
  8
0
  6
PHANTOM
 62
     7
100
AcDbLine
 10
67.84999999999981
 20
-428.5124616673045
 30
0.0
 11
67.84999999999984
 21
-431.549333710613
 31
0.0
  0
LWPOLYLINE
  5
732
330
A
100
AcDbEntity
  8
0
  6
PHANTOM
 62
     7
100
AcDbPolyline
 90
        9
 70
   128
 43
0.0
 10
71.84999999999982
 20
-428.5124616673029
 10
71.41474924711447
 20
-428.2754698054756
 10
70.92466241326301
 20
-428.0999962896236
 10
70.39691441727099
 20
-427.9921905267147
 10
69.84999999999946
 20
-427.9558305313758
 10
69.30308558272793
 20
-427.9921905267147
 10
68.77533758673596
 20
-428.0999962896238
 10
68.28525075288457
 20
-428.2754698054758
 10
67.84999999999981
 20
-428.5124616673045
  0
LWPOLYLINE
  5
73D
330
A
100
AcDbEntity
  8
0
  6
PHANTOM
 62
     7
100
AcDbPolyline
 90
        9
 70
   128
 43
0.0
 10
69.3643536341958
 20
-443.7218900225254
 10
69.47198138699822
 20
-443.7276323969559
 10
69.59129959388656
 20
-443.7318658429153
 10
69.71861826719546
 20
-443.7344594385286
 10
69.84999999999999
 20
-443.7353329752836
 10
69.98138173280451
 20
-443.7344594385285
 10
70.10870040611341
 20
-443.7318658429153
 10
70.22801861300175
 20
-443.7276323969558
 10
70.33564636580419
 20
-443.7218900225254
  0
LWPOLYLINE
  5
748
330
A
100
AcDbEntity
  8
0
  6
PHANTOM
 62
     7
100
AcDbPolyline
 90
        7
 70
   128
 43
0.0
 10
69.35860869837359
 20
-405.9701110299707
 10
67.96601220302889
 20
-405.746076783974
 10
66.70520115613263
 20
-405.2717859964429
 10
65.66436962639961
 20
-404.5804154343557
 10
64.91632405669839
 20
-403.7203266527686
 10
64.5133904339708
 20
-402.7516830911523
 10
64.45029228016619
 20
-402.1283848254581
  0
LWPOLYLINE
  5
751
330
A
100
AcDbEntity
  8
0
  6
PHANTOM
 62
     7
100
AcDbPolyline
 90
        7
 70
   128
 43
0.0
 10
75.24987632686677
 20
-402.1420879421528
 10
75.18660956602833
 20
-402.7516830911523
 10
74.78367594330075
 20
-403.7203266527684
 10
74.03563037359953
 20
-404.5804154343556
 10
72.99479884386653
 20
-405.2717859964429
 10
71.73398779697027
 20
-405.746076783974
 10
70.34139130162564
 20
-405.9701110299707
  0
LWPOLYLINE
  5
75A
330
A
100
AcDbEntity
  8
0
  6
PHANTOM
 62
     7
100
AcDbPolyline
 90
       18
 70
   128
 43
0.0
 10
69.84999999999951
 20
-398.3501260281918
 10
68.80239736184832
 20
-398.488567744333
 10
67.89627926494604
 20
-398.8851955718596
 10
67.25402197925307
 20
-399.4864427248735
 10
66.96236591007269
 20
-400.2111074437346
 10
67.06070082566981
 20
-400.961319742655
 10
67.53574605080044
 20
-401.6357592935956
 10
68.32334409549424
 20
-402.1433392980034
 10
69.31712547958387
 20
-402.415508263685
 10
70.38287452041529
 20
-402.415508263685
 10
71.37665590450492
 20
-402.1433392980033
 10
72.1642539491987
 20
-401.6357592935955
 10
72.63929917432929
 20
-400.9613197426549
 10
72.73763408992637
 20
-400.2111074437345
 10
72.44597802074597
 20
-399.4864427248734
 10
71.80372073505298
 20
-398.8851955718595
 10
70.89760263815069
 20
-398.488567744333
 10
69.84999999999951
 20
-398.3501260281918
  0
LINE
  5
76E
330
A
100
AcDbEntity
  8
0
  6
PHANTOM
 62
     7
100
AcDbLine
 10
64.45011399260988
 20
-408.3298461053037
 30
0.0
 11
64.84999999999961
 21
-408.3298461053051
 31
0.0
  0
LINE
  5
76F
330
A
100
AcDbEntity
  8
0
  6
PHANTOM
 62
     7
100
AcDbLine
 10
74.84999999999963
 20
-408.329846105305
 30
0.0
 11
75.24988600738935
 21
-408.329846105305
 31
0.0
  0
LWPOLYLINE
  5
770
330
A
100
AcDbEntity
  8
0
  6
PHANTOM
 62
     7
100
AcDbPolyline
 90
       46
 70
   128
 43
0.0
 10
96.70624022464714
 20
-949.8045852904409
 10
97.55362542180732
 20
-950.7620167631065
 10
99.58096103965868
 20
-953.4124869140121
 10
101.3032167648247
 20
-956.2359918257659
 10
102.702719922981
 20
-959.2035585171602
 10
103.7651097178944
 20
-962.2847357381825
 10
104.4794845926261
 20
-965.4479064410459
 10
104.8385140942576
 20
-968.6606122138851
 10
104.8385140942576
 20
-971.8898863479852
 10
104.4794845926262
 20
-975.1025921208244
 10
103.7651097178946
 20
-978.2657628236878
 10
102.7027199229812
 20
-981.34694004471
 10
101.303216764825
 20
-984.3145067361046
 10
99.58096103965893
 20
-987.1380116478583
 10
97.5536254218076
 20
-989.7884817987639
 10
95.2420131181336
 20
-992.2387197784141
 10
92.66984439898385
 20
-994.463582829436
 10
89.86351319611726
 20
-996.4402408462051
 10
86.85181626524808
 20
-998.148410642624
 10
83.66565769236414
 20
-999.570564085058
 10
80.33773177598467
 20
-1000.692107954707
 10
76.90218753941502
 20
-1001.501533693776
 10
73.39427831555652
 20
-1001.990535498856
 10
69.8500000000056
 20
-1002.154095549701
 10
66.30572168445468
 20
-1001.990535498856
 10
62.79781246059618
 20
-1001.501533693777
 10
59.36226822402652
 20
-1000.692107954707
 10
56.03434230764704
 20
-999.5705640850582
 10
52.84818373476309
 20
-998.148410642624
 10
49.8364868038939
 20
-996.4402408462053
 10
47.03015560102729
 20
-994.4635828294362
 10
44.45798688187752
 20
-992.2387197784145
 10
42.14637457820351
 20
-989.7884817987641
 10
40.11903896035218
 20
-987.1380116478585
 10
38.3967832351861
 20
-984.3145067361048
 10
36.99728007702984
 20
-981.3469400447102
 10
35.93489028211645
 20
-978.2657628236881
 10
35.22051540738483
 20
-975.1025921208247
 10
34.86148590575337
 20
-971.8898863479855
 10
34.86148590575337
 20
-968.6606122138854
 10
35.22051540738483
 20
-965.4479064410462
 10
35.93489028211646
 20
-962.2847357381827
 10
36.99728007702986
 20
-959.2035585171606
 10
38.39678323518612
 20
-956.2359918257662
 10
40.1190389603522
 20
-953.4124869140123
 10
41.97397268246304
 20
-950.966386953076
  0
LWPOLYLINE
  5
7A0
330
A
100
AcDbEntity
  8
0
  6
PHANTOM
 62
     7
100
AcDbPolyline
 90
       62
 70
   128
 43
0.0
 10
69.85000000000582
 20
-1000.012585383952
 10
73.26505102577823
 20
-999.852400779871
 10
76.64390166111243
 20
-999.3735449642782
 10
79.95073524871438
 20
-998.5810939279451
 10
83.1504985299118
 20
-997.4834478489952
 10
86.20927321791626
 20
-996.0922420489282
 10
89.09463554010102
 20
-994.4222236553159
 10
91.77599993805698
 20
-992.4910952785825
 10
94.22494328212055
 20
-990.3193273599297
 10
96.41550616361904
 20
-987.9299411795679
 10
98.32446807106043
 20
-985.3482648254184
 10
99.93159353333179
 20
-982.6016647090808
 10
101.2198466207271
 20
-979.7192554750624
 10
102.1755715300403
 20
-976.7315913783031
 10
102.7886373394761
 20
-973.670342401472
 10
103.0525453989417
 20
-970.5679585452733
 10
102.964498217354
 20
-967.4573258503651
 10
102.5254291167414
 20
-964.371417797148
 10
101.7399923387982
 20
-961.3429457786702
 10
100.6165137087641
 20
-958.4040123517226
 10
99.16690237960628
 20
-955.5857709417521
 10
97.40652459203474
 20
-952.9180956088008
 10
95.35404078852847
 20
-950.4292643750373
 10
93.03120780800265
 20
-948.1456594706884
 10
90.46264825790393
 20
-946.0914876758343
 10
87.67558950844604
 20
-944.2885237225183
 10
84.69957507571212
 20
-942.755879477171
 10
81.5661514530347
 20
-941.5098013500697
 10
78.30853371031858
 20
-940.5634980793497
 10
74.96125340603673
 20
-939.9270007150933
 10
71.55979254412025
 20
-939.6070562877035
 10
68.14020745588965
 20
-939.6070562877035
 10
64.73874659397319
 20
-939.9270007150935
 10
61.39146628969136
 20
-940.56349807935
 10
58.13384854697526
 20
-941.5098013500701
 10
55.00042492429791
 20
-942.7558794771716
 10
52.02441049156405
 20
-944.2885237225191
 10
49.2373517421062
 20
-946.091487675835
 10
46.66879219200757
 20
-948.1456594706893
 10
44.34595921148182
 20
-950.4292643750382
 10
42.29347540797561
 20
-952.9180956088016
 10
40.53309762040419
 20
-955.5857709417532
 10
39.08348629124646
 20
-958.4040123517237
 10
37.96000766121247
 20
-961.3429457786711
 10
37.17457088326928
 20
-964.3714177971492
 10
36.73550178265687
 20
-967.4573258503663
 10
36.64745460106928
 20
-970.5679585452744
 10
36.91136266053494
 20
-973.6703424014732
 10
37.52442846997086
 20
-976.731591378304
 10
38.48015337928416
 20
-979.7192554750635
 10
39.76840646667962
 20
-982.6016647090819
 10
41.37553192895109
 20
-985.3482648254193
 10
43.28449383639256
 20
-987.9299411795688
 10
45.47505671789114
 20
-990.3193273599306
 10
47.92400006195481
 20
-992.4910952785833
 10
50.60536445991083
 20
-994.4222236553166
 10
53.49072678209566
 20
-996.0922420489287
 10
56.54950147010018
 20
-997.4834478489958
 10
59.74926475129765
 20
-998.5810939279454
 10
63.05609833889963
 20
-999.3735449642784
 10
66.43494897423384
 20
-999.8524007798712
 10
69.85000000000582
 20
-1000.012585383952
  0
LWPOLYLINE
  5
7E0
330
A
100
AcDbEntity
  8
0
  6
PHANTOM
 62
     7
100
AcDbPolyline
 90
       61
 70
   128
 43
0.0
 10
69.85000000000581
 20
-999.6127369142179
 10
66.42416945636324
 20
-999.4493636603404
 10
63.03587302905794
 20
-998.9610338502656
 10
59.72223360279408
 20
-998.1530977275822
 10
56.51955610454945
 20
-997.0344072095215
 10
53.46292973919815
 20
-995.617218903501
 10
50.58584354483918
 20
-993.9170598211667
 10
47.9198194798869
 20
-991.9525572612061
 10
45.49406706189836
 20
-989.7452347247646
 10
43.33516334198637
 20
-987.3192760994633
 10
41.4667617210859
 20
-984.7012606956656
 10
39.90933279834375
 20
-981.9198720379905
 10
38.67994009095042
 20
-979.0055836026144
 10
37.79205308267507
 20
-975.9903249434893
 10
37.25539964938267
 20
-972.9071318654682
 10
37.07585947839032
 20
-969.7897844771132
 10
37.25539964938263
 20
-966.6724370887584
 10
37.79205308267498
 20
-963.5892440107371
 10
38.67994009095028
 20
-960.5739853516121
 10
39.90933279834358
 20
-957.6596969162359
 10
41.4667617210857
 20
-954.8783082585607
 10
43.33516334198613
 20
-952.260292854763
 10
45.4940670618981
 20
-949.8343342294619
 10
47.9198194798866
 20
-947.6270116930203
 10
50.58584354483884
 20
-945.6625091330597
 10
53.4629297391978
 20
-943.9623500507252
 10
56.51955610454908
 20
-942.5451617447047
 10
59.7222336027937
 20
-941.4264712266442
 10
63.03587302905754
 20
-940.6185351039606
 10
66.42416945636284
 20
-940.1302052938858
 10
69.85000000000541
 20
-939.9668320400083
 10
73.27583054364797
 20
-940.1302052938856
 10
76.66412697095328
 20
-940.6185351039606
 10
79.97776639721712
 20
-941.426471226644
 10
83.18044389546175
 20
-942.5451617447045
 10
86.23707026081303
 20
-943.9623500507252
 10
89.114156455172
 20
-945.6625091330595
 10
91.78018052012424
 20
-947.6270116930201
 10
94.20593293811277
 20
-949.8343342294615
 10
96.36483665802476
 20
-952.2602928547629
 10
98.23323827892519
 20
-954.8783082585606
 10
99.79066720166732
 20
-957.6596969162357
 10
101.0200599090606
 20
-960.5739853516118
 10
101.9079469173359
 20
-963.5892440107369
 10
102.4446003506283
 20
-966.6724370887582
 10
102.6241405216206
 20
-969.789784477113
 10
102.4446003506283
 20
-972.9071318654678
 10
101.9079469173359
 20
-975.9903249434891
 10
101.0200599090606
 20
-979.0055836026141
 10
99.79066720166731
 20
-981.9198720379901
 10
98.23323827892515
 20
-984.7012606956653
 10
96.36483665802472
 20
-987.319276099463
 10
94.20593293811274
 20
-989.7452347247643
 10
91.7801805201242
 20
-991.9525572612059
 10
89.11415645517195
 20
-993.9170598211665
 10
86.237070260813
 20
-995.6172189035008
 10
83.18044389546171
 20
-997.0344072095214
 10
79.97776639721708
 20
-998.153097727582
 10
76.66412697095323
 20
-998.9610338502656
 10
73.27583054364794
 20
-999.4493636603403
 10
69.85000000000581
 20
-999.6127369142179
  0
LWPOLYLINE
  5
81F
330
A
100
AcDbEntity
  8
0
  6
PHANTOM
 62
     7
100
AcDbPolyline
 90
       48
 70
   128
 43
0.0
 10
49.60300757702094
 20
-991.6158943689429
 10
48.79378312442494
 20
-990.959561390823
 10
46.4886306459627
 20
-988.8053770729239
 10
44.44817181701131
 20
-986.4404373195153
 10
42.69552585142881
 20
-983.8915378429849
 10
41.25055092832701
 20
-981.1875586928904
 10
40.12961919096734
 20
-978.3591370334578
 10
39.34543124383569
 20
-975.4383200122685
 10
38.90687224971867
 20
-972.4582016532716
 10
38.81891125725889
 20
-969.4525478882694
 10
39.08254489964837
 20
-966.455413975418
 10
39.69478610237615
 20
-963.5007586395436
 10
40.64869792797619
 20
-960.6220593062221
 10
41.93347217430059
 20
-957.8519327891701
 10
43.53455183576876
 20
-955.2217657287121
 10
45.4337960400573
 20
-952.7613589686046
 10
47.60968559143212
 20
-950.498589900568
 10
50.03756679183483
 20
-948.4590966022999
 10
52.68993077713273
 20
-946.66598734781
 10
55.53672520354155
 20
-945.1395787814417
 10
58.5456947526887
 20
-943.8971657221742
 10
61.68274659725915
 20
-942.9528252064114
 10
64.91233668635159
 20
-942.3172569895367
 10
68.19787247377788
 20
-941.9976623134072
 10
71.502127526233
 20
-941.9976623134072
 10
74.78766331365929
 20
-942.3172569895367
 10
78.01725340275175
 20
-942.9528252064114
 10
81.1543052473222
 20
-943.897165722174
 10
84.16327479646936
 20
-945.1395787814417
 10
87.01006922287817
 20
-946.66598734781
 10
89.66243320817607
 20
-948.4590966022999
 10
92.09031440857879
 20
-950.4985899005678
 10
94.26620395995364
 20
-952.7613589686042
 10
96.16544816424218
 20
-955.2217657287117
 10
97.76652782571035
 20
-957.8519327891699
 10
99.05130207203477
 20
-960.622059306222
 10
100.0052138976348
 20
-963.5007586395433
 10
100.6174551003626
 20
-966.4554139754176
 10
100.8810887427521
 20
-969.4525478882692
 10
100.7931277502923
 20
-972.4582016532714
 10
100.3545687561753
 20
-975.4383200122683
 10
99.57038080904368
 20
-978.3591370334576
 10
98.44944907168404
 20
-981.1875586928902
 10
97.00447414858224
 20
-983.8915378429847
 10
95.25182818299972
 20
-986.4404373195149
 10
93.21136935404837
 20
-988.8053770729239
 10
90.90621687558614
 20
-990.9595613908228
 10
89.94011136658427
 20
-991.7379065401663
  0
LWPOLYLINE
  5
851
330
A
100
AcDbEntity
  8
0
  6
PHANTOM
 62
     7
100
AcDbPolyline
 90
        4
 70
   128
 43
0.0
 10
43.32767042979068
 20
-945.6064740441686
 10
42.84773973215806
 20
-945.5984411670472
 10
42.97268210178605
 20
-945.2563334511044
 10
43.06467926548959
 20
-945.1788472720929
  0
LWPOLYLINE
  5
857
330
A
100
AcDbEntity
  8
0
  6
PHANTOM
 62
     7
100
AcDbPolyline
 90
        4
 70
   128
 43
0.0
 10
96.67301159520398
 20
-945.2313534518239
 10
96.79043372467649
 20
-945.3329271894617
 10
96.78556213629239
 20
-945.6317962987597
 10
96.24348539199594
 20
-945.5557672724475
  0
LWPOLYLINE
  5
85D
330
A
100
AcDbEntity
  8
0
  6
PHANTOM
 62
     7
100
AcDbPolyline
 90
       58
 70
   128
 43
0.0
 10
69.85000000000522
 20
-943.9484237753845
 10
66.62565476263644
 20
-944.1102973462562
 10
63.44044870863551
 20
-944.5939531330008
 10
60.33304592470353
 20
-945.3935202095445
 10
57.34116607123807
 20
-946.4992929147003
 10
54.50112651675236
 20
-947.8978486657473
 10
51.84740149421831
 20
-949.5722108904013
 10
49.41220363057832
 20
-951.5020550994064
 10
47.22509292909051
 20
-953.6639555983013
 10
45.31261795093228
 20
-956.0316698436178
 10
43.69799355163121
 20
-958.5764569918081
 10
42.40081908416664
 20
-961.2674267741533
 10
41.4368404893745
 20
-964.0719144627801
 10
40.81775916155552
 20
-966.9558773762084
 10
40.55108990939968
 20
-969.8843081113885
 10
40.64006973638838
 20
-972.821659486153
 10
41.08361854795727
 20
-975.7322760338537
 10
41.87635226238101
 20
-978.5808268124272
 10
43.00864816623206
 20
-981.3327342741709
 10
44.46676172108636
 20
-983.9545939903317
 10
46.23299340360094
 20
-986.414580135621
 10
48.2859035537509
 20
-988.6828318106202
 10
50.60057262325922
 20
-990.7318155126501
 10
53.14890366515588
 20
-992.5366593551949
 10
55.89996339265297
 20
-994.0754549789126
 10
58.82035766734294
 20
-995.3295234894385
 10
61.87463685880199
 20
-996.2836421938616
 10
65.02572615508203
 20
-996.9262293835933
 10
68.23537560070488
 20
-997.2494849206222
 10
71.4646243993071
 20
-997.2494849206222
 10
74.67427384492996
 20
-996.9262293835932
 10
77.82536314120996
 20
-996.2836421938614
 10
80.87964233266898
 20
-995.3295234894381
 10
83.80003660735891
 20
-994.075454978912
 10
86.55109633485594
 20
-992.5366593551945
 10
89.09942737675255
 20
-990.7318155126494
 10
91.41409644626078
 20
-988.6828318106195
 10
93.46700659641067
 20
-986.4145801356203
 10
95.23323827892516
 20
-983.9545939903308
 10
96.69135183377937
 20
-981.3327342741699
 10
97.82364773763035
 20
-978.5808268124263
 10
98.61638145205397
 20
-975.7322760338526
 10
99.05993026362274
 20
-972.8216594861518
 10
99.14891009061134
 20
-969.8843081113874
 10
98.88224083845539
 20
-966.9558773762075
 10
98.26315951063634
 20
-964.0719144627793
 10
97.29918091584409
 20
-961.2674267741525
 10
96.0020064483794
 20
-958.5764569918071
 10
94.38738204907823
 20
-956.0316698436169
 10
92.47490707091992
 20
-953.6639555983006
 10
90.28779636943204
 20
-951.5020550994057
 10
87.85259850579198
 20
-949.5722108904006
 10
85.19887348325786
 20
-947.8978486657466
 10
82.35883392877211
 20
-946.4992929146998
 10
79.3669540753066
 20
-945.393520209544
 10
76.25955129137458
 20
-944.5939531330006
 10
73.07434523737362
 20
-944.1102973462561
 10
69.85000000000522
 20
-943.9484237753845
  0
LWPOLYLINE
  5
899
330
A
100
AcDbEntity
  8
0
  6
PHANTOM
 62
     7
100
AcDbPolyline
 90
       41
 70
   128
 43
0.0
 10
69.85000000000536
 20
-957.4248743815646
 10
72.11829974308873
 20
-957.587318472901
 10
74.33074641844211
 20
-958.0706508342608
 10
76.43286224622882
 20
-958.8629702188191
 10
78.37288615824625
 20
-959.9447670937706
 10
80.10304832721034
 20
-961.2894040297764
 10
81.58074641844214
 20
-962.8637716028775
 10
82.76959460073676
 20
-964.6291036583981
 10
83.64031948628516
 20
-966.5419318623298
 10
84.17148093863495
 20
-968.5551560359792
 10
84.35000000000547
 20
-970.6192039186829
 10
84.17148093863499
 20
-972.6832518013864
 10
83.64031948628522
 20
-974.6964759750358
 10
82.76959460073683
 20
-976.6093041789675
 10
81.58074641844224
 20
-978.3746362344881
 10
80.10304832721045
 20
-979.9490038075893
 10
78.37288615824639
 20
-981.293640743595
 10
76.43286224622896
 20
-982.3754376185467
 10
74.33074641844228
 20
-983.1677570031049
 10
72.1182997430889
 20
-983.6510893644646
 10
69.85000000000555
 20
-983.8135334558014
 10
67.5817002569222
 20
-983.6510893644646
 10
65.36925358156882
 20
-983.1677570031049
 10
63.26713775378213
 20
-982.3754376185467
 10
61.32711384176468
 20
-981.293640743595
 10
59.5969516728006
 20
-979.9490038075893
 10
58.11925358156881
 20
-978.3746362344881
 10
56.93040539927421
 20
-976.6093041789675
 10
56.05968051372582
 20
-974.6964759750358
 10
55.52851906137605
 20
-972.6832518013866
 10
55.35000000000556
 20
-970.6192039186829
 10
55.52851906137606
 20
-968.5551560359792
 10
56.05968051372583
 20
-966.5419318623301
 10
56.93040539927423
 20
-964.6291036583983
 10
58.11925358156883
 20
-962.8637716028777
 10
59.59695167280063
 20
-961.2894040297765
 10
61.32711384176471
 20
-959.9447670937708
 10
63.26713775378215
 20
-958.8629702188192
 10
65.36925358156884
 20
-958.0706508342608
 10
67.58170025692223
 20
-957.587318472901
 10
69.85000000000536
 20
-957.4248743815646
  0
LWPOLYLINE
  5
8C4
330
A
100
AcDbEntity
  8
0
  6
PHANTOM
 62
     7
100
AcDbPolyline
 90
        5
 70
   128
 43
0.0
 10
77.16090486168555
 20
-938.0695060803805
 10
73.11466360252769
 20
-937.8011969616515
 10
69.4406207357799
 20
-937.7342418267097
 10
65.68072431975844
 20
-937.8439005988733
 10
62.53909513835116
 20
-938.0695060803818
  0
LWPOLYLINE
  5
8CB
330
A
100
AcDbEntity
  8
0
  6
PHANTOM
 62
     7
100
AcDbPolyline
 90
       10
 70
   128
 43
0.0
 10
77.1609048616848
 20
-938.0695060803853
 10
80.14483142318846
 20
-938.7256461481602
 10
84.13002846539624
 20
-939.9264106543736
 10
87.67633753491285
 20
-941.2715637633896
 10
90.36159185595998
 20
-942.4269921218463
 10
92.6232364283388
 20
-943.448087842899
 10
94.35384107548841
 20
-944.2052521987889
 10
95.57943832659221
 20
-944.664118677603
 10
96.28297410721733
 20
-944.7641709310754
 10
96.27683711718512
 20
-944.6073987639758
  0
LWPOLYLINE
  5
8D7
330
A
100
AcDbEntity
  8
0
  6
PHANTOM
 62
     7
100
AcDbPolyline
 90
       11
 70
   128
 43
0.0
 10
43.39128498409782
 20
-944.6380017998897
 10
43.35559658027327
 20
-944.7291591332078
 10
43.82768405746001
 20
-944.7422201841936
 10
45.06750554851049
 20
-944.3179668955464
 10
46.9838074430656
 20
-943.4899932094069
 10
49.10056825998462
 20
-942.5333352331959
 10
51.6034922631969
 20
-941.4458974931642
 10
52.50746316142622
 20
-941.0743642017674
 10
54.95725262642145
 20
-940.1407429722423
 10
57.62286591245288
 20
-939.2628578047107
 10
62.53909513835115
 20
-938.0695060803821
  0
LWPOLYLINE
  5
8E4
330
A
100
AcDbEntity
  8
0
  6
PHANTOM
 62
     7
100
AcDbPolyline
 90
        9
 70
   128
 43
0.0
 10
62.53909513835115
 20
-938.0695060803821
 10
62.54439219984154
 20
-937.874376532571
 10
62.56007982121023
 20
-937.6866663520422
 10
62.58555513596576
 20
-937.5135891357638
 10
62.61983914204877
 20
-937.3617961440947
 10
62.66161432433223
 20
-937.2371206965786
 10
62.70927528598874
 20
-937.1443540007444
 10
62.76099044299042
 20
-937.0870610286891
 10
62.81477241085601
 20
-937.0674435171981
  0
LWPOLYLINE
  5
8EF
330
A
100
AcDbEntity
  8
0
  6
PHANTOM
 62
     7
100
AcDbPolyline
 90
        5
 70
   128
 43
0.0
 10
62.81477241085601
 20
-937.0674435171981
 10
65.85716251670366
 20
-937.0690075938538
 10
69.36022524694617
 20
-937.0698090236642
 10
72.9741725646064
 20
-937.0693175005133
 10
76.88522758917973
 20
-937.0674435171981
  0
LWPOLYLINE
  5
8F6
330
A
100
AcDbEntity
  8
0
  6
PHANTOM
 62
     7
100
AcDbPolyline
 90
        9
 70
   128
 43
0.0
 10
77.1609048616848
 20
-938.0695060803853
 10
77.15560780019455
 20
-937.8743765325738
 10
77.13992017882595
 20
-937.6866663520441
 10
77.11444486407045
 20
-937.5135891357652
 10
77.08016085798739
 20
-937.3617961440958
 10
77.03838567570388
 20
-937.2371206965793
 10
76.99072471404726
 20
-937.1443540007446
 10
76.93900955704544
 20
-937.0870610286891
 10
76.88522758917972
 20
-937.0674435171981
  0
LWPOLYLINE
  5
901
330
A
100
AcDbEntity
  8
0
  6
PHANTOM
 62
     7
100
AcDbPolyline
 90
       13
 70
   128
 43
0.0
 10
96.36979539418513
 20
-938.0147461405757
 10
96.36439401738911
 20
-938.0158958458746
 10
96.1257888170051
 20
-938.02245616749
 10
95.53659649938717
 20
-938.0289136173656
 10
94.60467841696006
 20
-938.0351820363852
 10
93.34246877203419
 20
-938.0411777875947
 10
91.76680871232324
 20
-938.0468208721348
 10
89.89872162638922
 20
-938.0520359966332
 10
87.76313263715662
 20
-938.0567535778141
 10
85.38853603617816
 20
-938.060910670919
 10
82.80661509594208
 20
-938.0644518095524
 10
80.05181933290883
 20
-938.067329745748
 10
77.1609048616848
 20
-938.0695060803853
  0
LWPOLYLINE
  5
910
330
A
100
AcDbEntity
  8
0
  6
PHANTOM
 62
     7
100
AcDbPolyline
 90
       13
 70
   128
 43
0.0
 10
62.53909513835115
 20
-938.0695060803821
 10
59.64818066712457
 20
-938.0673297457512
 10
56.89338490408864
 20
-938.0644518095552
 10
54.31146396384978
 20
-938.0609106709213
 10
51.93686736286855
 20
-938.0567535778164
 10
49.80127837363319
 20
-938.0520359966352
 10
47.93319128769658
 20
-938.0468208721364
 10
46.35753122798319
 20
-938.0411777875959
 10
45.09532158305515
 20
-938.0351820363859
 10
44.16340350062614
 20
-938.0289136173658
 10
43.57421118300663
 20
-938.02245616749
 10
43.33560598262143
 20
-938.0158958458741
 10
43.33020460582519
 20
-938.0147461405764
  0
LINE
  5
91F
330
A
100
AcDbEntity
  8
0
  6
PHANTOM
 62
     7
100
AcDbLine
 10
95.36960527551066
 20
-937.0149600506081
 30
0.0
 11
95.36790606617953
 21
-937.0140814021054
 31
0.0
  0
LINE
  5
920
330
A
100
AcDbEntity
  8
0
  6
PHANTOM
 62
     7
100
AcDbLine
 10
44.33174558359727
 20
-937.014146024757
 30
0.0
 11
44.33046403483294
 21
-937.0149956304718
 31
0.0
  0
LWPOLYLINE
  5
921
330
A
100
AcDbEntity
  8
0
  6
PHANTOM
 62
     7
100
AcDbPolyline
 90
        3
 70
   128
 43
0.0
 10
58.38676526349106
 20
-855.9124211834868
 10
58.33020460582432
 20
-855.9148703437029
 10
58.3396716903108
 20
-855.9158733706235
  0
LWPOLYLINE
  5
926
330
A
100
AcDbEntity
  8
0
  6
PHANTOM
 62
     7
100
AcDbPolyline
 90
        3
 70
   128
 43
0.0
 10
81.36020807278605
 20
-855.9158797173745
 10
81.36979539418431
 20
-855.9148703437028
 10
81.31384915544904
 20
-855.9124344898766
  0
LWPOLYLINE
  5
92B
330
A
100
AcDbEntity
  8
0
  6
PHANTOM
 62
     7
100
AcDbPolyline
 90
       26
 70
   128
 43
0.0
 10
91.36979539333855
 20
-865.9148468619592
 10
91.27035485031148
 20
-865.919286115513
 10
90.83024919423229
 20
-865.9251337175527
 10
90.04564842641414
 20
-865.9308124164381
 10
88.9294356697732
 20
-865.9362289680895
 10
87.49993910691411
 20
-865.9412944328797
 10
85.78063103187847
 20
-865.9459256360163
 10
83.79974243572553
 20
-865.9500465332719
 10
81.58979945443949
 20
-865.9535894596274
 10
79.1870892906759
 20
-865.9564962403301
 10
76.63106437889725
 20
-865.9587191461213
 10
73.96369457748981
 20
-865.960221676949
 10
71.22877802484929
 20
-865.9609791612991
 10
68.47122197515921
 20
-865.9609791612991
 10
65.73630542251869
 20
-865.9602216769492
 10
63.06893562111127
 20
-865.9587191461213
 10
60.51291070933264
 20
-865.9564962403303
 10
58.11020054556908
 20
-865.9535894596276
 10
55.90025756428306
 20
-865.9500465332722
 10
53.91936896813014
 20
-865.9459256360166
 10
52.20006089309453
 20
-865.9412944328801
 10
50.77056433023548
 20
-865.9362289680901
 10
49.65435157359458
 20
-865.9308124164384
 10
48.86975080577648
 20
-865.9251337175531
 10
48.4296451496973
 20
-865.9192861155133
 10
48.33020461125581
 20
-865.9148483104059
  0
LWPOLYLINE
  5
947
330
A
100
AcDbEntity
  8
0
  6
PHANTOM
 62
     7
100
AcDbPolyline
 90
       19
 70
   128
 43
0.0
 10
69.85000000000657
 20
-1072.459141536723
 10
64.73030872465409
 20
-1072.29824593877
 10
59.6350151097233
 20
-1071.816325885708
 10
54.58840054967332
 20
-1071.015677946056
 10
49.61451446109849
 20
-1069.900117571857
 10
44.73705967630619
 20
-1068.474960916319
 10
39.97927948852667
 20
-1066.746999499918
 10
35.36384688703594
 20
-1064.724467845713
 10
30.91275651003659
 20
-1062.417004238092
 10
26.64721983019048
 20
-1059.835604791957
 10
22.58756407229182
 20
-1056.992571051234
 10
18.75313534478412
 20
-1053.901451366407
 10
15.16220644674322
 20
-1050.576976330462
 10
11.83188978966835
 20
-1047.034988580904
 10
8.778055849048358
 20
-1043.292367302371
 10
6.015257534318668
 20
-1039.366947789635
 10
3.55666083762042
 20
-1035.277436454302
 10
1.413982091852186
 20
-1031.043321680238
 10
1.066613678064293
 20
-1030.276252213508
  0
LWPOLYLINE
  5
95C
330
A
100
AcDbEntity
  8
0
  6
PHANTOM
 62
     7
100
AcDbPolyline
 90
       18
 70
   128
 43
0.0
 10
138.2632223449078
 20
-1031.092739548405
 10
136.1433391623913
 20
-1035.277436454302
 10
133.684742465693
 20
-1039.366947789635
 10
130.9219441509634
 20
-1043.29236730237
 10
127.8681102103434
 20
-1047.034988580903
 10
124.5377935532686
 20
-1050.576976330462
 10
120.9468646552277
 20
-1053.901451366407
 10
117.11243592772
 20
-1056.992571051234
 10
113.0527801698214
 20
-1059.835604791957
 10
108.7872434899753
 20
-1062.417004238091
 10
104.336153112976
 20
-1064.724467845712
 10
99.72072051148535
 20
-1066.746999499917
 10
94.96294032370585
 20
-1068.474960916319
 10
90.08548553891357
 20
-1069.900117571856
 10
85.11159945033877
 20
-1071.015677946055
 10
80.06498489028883
 20
-1071.816325885708
 10
74.96969127535805
 20
-1072.29824593877
 10
69.85000000000657
 20
-1072.459141536723
  0
LWPOLYLINE
  5
970
330
A
100
AcDbEntity
  8
0
  6
PHANTOM
 62
     7
100
AcDbPolyline
 90
       19
 70
   128
 43
0.0
 10
69.85000000000657
 20
-1072.58337439238
 10
74.96969127535907
 20
-1072.422478794428
 10
80.06498489028988
 20
-1071.940558741366
 10
85.11159945033984
 20
-1071.139910801713
 10
90.08548553891465
 20
-1070.024350427514
 10
94.96294032370695
 20
-1068.599193771976
 10
99.72072051148645
 20
-1066.871232355575
 10
104.3361531129771
 20
-1064.84870070137
 10
108.7872434899764
 20
-1062.541237093748
 10
113.0527801698225
 20
-1059.959837647614
 10
117.1124359277211
 20
-1057.116803906891
 10
120.9468646552288
 20
-1054.025684222064
 10
124.5377935532696
 20
-1050.701209186119
 10
127.8681102103444
 20
-1047.15922143656
 10
130.9219441509643
 20
-1043.416600158026
 10
133.6847424656939
 20
-1039.491180645291
 10
136.1433391623921
 20
-1035.401669309958
 10
138.2860179081603
 20
-1031.167554535894
 10
138.6461514306479
 20
-1030.37177881467
  0
LWPOLYLINE
  5
985
330
A
100
AcDbEntity
  8
0
  6
PHANTOM
 62
     7
100
AcDbPolyline
 90
       19
 70
   128
 43
0.0
 10
1.412115261652052
 20
-1031.163502612255
 10
1.413982091852561
 20
-1031.167554535896
 10
3.556660837620878
 20
-1035.401669309961
 10
6.015257534319196
 20
-1039.491180645293
 10
8.778055849048962
 20
-1043.416600158029
 10
11.831889789669
 20
-1047.159221436562
 10
15.16220644674393
 20
-1050.70120918612
 10
18.75313534478489
 20
-1054.025684222065
 10
22.58756407229264
 20
-1057.116803906892
 10
26.64721983019133
 20
-1059.959837647615
 10
30.91275651003748
 20
-1062.541237093749
 10
35.36384688703686
 20
-1064.848700701371
 10
39.97927948852762
 20
-1066.871232355576
 10
44.73705967630715
 20
-1068.599193771976
 10
49.61451446109947
 20
-1070.024350427514
 10
54.58840054967431
 20
-1071.139910801713
 10
59.63501510972428
 20
-1071.940558741366
 10
64.73030872465509
 20
-1072.422478794427
 10
69.85000000000657
 20
-1072.58337439238
  0
ARC
  5
99A
330
A
100
AcDbEntity
  8
0
  6
PHANTOM
 62
     7
100
AcDbCircle
 10
69.84999999999999
 20
-444.6608529771142
 30
0.0
 40
12.88057611510199
100
AcDbArc
 50
290.4483739090482
 51
51.60420727185391
  0
ARC
  5
99B
330
A
100
AcDbEntity
  8
0
  6
PHANTOM
 62
     7
100
AcDbCircle
 10
69.84999999999999
 20
-444.6608529771142
 30
0.0
 40
12.88057611510194
100
AcDbArc
 50
128.3957927281473
 51
137.813077727323
  0
ARC
  5
99C
330
A
100
AcDbEntity
  8
0
  6
PHANTOM
 62
     7
100
AcDbCircle
 10
69.84999999999999
 20
-444.6608529771142
 30
0.0
 40
12.880576115102
100
AcDbArc
 50
216.1597248430128
 51
249.5516260909547
  0
ARC
  5
99D
330
A
100
AcDbEntity
  8
0
  6
PHANTOM
 62
     7
100
AcDbCircle
 10
69.84999999999999
 20
-444.6608529771142
 30
0.0
 40
13.86853598087131
100
AcDbArc
 50
288.9338007104787
 51
54.77103661291129
  0
ARC
  5
99E
330
A
100
AcDbEntity
  8
0
  6
PHANTOM
 62
     7
100
AcDbCircle
 10
69.84999999999999
 20
-444.6608529771142
 30
0.0
 40
13.86853598087134
100
AcDbArc
 50
213.230284336939
 51
251.0661992895243
  0
ARC
  5
99F
330
A
100
AcDbEntity
  8
0
  6
PHANTOM
 62
     7
100
AcDbCircle
 10
69.84999999999999
 20
-444.6608529771142
 30
0.0
 40
13.86853598087134
100
AcDbArc
 50
125.2289633870897
 51
136.1417878958862
  0
ARC
  5
9A0
330
A
100
AcDbEntity
  8
0
  6
PHANTOM
 62
     7
100
AcDbCircle
 10
69.84999999999999
 20
-444.6608529771142
 30
0.0
 40
19.73526235791231
100
AcDbArc
 50
293.9140507651781
 51
74.12007962986551
  0
ARC
  5
9A1
330
A
100
AcDbEntity
  8
0
  6
PHANTOM
 62
     7
100
AcDbCircle
 10
69.84999999999999
 20
-444.6608529771142
 30
0.0
 40
19.73526235791234
100
AcDbArc
 50
105.8799203701356
 51
120.4447473980063
  0
ARC
  5
9A2
330
A
100
AcDbEntity
  8
0
  6
PHANTOM
 62
     7
100
AcDbCircle
 10
69.84999999999999
 20
-444.6608529771142
 30
0.0
 40
19.73526235791233
100
AcDbArc
 50
139.4695613206067
 51
220.5304386793951
  0
ARC
  5
9A3
330
A
100
AcDbEntity
  8
0
  6
PHANTOM
 62
     7
100
AcDbCircle
 10
69.84999999999999
 20
-444.6608529771142
 30
0.0
 40
19.73526235791227
100
AcDbArc
 50
239.5552526019955
 51
246.0859492348248
  0
ARC
  5
9A4
330
A
100
AcDbEntity
  8
0
  6
PHANTOM
 62
     7
100
AcDbCircle
 10
69.84999999999999
 20
-444.6608529771142
 30
0.0
 40
21.71118208945103
100
AcDbArc
 50
242.57467564959
 51
248.3784816863373
  0
ARC
  5
9A5
330
A
100
AcDbEntity
  8
0
  6
PHANTOM
 62
     7
100
AcDbCircle
 10
69.84999999999999
 20
-444.6608529771142
 30
0.0
 40
21.71118208945109
100
AcDbArc
 50
133.700460554278
 51
226.2995394457238
  0
ARC
  5
9A6
330
A
100
AcDbEntity
  8
0
  6
PHANTOM
 62
     7
100
AcDbCircle
 10
69.84999999999999
 20
-444.6608529771142
 30
0.0
 40
21.71118208945116
100
AcDbArc
 50
104.4017807380968
 51
122.0606530392485
  0
ARC
  5
9A7
330
A
100
AcDbEntity
  8
0
  6
PHANTOM
 62
     7
100
AcDbCircle
 10
69.84999999999999
 20
-444.6608529771142
 30
0.0
 40
21.71118208945112
100
AcDbArc
 50
291.6215183136655
 51
75.59821926190429
  0
ARC
  5
9A8
330
A
100
AcDbEntity
  8
0
  6
PHANTOM
 62
     7
100
AcDbCircle
 10
69.84999999999999
 20
-530.6608529771141
 30
0.0
 40
113.5
100
AcDbArc
 50
273.5359044077999
 51
87.27300141462533
  0
ARC
  5
9A9
330
A
100
AcDbEntity
  8
0
  6
PHANTOM
 62
     7
100
AcDbCircle
 10
69.84999999999999
 20
-530.6608529771141
 30
0.0
 40
113.5000000000001
100
AcDbArc
 50
92.72699858537496
 51
266.4640955922038
  0
LINE
  5
9AA
330
A
100
AcDbEntity
  8
0
  6
Continuous
 62
     7
100
AcDbLine
 10
562.5707209794663
 20
319.3461610835929
 30
0.0
 11
562.5707209794681
 21
34.34616108359323
 31
0.0
  0
LINE
  5
9AB
330
A
100
AcDbEntity
  8
0
  6
Continuous
 62
     7
100
AcDbLine
 10
930.730738979466
 20
372.8461760835953
 30
0.0
 11
645.7307089794659
 21
372.8461760835934
 31
0.0
  0
ARC
  5
9AC
330
A
100
AcDbEntity
  8
0
  6
Continuous
 62
     7
100
AcDbCircle
 10
554.9307314794669
 20
-25.77551152082746
 30
0.0
 40
14.63998250000009
100
AcDbArc
 50
0.0
 51
2.434065493499635
  0
ARC
  5
9AD
330
A
100
AcDbEntity
  8
0
  6
Continuous
 62
     7
100
AcDbCircle
 10
554.9307314794669
 20
-25.77551152082746
 30
0.0
 40
25.43999250000075
100
AcDbArc
 50
0.0
 51
12.59342285796436
  0
LINE
  5
9AE
330
A
100
AcDbEntity
  8
0
  6
Continuous
 62
     7
100
AcDbLine
 10
535.3347017334499
 20
14.5109074158205
 30
0.0
 11
557.4111854573597
 21
-7.555497019439444
 31
0.0
  0
LINE
  5
9AF
330
A
100
AcDbEntity
  8
0
  6
Continuous
 62
     7
100
AcDbLine
 10
528.660799310435
 20
21.18176278705952
 30
0.0
 11
529.5430351284937
 21
20.29992976455364
 31
0.0
  0
LINE
  5
9B0
330
A
100
AcDbEntity
  8
0
  6
Continuous
 62
     7
100
AcDbLine
 10
540.1822126576927
 20
24.93564403948357
 30
0.0
 11
537.5200836829476
 21
27.59655758668622
 31
0.0
  0
LINE
  5
9B1
330
A
100
AcDbEntity
  8
0
  6
Continuous
 62
     7
100
AcDbLine
 10
564.1939995166255
 20
0.9348200555163721
 30
0.0
 11
547.9619229432614
 21
17.15948567579539
 31
0.0
  0
ARC
  5
9B2
330
A
100
AcDbEntity
  8
0
  6
Continuous
 62
     7
100
AcDbCircle
 10
530.4281625773747
 20
22.94993333388795
 30
0.0
 40
2.500000000000099
100
AcDbArc
 50
135.0130825307068
 51
225.0130825307122
  0
ARC
  5
9B3
330
A
100
AcDbEntity
  8
0
  6
Continuous
 62
     7
100
AcDbCircle
 10
534.5284524261288
 20
27.05209607521264
 30
0.0
 40
2.500000000000057
100
AcDbArc
 50
50.5745538648938
 51
135.0130825307078
  0
LINE
  5
9B4
330
A
100
AcDbEntity
  8
0
  6
Continuous
 62
     7
100
AcDbLine
 10
580.3707239794675
 20
-51.39430591640653
 30
0.0
 11
580.3707239794675
 21
-25.77551152082636
 31
0.0
  0
LINE
  5
9B5
330
A
100
AcDbEntity
  8
0
  6
Continuous
 62
     7
100
AcDbLine
 10
569.5707139794669
 20
-25.77551152082647
 30
0.0
 11
569.5707139794669
 21
-51.39430591640653
 31
0.0
  0
LINE
  5
9B6
330
A
100
AcDbEntity
  8
0
  6
Continuous
 62
     7
100
AcDbLine
 10
645.7307089794659
 20
371.2461870835934
 30
0.0
 11
611.0561022642845
 21
371.2461870835932
 31
0.0
  0
LINE
  5
9B7
330
A
100
AcDbEntity
  8
0
  6
Continuous
 62
     7
100
AcDbLine
 10
611.0560534032258
 20
360.4461780835932
 30
0.0
 11
645.7307089794661
 21
360.4461780835935
 31
0.0
  0
LINE
  5
9B8
330
A
100
AcDbEntity
  8
0
  6
Continuous
 62
     7
100
AcDbLine
 10
564.170745979379
 20
34.34616108359323
 30
0.0
 11
564.1707459793792
 21
0.9251850340625811
 31
0.0
  0
LINE
  5
9B9
330
A
100
AcDbEntity
  8
0
  6
Continuous
 62
     7
100
AcDbLine
 10
574.9707189794683
 20
-0.3283760882263897
 30
0.0
 11
574.9707189794679
 21
34.34616108359334
 31
0.0
  0
LINE
  5
9BA
330
A
100
AcDbEntity
  8
0
  6
Continuous
 62
     7
100
AcDbLine
 10
584.5707199794664
 20
34.34616108359348
 30
0.0
 11
584.5707199794664
 21
319.3461610835935
 31
0.0
  0
LINE
  5
9BB
330
A
100
AcDbEntity
  8
0
  6
Continuous
 62
     7
100
AcDbLine
 10
645.7307089794658
 20
350.8462120843875
 30
0.0
 11
930.7307389794663
 21
350.8462120843889
 31
0.0
  0
ARC
  5
9BC
330
A
100
AcDbEntity
  8
0
  6
Continuous
 62
     7
100
AcDbCircle
 10
560.0333504535577
 20
400.8984640716874
 30
0.0
 40
2.500000000000218
100
AcDbArc
 50
134.9963365563182
 51
224.9963365563191
  0
ARC
  5
9BD
330
A
100
AcDbEntity
  8
0
  6
Continuous
 62
     7
100
AcDbCircle
 10
564.1834847687219
 20
405.0480677086254
 30
0.0
 40
2.499999999999937
100
AcDbArc
 50
44.99633655630445
 51
134.9963365563136
  0
LINE
  5
9BE
330
A
100
AcDbEntity
  8
0
  6
Continuous
 62
     7
100
AcDbLine
 10
558.2654704746819
 20
399.1308101518586
 30
0.0
 11
558.565817601806
 21
398.8304246143962
 31
0.0
  0
LWPOLYLINE
  5
9BF
330
A
100
AcDbEntity
  8
0
  6
Continuous
 62
     7
100
AcDbPolyline
 90
       10
 70
   128
 43
0.0
 10
561.462046883371
 20
322.6646541336549
 10
561.4634900482931
 20
322.6642122464381
 10
561.4989131292059
 20
322.6536011571635
 10
561.5327756083488
 20
322.6429029947287
 10
561.6021430792007
 20
322.6193030771361
 10
561.9208944076787
 20
322.4798828277122
 10
562.5547132278923
 20
322.0072055871441
 10
563.0073558779558
 20
321.3640507792856
 10
563.241140736161
 20
320.5873198783216
 10
563.2288573996593
 20
320.2585076249337
  0
LINE
  5
9CB
330
A
100
AcDbEntity
  8
0
  6
Continuous
 62
     7
100
AcDbLine
 10
569.8309997749738
 20
402.9355904481907
 30
0.0
 11
565.9513647475988
 21
406.8157216284542
 31
0.0
  0
LINE
  5
9CC
330
A
100
AcDbEntity
  8
0
  6
Continuous
 62
     7
100
AcDbLine
 10
594.7235253678773
 20
378.0398814376654
 30
0.0
 11
577.6086559528871
 21
395.1569396131607
 31
0.0
  0
LWPOLYLINE
  5
9CD
330
A
100
AcDbEntity
  8
0
  6
Continuous
 62
     7
100
AcDbPolyline
 90
       15
 70
   128
 43
0.0
 10
566.2436980991343
 20
339.7695672620359
 10
565.8946497169721
 20
339.2367908479865
 10
565.2964889406486
 20
338.6102650980691
 10
564.6750542953281
 20
338.143669760293
 10
564.0772338996096
 20
337.8185198733597
 10
563.5450814071821
 20
337.610362087665
 10
563.1150252312104
 20
337.4908582240652
 10
562.8137248212247
 20
337.4311386424016
 10
562.6511033562376
 20
337.4068098985223
 10
562.6206565938472
 20
337.4028611253552
 10
562.6061609471213
 20
337.4010481698117
 10
562.5952282242772
 20
337.3997096301663
 10
562.5842452807372
 20
337.3983903399499
 10
562.5713029606405
 20
337.3968704059752
 10
562.5619395424723
 20
337.3958098975773
  0
LWPOLYLINE
  5
9DE
330
A
100
AcDbEntity
  8
0
  6
Continuous
 62
     7
100
AcDbPolyline
 90
        5
 70
   128
 43
0.0
 10
574.1307549794661
 20
329.1019997510343
 10
574.3145792697595
 20
330.9683061801401
 10
574.8589984360636
 20
332.7628810123451
 10
575.7430873594769
 20
334.4167485501247
 10
576.9328654842309
 20
335.8663412759893
  0
LINE
  5
9E5
330
A
100
AcDbEntity
  8
0
  6
Continuous
 62
     7
100
AcDbLine
 10
563.2619539794665
 20
320.2558622028304
 30
0.0
 11
563.2619539794665
 21
319.3461610835929
 31
0.0
  0
LINE
  5
9E6
330
A
100
AcDbEntity
  8
0
  6
Continuous
 62
     7
100
AcDbLine
 10
569.2479540597743
 20
343.5522354967604
 30
0.0
 11
566.2431479754461
 21
339.7298379222108
 31
0.0
  0
LINE
  5
9E7
330
A
100
AcDbEntity
  8
0
  6
Continuous
 62
     7
100
AcDbLine
 10
565.6380316465295
 20
391.7573061290714
 30
0.0
 11
587.0376310949583
 21
370.3549699610706
 31
0.0
  0
LINE
  5
9E8
330
A
100
AcDbEntity
  8
0
  6
Continuous
 62
     7
100
AcDbLine
 10
587.0370546253925
 20
361.3390614720052
 30
0.0
 11
569.2479540597743
 21
343.5522354967604
 31
0.0
  0
LINE
  5
9E9
330
A
100
AcDbEntity
  8
0
  6
Continuous
 62
     7
100
AcDbLine
 10
574.1307549794661
 20
319.3461610835929
 30
0.0
 11
574.1307548335579
 21
329.1019997510343
 31
0.0
  0
LINE
  5
9EA
330
A
100
AcDbEntity
  8
0
  6
Continuous
 62
     7
100
AcDbLine
 10
576.9328653810597
 20
335.866341379172
 30
0.0
 11
594.7219661019877
 21
353.6531671990867
 31
0.0
  0
LINE
  5
9EB
330
A
100
AcDbEntity
  8
0
  6
Continuous
 62
     7
100
AcDbLine
 10
930.7307389794663
 20
361.3462200835952
 30
0.0
 11
954.230783979465
 21
361.3462200835954
 31
0.0
  0
LINE
  5
9EC
330
A
100
AcDbEntity
  8
0
  6
Continuous
 62
     7
100
AcDbLine
 10
933.7307259794895
 20
370.3462160835953
 30
0.0
 11
930.730738979466
 21
370.3462160835953
 31
0.0
  0
LINE
  5
9ED
330
A
100
AcDbEntity
  8
0
  6
Continuous
 62
     7
100
AcDbLine
 10
954.2307839794629
 20
370.3462200835954
 30
0.0
 11
947.7307479794662
 21
370.3461980835958
 31
0.0
  0
LINE
  5
9EE
330
A
100
AcDbEntity
  8
0
  6
Continuous
 62
     7
100
AcDbLine
 10
938.8462346259936
 20
377.1493483818504
 30
0.0
 11
574.0451989776365
 21
404.7058010378513
 31
0.0
  0
LINE
  5
9EF
330
A
100
AcDbEntity
  8
0
  6
Continuous
 62
     7
100
AcDbLine
 10
577.5925850758155
 20
402.9335640579656
 30
0.0
 11
936.3816656017588
 21
375.8312443141873
 31
0.0
  0
LINE
  5
9F0
330
A
100
AcDbEntity
  8
0
  6
Continuous
 62
     7
100
AcDbLine
 10
537.5200836829472
 20
27.59655758668661
 30
0.0
 11
557.1008975854598
 21
325.7339634041301
 31
0.0
  0
LINE
  5
9F1
330
A
100
AcDbEntity
  8
0
  6
Continuous
 62
     7
100
AcDbLine
 10
555.8362099254936
 20
329.3660331477607
 30
0.0
 11
536.1079535019294
 21
28.98366800674934
 31
0.0
  0
ARC
  5
9F2
330
A
100
AcDbEntity
  8
0
  6
Continuous
 62
     7
100
AcDbCircle
 10
573.6315065956432
 20
399.2292104448802
 30
0.0
 40
5.492193178498694
100
AcDbArc
 50
85.68017770120377
 51
130.3676498743824
  0
ARC
  5
9F3
330
A
100
AcDbEntity
  8
0
  6
Continuous
 62
     7
100
AcDbCircle
 10
1200.949100016714
 20
368.1237729530556
 30
0.0
 40
2.000000000000321
100
AcDbArc
 50
24.5010375508992
 51
114.5010375508678
  0
ARC
  5
9F4
330
A
100
AcDbEntity
  8
0
  6
Continuous
 62
     7
100
AcDbCircle
 10
1069.537311777745
 20
308.2330968183772
 30
0.0
 40
2.000000000000416
100
AcDbArc
 50
114.5010375508737
 51
204.5010375509059
  0
ARC
  5
9F5
330
A
100
AcDbEntity
  8
0
  6
Continuous
 62
     7
100
AcDbCircle
 10
1201.073332872372
 20
367.8511819126196
 30
0.0
 40
2.000000000000063
100
AcDbArc
 50
294.501037550872
 51
24.50103755088294
  0
ARC
  5
9F6
330
A
100
AcDbEntity
  8
0
  6
Continuous
 62
     7
100
AcDbCircle
 10
1069.661544633402
 20
307.9605057779413
 30
0.0
 40
2.000000000000091
100
AcDbArc
 50
204.5010375508698
 51
294.5010375508716
  0
LINE
  5
9F7
330
A
100
AcDbEntity
  8
0
  6
Continuous
 62
     7
100
AcDbLine
 10
1200.119680575145
 20
369.9436804754171
 30
0.0
 11
1132.463961552054
 21
428.7537488373287
 31
0.0
  0
LINE
  5
9F8
330
A
100
AcDbEntity
  8
0
  6
Continuous
 62
     7
100
AcDbLine
 10
1068.707381090943
 20
338.2850602079055
 30
0.0
 11
1068.707892336175
 21
310.0530043407388
 31
0.0
  0
LINE
  5
9F9
330
A
100
AcDbEntity
  8
0
  6
Continuous
 62
     7
100
AcDbLine
 10
1068.706269014523
 20
399.6962999887074
 30
0.0
 11
1068.706386065231
 21
393.232509427184
 31
0.0
  0
ARC
  5
9FA
330
A
100
AcDbEntity
  8
0
  6
Continuous
 62
     7
100
AcDbCircle
 10
1131.151870827875
 20
427.244305916406
 30
0.0
 40
2.000000000000002
100
AcDbArc
 50
49.00103755088452
 51
114.5010375508791
  0
ARC
  5
9FB
330
A
100
AcDbEntity
  8
0
  6
Continuous
 62
     7
100
AcDbCircle
 10
1070.706269014195
 20
399.6963362060652
 30
0.0
 40
2.000000000000105
100
AcDbArc
 50
114.5010375508778
 51
180.0000000000004
  0
LWPOLYLINE
  5
9FC
330
A
100
AcDbEntity
  8
0
  6
Continuous
 62
     7
100
AcDbPolyline
 90
        6
 70
   128
 43
0.0
 10
1068.785728894612
 20
393.223173512423
 10
1068.780911391626
 20
393.0930601204302
 10
1068.686523953051
 20
392.8047886399485
 10
1068.476950242701
 20
392.525796620141
 10
1068.170881062021
 20
392.3302971500331
 10
1068.058734707248
 20
392.3058266765861
  0
LWPOLYLINE
  5
A04
330
A
100
AcDbEntity
  8
0
  6
Continuous
 62
     7
100
AcDbPolyline
 90
        5
 70
   128
 43
0.0
 10
1067.995984961505
 20
339.2534194031112
 10
1068.199842716543
 20
339.1909960103311
 10
1068.477027549857
 20
338.978260345973
 10
1068.634624959763
 20
338.7482501127732
 10
1068.672348567199
 20
338.6427444241914
  0
LINE
  5
A0B
330
A
100
AcDbEntity
  8
0
  6
Continuous
 62
     7
100
AcDbLine
 10
1048.236480751004
 20
390.3461636250255
 30
0.0
 11
1028.230813266732
 21
390.389138079831
 31
0.0
  0
LINE
  5
A0C
330
A
100
AcDbEntity
  8
0
  6
Continuous
 62
     7
100
AcDbLine
 10
1028.125470877263
 20
341.3496604350723
 30
0.0
 11
1048.131138361535
 21
341.3066859802668
 31
0.0
  0
ARC
  5
A0D
330
A
100
AcDbEntity
  8
0
  6
Continuous
 62
     7
100
AcDbCircle
 10
996.1999674972645
 20
354.4182700500087
 30
0.0
 40
10.00000000000001
100
AcDbArc
 50
179.8769223220407
 51
269.8769223220427
  0
ARC
  5
A0E
330
A
100
AcDbEntity
  8
0
  6
Continuous
 62
     7
100
AcDbCircle
 10
996.2494590510688
 20
377.4578076816797
 30
0.0
 40
10.00000000000012
100
AcDbArc
 50
89.87692232204185
 51
179.8769223220436
  0
LINE
  5
A0F
330
A
100
AcDbEntity
  8
0
  6
Continuous
 62
     7
100
AcDbLine
 10
1028.22436893954
 20
387.3891450013977
 30
0.0
 11
996.2709401417093
 21
387.4577846097903
 31
0.0
  0
LINE
  5
A10
330
A
100
AcDbEntity
  8
0
  6
Continuous
 62
     7
100
AcDbLine
 10
996.178486406624
 20
344.4182931218981
 30
0.0
 11
1028.131915204455
 21
344.3496535135055
 31
0.0
  0
LINE
  5
A11
330
A
100
AcDbEntity
  8
0
  6
Continuous
 62
     7
100
AcDbLine
 10
1067.370841317661
 20
387.3050539152428
 30
0.0
 11
1048.230036423812
 21
387.3461705465922
 31
0.0
  0
LINE
  5
A12
330
A
100
AcDbEntity
  8
0
  6
Continuous
 62
     7
100
AcDbLine
 10
1048.137582688727
 20
344.3066790587
 30
0.0
 11
1067.278387582575
 21
344.2655624273505
 31
0.0
  0
LINE
  5
A13
330
A
100
AcDbEntity
  8
0
  6
Continuous
 62
     7
100
AcDbLine
 10
1071.275642524001
 20
306.4982139877023
 30
0.0
 11
1102.440208519284
 21
237.7416847731999
 31
0.0
  0
LINE
  5
A14
330
A
100
AcDbEntity
  8
0
  6
Continuous
 62
     7
100
AcDbLine
 10
1105.172629841362
 20
238.9801813289694
 30
0.0
 11
1074.005509613068
 21
307.7423457959144
 31
0.0
  0
LWPOLYLINE
  5
A15
330
A
100
AcDbEntity
  8
0
  6
Continuous
 62
     7
100
AcDbPolyline
 90
        9
 70
   128
 43
0.0
 10
1067.987595206563
 20
339.2245673414922
 10
1067.836721234376
 20
339.2825323155301
 10
1067.697155887572
 20
339.3640455487715
 10
1067.572545016937
 20
339.4669776796499
 10
1067.466143819058
 20
339.5886398230023
 10
1067.380731801168
 20
339.7258538115321
 10
1067.318540172373
 20
339.8750352187363
 10
1067.28119355801
 20
340.0322869945009
 10
1067.269624486201
 20
340.1861251639473
  0
LINE
  5
A20
330
A
100
AcDbEntity
  8
0
  6
Continuous
 62
     7
100
AcDbLine
 10
986.2379186123918
 20
372.0961897103321
 30
0.0
 11
977.2640331915365
 21
372.1154666394199
 31
0.0
  0
LINE
  5
A21
330
A
100
AcDbEntity
  8
0
  6
Continuous
 62
     7
100
AcDbLine
 10
977.2307375091239
 20
356.6155061623421
 30
0.0
 11
986.2046229299792
 21
356.5962292332543
 31
0.0
  0
LWPOLYLINE
  5
A22
330
A
100
AcDbEntity
  8
0
  6
Continuous
 62
     7
100
AcDbPolyline
 90
        9
 70
   128
 43
0.0
 10
1067.379687482573
 20
391.4231610525335
 10
1067.390379517108
 20
391.5669189138056
 10
1067.424733598481
 20
391.7178235994214
 10
1067.481961143343
 20
391.8616201231054
 10
1067.560691409925
 20
391.9948642011366
 10
1067.659038612893
 20
392.114364307064
 10
1067.774647092585
 20
392.2172581166877
 10
1067.904747738912
 20
392.3010810678306
 10
1068.046224318416
 20
392.3638253927198
  0
ARC
  5
A2D
330
A
100
AcDbEntity
  8
0
  6
Continuous
 62
     7
100
AcDbCircle
 10
1105.329475411413
 20
235.0007046344817
 30
0.0
 40
1.500000000000014
100
AcDbArc
 50
204.3828728589783
 51
24.38287285897753
  0
LINE
  5
A2E
330
A
100
AcDbEntity
  8
0
  6
Continuous
 62
     7
100
AcDbLine
 10
1102.440208519283
 20
237.7416847731996
 30
0.0
 11
1103.963264750374
 21
234.3814563565969
 31
0.0
  0
LINE
  5
A2F
330
A
100
AcDbEntity
  8
0
  6
Continuous
 62
     7
100
AcDbLine
 10
1106.695686072452
 20
235.6199529123664
 30
0.0
 11
1105.172629841361
 21
238.980181328969
 31
0.0
  0
ARC
  5
A30
330
A
100
AcDbEntity
  8
0
  6
Continuous
 62
     7
100
AcDbCircle
 10
546.970718979469
 20
-101.8943059164065
 30
0.0
 40
1.0
100
AcDbArc
 50
180.0000000000004
 51
270.0000000000008
  0
ARC
  5
A31
330
A
100
AcDbEntity
  8
0
  6
Continuous
 62
     7
100
AcDbCircle
 10
774.970718979469
 20
-101.8943059164065
 30
0.0
 40
1.0
100
AcDbArc
 50
270.0000000000008
 51
0.0
  0
ARC
  5
A32
330
A
100
AcDbEntity
  8
0
  6
Continuous
 62
     7
100
AcDbCircle
 10
547.4707189794692
 20
-92.89430591640652
 30
0.0
 40
1.500000000000113
100
AcDbArc
 50
90.0
 51
180.0000000000004
  0
ARC
  5
A33
330
A
100
AcDbEntity
  8
0
  6
Continuous
 62
     7
100
AcDbCircle
 10
774.4707189794691
 20
-92.89430591640652
 30
0.0
 40
1.500000000000014
100
AcDbArc
 50
0.0
 51
90.0
  0
LINE
  5
A34
330
A
100
AcDbEntity
  8
0
  6
Continuous
 62
     7
100
AcDbLine
 10
775.970718979469
 20
-101.8943059164065
 30
0.0
 11
775.970718979469
 21
-92.89430591640652
 31
0.0
  0
LINE
  5
A35
330
A
100
AcDbEntity
  8
0
  6
Continuous
 62
     7
100
AcDbLine
 10
545.970718979469
 20
-92.89430591640652
 30
0.0
 11
545.970718979469
 21
-101.8943059164065
 31
0.0
  0
LINE
  5
A36
330
A
100
AcDbEntity
  8
0
  6
Continuous
 62
     7
100
AcDbLine
 10
615.7189052639769
 20
-105.3943059164065
 30
0.0
 11
615.7189052639769
 21
-102.8943059164065
 31
0.0
  0
LINE
  5
A37
330
A
100
AcDbEntity
  8
0
  6
Continuous
 62
     7
100
AcDbLine
 10
595.7189052639768
 20
-102.8943059164065
 30
0.0
 11
595.7189052639768
 21
-105.3943059164065
 31
0.0
  0
LINE
  5
A38
330
A
100
AcDbEntity
  8
0
  6
Continuous
 62
     7
100
AcDbLine
 10
726.2225326949618
 20
-105.3943059164065
 30
0.0
 11
726.2225326949618
 21
-102.8943059164065
 31
0.0
  0
LINE
  5
A39
330
A
100
AcDbEntity
  8
0
  6
Continuous
 62
     7
100
AcDbLine
 10
706.2225326949618
 20
-102.8943059164065
 30
0.0
 11
706.2225326949618
 21
-105.3943059164065
 31
0.0
  0
ARC
  5
A3A
330
A
100
AcDbEntity
  8
0
  6
Continuous
 62
     7
100
AcDbCircle
 10
553.259536890018
 20
-89.3943059164065
 30
0.0
 40
2.000000000000082
100
AcDbArc
 50
270.0000000000008
 51
351.0999999999995
  0
ARC
  5
A3B
330
A
100
AcDbEntity
  8
0
  6
Continuous
 62
     7
100
AcDbCircle
 10
596.6819010689201
 20
-89.3943059164065
 30
0.0
 40
2.0
100
AcDbArc
 50
188.9000000000082
 51
270.0000000000008
  0
LINE
  5
A3C
330
A
100
AcDbEntity
  8
0
  6
Continuous
 62
     7
100
AcDbLine
 10
594.7059813373814
 20
-89.7037266890055
 30
0.0
 11
588.8392549603405
 21
-52.23959553010707
 31
0.0
  0
LINE
  5
A3D
330
A
100
AcDbEntity
  8
0
  6
Continuous
 62
     7
100
AcDbLine
 10
561.1021829985978
 20
-52.23959553010707
 30
0.0
 11
555.2354566215568
 21
-89.7037266890055
 31
0.0
  0
ARC
  5
A3E
330
A
100
AcDbEntity
  8
0
  6
Continuous
 62
     7
100
AcDbCircle
 10
562.0901428643671
 20
-52.39430591640654
 30
0.0
 40
1.0
100
AcDbArc
 50
90.0
 51
171.0999999999715
  0
ARC
  5
A3F
330
A
100
AcDbEntity
  8
0
  6
Continuous
 62
     7
100
AcDbCircle
 10
587.8512950945711
 20
-52.39430591640654
 30
0.0
 40
1.000000000000036
100
AcDbArc
 50
8.899999999999758
 51
90.0
  0
LINE
  5
A40
330
A
100
AcDbEntity
  8
0
  6
Continuous
 62
     7
100
AcDbLine
 10
581.5714064477246
 20
-105.3943059164065
 30
0.0
 11
581.5714064477246
 21
-102.8943059164065
 31
0.0
  0
LINE
  5
A41
330
A
100
AcDbEntity
  8
0
  6
Continuous
 62
     7
100
AcDbLine
 10
561.5714064477246
 20
-102.8943059164065
 30
0.0
 11
561.5714064477246
 21
-105.3943059164065
 31
0.0
  0
LINE
  5
A42
330
A
100
AcDbEntity
  8
0
  6
Continuous
 62
     7
100
AcDbLine
 10
760.3700315112133
 20
-105.3943059164065
 30
0.0
 11
760.3700315112133
 21
-102.8943059164065
 31
0.0
  0
LINE
  5
A43
330
A
100
AcDbEntity
  8
0
  6
Continuous
 62
     7
100
AcDbLine
 10
740.3700315112135
 20
-102.8943059164065
 30
0.0
 11
740.3700315112135
 21
-105.3943059164065
 31
0.0
  0
LINE
  5
A44
330
A
100
AcDbEntity
  8
0
  6
Continuous
 62
     7
100
AcDbLine
 10
670.9707189794687
 20
-105.3943059164065
 30
0.0
 11
670.9707189794687
 21
-102.8943059164065
 31
0.0
  0
LINE
  5
A45
330
A
100
AcDbEntity
  8
0
  6
Continuous
 62
     7
100
AcDbLine
 10
650.9707189794688
 20
-102.8943059164065
 30
0.0
 11
650.9707189794688
 21
-105.3943059164065
 31
0.0
  0
CIRCLE
  5
A46
330
A
100
AcDbEntity
  8
0
  6
Continuous
 62
     7
100
AcDbCircle
 10
569.5707669794687
 20
-12.15377791640659
 30
0.0
 40
12.99998499999992
  0
CIRCLE
  5
A47
330
A
100
AcDbEntity
  8
0
  6
Continuous
 62
     7
100
AcDbCircle
 10
569.5707149794689
 20
-12.15376091640674
 30
0.0
 40
3.249965999999972
  0
CIRCLE
  5
A48
330
A
100
AcDbEntity
  8
0
  6
Continuous
 62
     7
100
AcDbCircle
 10
599.2307179794644
 20
365.8461470835931
 30
0.0
 40
3.150022999999919
  0
CIRCLE
  5
A49
330
A
100
AcDbEntity
  8
0
  6
Continuous
 62
     7
100
AcDbCircle
 10
599.2306999794646
 20
365.8462360835931
 30
0.0
 40
12.99998499999992
  0
LINE
  5
A4A
330
A
100
AcDbEntity
  8
0
  6
Continuous
 62
     7
100
AcDbLine
 10
570.9707211194647
 20
319.3461610835933
 30
0.0
 11
562.5707209794663
 21
319.3461610835929
 31
0.0
  0
LINE
  5
A4B
330
A
100
AcDbEntity
  8
0
  6
Continuous
 62
     7
100
AcDbLine
 10
570.9707211194685
 20
34.34616108359245
 30
0.0
 11
562.5707209794681
 21
34.34616108359323
 31
0.0
  0
LINE
  5
A4C
330
A
100
AcDbEntity
  8
0
  6
Continuous
 62
     7
100
AcDbLine
 10
930.730738979466
 20
372.8461760835953
 30
0.0
 11
930.7307389794663
 21
364.446171043466
 31
0.0
  0
LINE
  5
A4D
330
A
100
AcDbEntity
  8
0
  6
Continuous
 62
     7
100
AcDbLine
 10
645.7307089794659
 20
372.8461760835934
 30
0.0
 11
645.7307089794661
 21
364.4461710434646
 31
0.0
  0
LINE
  5
A4E
330
A
100
AcDbEntity
  8
0
  6
Continuous
 62
     7
100
AcDbLine
 10
580.5707200794645
 20
319.3461610835934
 30
0.0
 11
570.9707211194647
 21
319.3461610835933
 31
0.0
  0
LINE
  5
A4F
330
A
100
AcDbEntity
  8
0
  6
Continuous
 62
     7
100
AcDbLine
 10
580.5707200794683
 20
34.34616108359345
 30
0.0
 11
570.9707211194685
 21
34.34616108359245
 31
0.0
  0
LINE
  5
A50
330
A
100
AcDbEntity
  8
0
  6
Continuous
 62
     7
100
AcDbLine
 10
930.7307389794663
 20
364.446171043466
 30
0.0
 11
930.7307389794663
 21
354.8462084842966
 31
0.0
  0
LINE
  5
A51
330
A
100
AcDbEntity
  8
0
  6
Continuous
 62
     7
100
AcDbLine
 10
645.7307089794661
 20
364.4461710434646
 30
0.0
 11
645.7307089794643
 21
354.8462084842952
 31
0.0
  0
LWPOLYLINE
  5
A52
330
A
100
AcDbEntity
  8
0
  6
Continuous
 62
     7
100
AcDbPolyline
 90
        8
 70
   128
 43
0.0
 10
537.5200836829471
 20
27.59655758668567
 10
537.4902832477779
 20
27.6203249399537
 10
537.4077933747709
 20
27.68741691379217
 10
537.2801384327583
 20
27.7950518228306
 10
537.1022283359699
 20
27.95289162304815
 10
536.8208506919855
 20
28.22148958481863
 10
536.5460631132332
 20
28.50660814768647
 10
536.2799770323252
 20
28.80442072666034
  0
LINE
  5
A5C
330
A
100
AcDbEntity
  8
0
  6
Continuous
 62
     7
100
AcDbLine
 10
547.683128613359
 20
16.89518312752114
 30
0.0
 11
539.9180300854391
 21
24.65673640473676
 31
0.0
  0
LWPOLYLINE
  5
A5D
330
A
100
AcDbEntity
  8
0
  6
Continuous
 62
     7
100
AcDbPolyline
 90
        4
 70
   128
 43
0.0
 10
535.5201030663046
 20
15.670703465121
 10
535.2845698644273
 20
15.29711304626102
 10
535.2825728807819
 20
14.63610594132458
 10
535.335584261305
 20
14.51179034678851
  0
LINE
  5
A63
330
A
100
AcDbEntity
  8
0
  6
Continuous
 62
     7
100
AcDbLine
 10
538.6397121076578
 20
18.79173745271345
 30
0.0
 11
535.5201030663046
 21
15.670703465121
 31
0.0
  0
LWPOLYLINE
  5
A64
330
A
100
AcDbEntity
  8
0
  6
Continuous
 62
     7
100
AcDbPolyline
 90
        7
 70
   128
 43
0.0
 10
534.0424686859055
 20
23.38688194675764
 10
534.528740881361
 20
23.78706603305269
 10
535.3618596845945
 20
24.18827843341276
 10
536.3189027204287
 20
24.33923396147153
 10
537.3997716186462
 20
24.16204367300279
 10
538.2520876116127
 20
23.71810973870936
 10
538.4964146053423
 20
23.47603080350613
  0
LWPOLYLINE
  5
A6D
330
A
100
AcDbEntity
  8
0
  6
Continuous
 62
     7
100
AcDbPolyline
 90
        7
 70
   128
 43
0.0
 10
538.6741241949961
 20
23.29995632404669
 10
538.9521141124795
 20
23.02452419845802
 10
539.372040102525
 20
22.26227341667586
 10
539.5807296390732
 20
21.34861180117076
 10
539.4796062696169
 20
20.2453795391383
 10
538.9839755912341
 20
19.19783994080703
 10
538.6397121076578
 20
18.79173745271345
  0
LINE
  5
A76
330
A
100
AcDbEntity
  8
0
  6
Continuous
 62
     7
100
AcDbLine
 10
530.9572486540011
 20
20.30025267650914
 30
0.0
 11
534.0424686859055
 21
23.38688194675764
 31
0.0
  0
LWPOLYLINE
  5
A77
330
A
100
AcDbEntity
  8
0
  6
Continuous
 62
     7
100
AcDbPolyline
 90
        5
 70
   128
 43
0.0
 10
529.5430351284937
 20
20.29992976455375
 10
529.5471559036482
 20
20.29583473026253
 10
530.3075310455558
 20
20.008855393161
 10
530.767206062092
 20
20.15134890140302
 10
530.9572486540011
 20
20.30025267650914
  0
LWPOLYLINE
  5
A7E
330
A
100
AcDbEntity
  8
0
  6
Continuous
 62
     7
100
AcDbPolyline
 90
        5
 70
   128
 43
0.0
 10
564.1843688940959
 20
0.9251850339995204
 10
564.1792971118628
 20
0.9374254219837174
 10
564.2598327699597
 20
0.7430583077910891
 10
564.4995780784991
 20
0.1644500385163949
 10
564.630491730092
 20
-0.15150063075553
  0
CIRCLE
  5
A85
330
A
100
AcDbEntity
  8
0
  6
Continuous
 62
     7
100
AcDbCircle
 10
563.3307459794665
 20
329.9461750835933
 30
0.0
 40
6.999993000000017
  0
LWPOLYLINE
  5
A86
330
A
100
AcDbEntity
  8
0
  6
Continuous
 62
     7
100
AcDbPolyline
 90
        4
 70
   128
 43
0.0
 10
536.2799770323252
 20
28.80442072666034
 10
536.1865774796139
 20
28.90844862236863
 10
536.1188666345266
 20
28.97898090728279
 10
536.1146843032245
 20
28.98320998172343
  0
LINE
  5
A8C
330
A
100
AcDbEntity
  8
0
  6
Continuous
 62
     7
100
AcDbLine
 10
528.6599920305463
 20
24.71729660082778
 30
0.0
 11
532.7602816323535
 21
28.81945909509287
 31
0.0
  0
CIRCLE
  5
A8D
330
A
100
AcDbEntity
  8
0
  6
Continuous
 62
     7
100
AcDbCircle
 10
536.5106919794684
 20
21.25621808359301
 30
0.0
 40
3.000005000000101
  0
CIRCLE
  5
A8E
330
A
100
AcDbEntity
  8
0
  6
Continuous
 62
     7
100
AcDbCircle
 10
940.7307369794663
 20
370.3461980835958
 30
0.0
 40
7.000010999999858
  0
LINE
  5
A8F
330
A
100
AcDbEntity
  8
0
  6
Continuous
 62
     7
100
AcDbLine
 10
584.5707199794664
 20
319.3461610835935
 30
0.0
 11
580.5707200794645
 21
319.3461610835934
 31
0.0
  0
LINE
  5
A90
330
A
100
AcDbEntity
  8
0
  6
Continuous
 62
     7
100
AcDbLine
 10
584.5707199794664
 20
34.34616108359348
 30
0.0
 11
580.5707200794683
 21
34.34616108359345
 31
0.0
  0
LINE
  5
A91
330
A
100
AcDbEntity
  8
0
  6
Continuous
 62
     7
100
AcDbLine
 10
930.7307389794663
 20
354.8462084842966
 30
0.0
 11
930.7307389794663
 21
350.8462120843889
 31
0.0
  0
LINE
  5
A92
330
A
100
AcDbEntity
  8
0
  6
Continuous
 62
     7
100
AcDbLine
 10
645.7307089794643
 20
354.8462084842952
 30
0.0
 11
645.7307089794658
 21
350.8462120843875
 31
0.0
  0
LINE
  5
A93
330
A
100
AcDbEntity
  8
0
  6
Continuous
 62
     7
100
AcDbLine
 10
558.2656965337285
 20
402.6663440505642
 30
0.0
 11
558.8223276696577
 21
403.222904009994
 31
0.0
  0
LWPOLYLINE
  5
A94
330
A
100
AcDbEntity
  8
0
  6
Continuous
 62
     7
100
AcDbPolyline
 90
        7
 70
   128
 43
0.0
 10
558.8223276696577
 20
403.222904009994
 10
558.8190483852886
 20
403.2195926369798
 10
558.6923086628132
 20
402.9588875113116
 10
558.7469485621026
 20
402.5246394486713
 10
559.0009486679481
 20
401.9970852142168
 10
559.4178568137642
 20
401.4123236824588
 10
559.9538995848196
 20
400.8190233623407
  0
LINE
  5
A9D
330
A
100
AcDbEntity
  8
0
  6
Continuous
 62
     7
100
AcDbLine
 10
558.8223276696577
 20
403.222904009994
 30
0.0
 11
561.8591997129658
 21
406.2593877280723
 31
0.0
  0
LWPOLYLINE
  5
A9E
330
A
100
AcDbEntity
  8
0
  6
Continuous
 62
     7
100
AcDbPolyline
 90
        7
 70
   128
 43
0.0
 10
564.262935637464
 20
405.1275084179723
 10
563.6697038704394
 20
405.6636270548858
 10
563.0849956569712
 20
406.0806099756084
 10
562.5574739079339
 20
406.3346775421202
 10
562.1232328361003
 20
406.3893729718706
 10
561.8625115053021
 20
406.2626665889618
 10
561.8591997129658
 20
406.2593877280723
  0
LINE
  5
AA7
330
A
100
AcDbEntity
  8
0
  6
Continuous
 62
     7
100
AcDbLine
 10
561.8591997129658
 20
406.2593877280723
 30
0.0
 11
562.4158308488929
 21
406.8159476875021
 31
0.0
  0
LINE
  5
AA8
330
A
100
AcDbEntity
  8
0
  6
Continuous
 62
     7
100
AcDbLine
 10
562.4021810000551
 20
400.0828176139324
 30
0.0
 11
561.52778266584
 21
399.2449390029441
 31
0.0
  0
LINE
  5
AA9
330
A
100
AcDbEntity
  8
0
  6
Continuous
 62
     7
100
AcDbLine
 10
561.52778266584
 20
399.2449390029441
 30
0.0
 11
559.9538995848196
 21
400.8190233623407
 31
0.0
  0
LINE
  5
AAA
330
A
100
AcDbEntity
  8
0
  6
Continuous
 62
     7
100
AcDbLine
 10
564.262935637464
 20
405.1275084179722
 30
0.0
 11
592.4494338522094
 21
376.9374055310215
 31
0.0
  0
LINE
  5
AAB
330
A
100
AcDbEntity
  8
0
  6
Continuous
 62
     7
100
AcDbLine
 10
588.1403977995647
 20
372.6289204753908
 30
0.0
 11
566.1247217949103
 21
394.6474119874829
 31
0.0
  0
LINE
  5
AAC
330
A
100
AcDbEntity
  8
0
  6
Continuous
 62
     7
100
AcDbLine
 10
566.1247217949103
 20
394.6474119874829
 30
0.0
 11
566.8993239597653
 21
395.3896624705419
 31
0.0
  0
ARC
  5
AAD
330
A
100
AcDbEntity
  8
0
  6
Continuous
 62
     7
100
AcDbCircle
 10
564.6507524799104
 20
397.7362400422374
 30
0.0
 40
3.250000000000208
100
AcDbArc
 50
313.7781714708292
 51
34.61697031623623
  0
ARC
  5
AAE
330
A
100
AcDbEntity
  8
0
  6
Continuous
 62
     7
100
AcDbCircle
 10
564.8307039794659
 20
397.9161700835934
 30
0.0
 40
3.000040000000037
100
AcDbArc
 50
56.2518611598318
 51
33.74130623481073
  0
ARC
  5
AAF
330
A
100
AcDbEntity
  8
0
  6
Continuous
 62
     7
100
AcDbCircle
 10
564.6507524799104
 20
397.7362400422374
 30
0.0
 40
3.250000000000246
100
AcDbArc
 50
55.37619707840843
 51
133.7781714708389
  0
ARC
  5
AB0
330
A
100
AcDbEntity
  8
0
  6
Continuous
 62
     7
100
AcDbCircle
 10
583.6963544794662
 20
329.1020297510345
 30
0.0
 40
11.95324618746986
100
AcDbArc
 50
134.9964803560236
 51
180.0000000000004
  0
LINE
  5
AB1
330
A
100
AcDbEntity
  8
0
  6
Continuous
 62
     7
100
AcDbLine
 10
571.7431082920341
 20
319.3461610835933
 30
0.0
 11
571.7431082920341
 21
329.1019997510348
 31
0.0
  0
LINE
  5
AB2
330
A
100
AcDbEntity
  8
0
  6
Continuous
 62
     7
100
AcDbLine
 10
565.6496006668985
 20
319.9770237164253
 30
0.0
 11
565.6496006668985
 21
319.3461610835929
 31
0.0
  0
LWPOLYLINE
  5
AB3
330
A
100
AcDbEntity
  8
0
  6
Continuous
 62
     7
100
AcDbPolyline
 90
        6
 70
   128
 43
0.0
 10
562.4498456296549
 20
322.4834651973383
 10
563.669430896597
 20
322.1492168372347
 10
564.8950576848976
 20
321.377085690295
 10
565.3425781808861
 20
320.8819841356349
 10
565.5935338258109
 20
320.3699684299284
 10
565.6496006668985
 20
319.9770237164253
  0
ARC
  5
ABB
330
A
100
AcDbEntity
  8
0
  6
Continuous
 62
     7
100
AcDbCircle
 10
563.3149716313255
 20
329.9334019085616
 30
0.0
 40
7.499999999999941
100
AcDbArc
 50
90.32903297230102
 51
263.3761793788135
  0
LWPOLYLINE
  5
ABC
330
A
100
AcDbEntity
  8
0
  6
Continuous
 62
     7
100
AcDbPolyline
 90
        5
 70
   128
 43
0.0
 10
569.3971649180451
 20
340.1119571376647
 10
567.8366402999612
 20
338.8150641014997
 10
566.2829406125817
 20
338.0533964088996
 10
564.569668276261
 20
337.5578547759887
 10
563.2719015527019
 20
337.4332782387638
  0
ARC
  5
AC3
330
A
100
AcDbEntity
  8
0
  6
Continuous
 62
     7
100
AcDbCircle
 10
583.6963544794662
 20
329.1020297510345
 30
0.0
 40
18.04675381259454
100
AcDbArc
 50
134.9964318018847
 51
142.4048572577516
  0
LINE
  5
AC4
330
A
100
AcDbEntity
  8
0
  6
Continuous
 62
     7
100
AcDbLine
 10
570.9361672181156
 20
341.8638064387713
 30
0.0
 11
588.1395305320364
 21
359.0649699563375
 31
0.0
  0
LINE
  5
AC5
330
A
100
AcDbEntity
  8
0
  6
Continuous
 62
     7
100
AcDbLine
 10
592.448015587669
 20
354.755933903692
 30
0.0
 11
575.2446522737488
 21
337.5547703861265
 31
0.0
  0
LINE
  5
AC6
330
A
100
AcDbEntity
  8
0
  6
Continuous
 62
     7
100
AcDbLine
 10
561.52778266584
 20
399.2449390029441
 30
0.0
 11
560.5254789278467
 21
398.2844970271118
 31
0.0
  0
LWPOLYLINE
  5
AC7
330
A
100
AcDbEntity
  8
0
  6
Continuous
 62
     7
100
AcDbPolyline
 90
       10
 70
   128
 43
0.0
 10
560.5254789278466
 20
398.2844970271119
 10
560.5164949738041
 20
398.275994250962
 10
560.0280675579965
 20
398.0256098078315
 10
559.3018630588344
 20
398.1596180904993
 10
559.2488677578623
 20
398.1953023071339
 10
559.1913951620965
 20
398.2399968579565
 10
559.1659462357078
 20
398.2620586356854
 10
559.1367650862142
 20
398.2892998145048
 10
559.1152215242924
 20
398.3108795531119
 10
559.1115869119855
 20
398.3146527476783
  0
LINE
  5
AD3
330
A
100
AcDbEntity
  8
0
  6
Continuous
 62
     7
100
AcDbLine
 10
559.1115869119674
 20
398.3146527476963
 30
0.0
 11
558.5926858012499
 21
398.8561706488379
 31
0.0
  0
LINE
  5
AD4
330
A
100
AcDbEntity
  8
0
  6
Continuous
 62
     7
100
AcDbLine
 10
558.5926858012482
 20
398.8561706488379
 30
0.0
 11
558.565817601806
 21
398.8304246143962
 31
0.0
  0
LINE
  5
AD5
330
A
100
AcDbEntity
  8
0
  6
Continuous
 62
     7
100
AcDbLine
 10
569.570017569595
 20
402.6571757554659
 30
0.0
 11
577.3302078884768
 21
394.8959930131156
 31
0.0
  0
LINE
  5
AD6
330
A
100
AcDbEntity
  8
0
  6
Continuous
 62
     7
100
AcDbLine
 10
565.6380316465295
 20
391.7573061290714
 30
0.0
 11
565.6643367797223
 21
391.7825126140326
 31
0.0
  0
LINE
  5
AD7
330
A
100
AcDbEntity
  8
0
  6
Continuous
 62
     7
100
AcDbLine
 10
565.6643367797179
 20
391.7825126140354
 30
0.0
 11
565.1530146201114
 21
392.2730600158049
 31
0.0
  0
LWPOLYLINE
  5
AD8
330
A
100
AcDbEntity
  8
0
  6
Continuous
 62
     7
100
AcDbPolyline
 90
        9
 70
   128
 43
0.0
 10
565.1530146201134
 20
392.2730600158049
 10
565.1475452381061
 20
392.278347276713
 10
565.1257916706818
 20
392.300200803618
 10
565.1059905667865
 20
392.3213193895522
 10
565.0751654402982
 20
392.3568048690975
 10
564.9927131364583
 20
392.4721050480101
 10
564.8517763496512
 20
392.8811363777583
 10
565.0336138586675
 20
393.5787541423711
 10
565.1534418730186
 20
393.716698101155
  0
LINE
  5
AE3
330
A
100
AcDbEntity
  8
0
  6
Continuous
 62
     7
100
AcDbLine
 10
565.1534418730184
 20
393.7166981011555
 30
0.0
 11
566.1247217949103
 21
394.6474119874829
 31
0.0
  0
LWPOLYLINE
  5
AE4
330
A
100
AcDbEntity
  8
0
  6
Continuous
 62
     7
100
AcDbPolyline
 90
        6
 70
   128
 43
0.0
 10
954.5390416276109
 20
365.8462180835954
 10
954.5054828674377
 20
364.3645585839662
 10
954.4196798701419
 20
363.0500537692466
 10
954.3184565417432
 20
362.0421046037153
 10
954.2460752540415
 20
361.4597626009754
 10
954.2383858372227
 20
361.4024892516645
  0
LWPOLYLINE
  5
AEC
330
A
100
AcDbEntity
  8
0
  6
Continuous
 62
     7
100
AcDbPolyline
 90
        6
 70
   128
 43
0.0
 10
954.2311577330737
 20
370.3434010404056
 10
954.2632066410375
 20
370.1019363032602
 10
954.3478929427186
 20
369.3866283613054
 10
954.449297491193
 20
368.2702309508747
 10
954.522892168131
 20
366.8739187899904
 10
954.5390416276109
 20
365.8462180835954
  0
ARC
  5
AF4
330
A
100
AcDbEntity
  8
0
  6
Continuous
 62
     7
100
AcDbCircle
 10
544.0407159794684
 20
21.01620608359322
 30
0.0
 40
5.499999999999878
100
AcDbArc
 50
311.4722203983156
 51
138.5539446631106
  0
ARC
  5
AF5
330
A
100
AcDbEntity
  8
0
  6
Continuous
 62
     7
100
AcDbCircle
 10
573.7107749038373
 20
399.0372132281858
 30
0.0
 40
5.500000000000166
100
AcDbArc
 50
311.1535094878368
 51
138.8391636247812
  0
LINE
  5
AF6
330
A
100
AcDbEntity
  8
0
  6
Continuous
 62
     7
100
AcDbLine
 10
570.1974529994595
 20
403.2688286639532
 30
0.0
 11
570.0742689794642
 21
403.4137350835925
 31
0.0
  0
LINE
  5
AF7
330
A
100
AcDbEntity
  8
0
  6
Continuous
 62
     7
100
AcDbLine
 10
1200.119680575145
 20
369.9436804754175
 30
0.0
 11
1068.707892336175
 21
310.0530043407388
 31
0.0
  0
LINE
  5
AF8
330
A
100
AcDbEntity
  8
0
  6
Continuous
 62
     7
100
AcDbLine
 10
1201.902752313941
 20
366.0312743902584
 30
0.0
 11
1070.490964074971
 21
306.14059825558
 31
0.0
  0
LWPOLYLINE
  5
AF9
330
A
100
AcDbEntity
  8
0
  6
Continuous
 62
     7
100
AcDbPolyline
 90
        5
 70
   128
 43
0.0
 10
1070.985062039844
 20
344.2683001952572
 10
1070.01849373896
 20
341.6245447612888
 10
1069.290006792841
 20
339.7286482033637
 10
1068.83799266849
 20
338.5896107789991
 10
1068.716042451862
 20
338.2850603647513
  0
LINE
  5
B00
330
A
100
AcDbEntity
  8
0
  6
Continuous
 62
     7
100
AcDbLine
 10
1068.757499753604
 20
393.2240564219501
 30
0.0
 11
1068.752314852323
 21
393.2325102588937
 31
0.0
  0
LINE
  5
B01
330
A
100
AcDbEntity
  8
0
  6
Continuous
 62
     7
100
AcDbLine
 10
1069.876849630014
 20
401.5162437545809
 30
0.0
 11
1130.322451386306
 21
429.0642134387671
 31
0.0
  0
CIRCLE
  5
B02
330
A
100
AcDbEntity
  8
0
  6
Continuous
 62
     7
100
AcDbCircle
 10
1038.126018979466
 20
365.848030083596
 30
0.0
 40
7.500000000000227
  0
LINE
  5
B03
330
A
100
AcDbEntity
  8
0
  6
Continuous
 62
     7
100
AcDbLine
 10
954.2307839794629
 20
370.3462200835954
 30
0.0
 11
987.230783979465
 21
370.3462200835957
 31
0.0
  0
LINE
  5
B04
330
A
100
AcDbEntity
  8
0
  6
Continuous
 62
     7
100
AcDbLine
 10
954.230783979465
 20
361.3462200835954
 30
0.0
 11
987.2307839794649
 21
361.3462200835956
 31
0.0
  0
LINE
  5
B05
330
A
100
AcDbEntity
  8
0
  6
Continuous
 62
     7
100
AcDbLine
 10
987.230783979465
 20
370.3462200835957
 30
0.0
 11
1032.124661905945
 21
370.3462200835964
 31
0.0
  0
LINE
  5
B06
330
A
100
AcDbEntity
  8
0
  6
Continuous
 62
     7
100
AcDbLine
 10
987.2307839794649
 20
361.3462200835956
 30
0.0
 11
1032.127376906139
 21
361.3462200835964
 31
0.0
  0
LINE
  5
B07
330
A
100
AcDbEntity
  8
0
  6
Continuous
 62
     7
100
AcDbLine
 10
1067.27257217493
 20
341.5583468929464
 30
0.0
 11
1067.377309519551
 21
390.3161612538814
 31
0.0
  0
LINE
  5
B08
330
A
100
AcDbEntity
  8
0
  6
Continuous
 62
     7
100
AcDbLine
 10
1048.236480751004
 20
390.3461636250255
 30
0.0
 11
1048.131138361535
 21
341.3066859802668
 31
0.0
  0
LINE
  5
B09
330
A
100
AcDbEntity
  8
0
  6
Continuous
 62
     7
100
AcDbLine
 10
1028.230813266732
 20
390.389138079831
 30
0.0
 11
1028.18775879358
 21
370.3462200835959
 31
0.0
  0
LINE
  5
B0A
330
A
100
AcDbEntity
  8
0
  6
Continuous
 62
     7
100
AcDbLine
 10
1028.168425767399
 20
361.3462200835959
 30
0.0
 11
1028.125470877263
 21
341.3496604350723
 31
0.0
  0
LINE
  5
B0B
330
A
100
AcDbEntity
  8
0
  6
Continuous
 62
     7
100
AcDbLine
 10
986.1999905691538
 20
354.4397511406492
 30
0.0
 11
986.2148264519202
 21
361.3462200835956
 31
0.0
  0
LINE
  5
B0C
330
A
100
AcDbEntity
  8
0
  6
Continuous
 62
     7
100
AcDbLine
 10
986.2341594781016
 20
370.3462200835957
 30
0.0
 11
986.2494821228237
 21
377.4792887098135
 31
0.0
  0
LINE
  5
B0D
330
A
100
AcDbEntity
  8
0
  6
Continuous
 62
     7
100
AcDbLine
 10
1067.27257217493
 20
341.5583468929464
 30
0.0
 11
1067.269624486201
 21
340.1861251639473
 31
0.0
  0
LINE
  5
B0E
330
A
100
AcDbEntity
  8
0
  6
Continuous
 62
     7
100
AcDbLine
 10
977.2307375091239
 20
356.6155061623421
 30
0.0
 11
977.2408996220237
 21
361.3462200835956
 31
0.0
  0
LINE
  5
B0F
330
A
100
AcDbEntity
  8
0
  6
Continuous
 62
     7
100
AcDbLine
 10
977.2602326482049
 20
370.3462200835956
 30
0.0
 11
977.2640331915365
 21
372.1154666394199
 31
0.0
  0
LINE
  5
B10
330
A
100
AcDbEntity
  8
0
  6
Continuous
 62
     7
100
AcDbLine
 10
1067.377309519551
 20
390.3161612538814
 30
0.0
 11
1067.379675026017
 21
391.4173627933802
 31
0.0
  0
LINE
  5
B11
330
A
100
AcDbEntity
  8
0
  6
Continuous
 62
     7
100
AcDbLine
 10
774.970718979469
 20
-102.8943059164065
 30
0.0
 11
546.9707189830571
 21
-102.8943059164065
 31
0.0
  0
LINE
  5
B12
330
A
100
AcDbEntity
  8
0
  6
Continuous
 62
     7
100
AcDbLine
 10
547.4707189852084
 20
-91.39430591640651
 30
0.0
 11
774.4707189794691
 21
-91.39430591640651
 31
0.0
  0
LINE
  5
B13
330
A
100
AcDbEntity
  8
0
  6
Continuous
 62
     7
100
AcDbLine
 10
595.7189052639768
 20
-105.3943059164065
 30
0.0
 11
615.7189052639769
 21
-105.3943059164065
 31
0.0
  0
LINE
  5
B14
330
A
100
AcDbEntity
  8
0
  6
Continuous
 62
     7
100
AcDbLine
 10
706.2225326949618
 20
-105.3943059164065
 30
0.0
 11
726.2225326949618
 21
-105.3943059164065
 31
0.0
  0
LINE
  5
B15
330
A
100
AcDbEntity
  8
0
  6
Continuous
 62
     7
100
AcDbLine
 10
562.0901428692396
 20
-51.39430591640653
 30
0.0
 11
587.8512950945711
 21
-51.39430591640653
 31
0.0
  0
LINE
  5
B16
330
A
100
AcDbEntity
  8
0
  6
Continuous
 62
     7
100
AcDbLine
 10
561.5714064477246
 20
-105.3943059164065
 30
0.0
 11
581.5714064477246
 21
-105.3943059164065
 31
0.0
  0
LINE
  5
B17
330
A
100
AcDbEntity
  8
0
  6
Continuous
 62
     7
100
AcDbLine
 10
740.3700315112135
 20
-105.3943059164065
 30
0.0
 11
760.3700315112133
 21
-105.3943059164065
 31
0.0
  0
LINE
  5
B18
330
A
100
AcDbEntity
  8
0
  6
Continuous
 62
     7
100
AcDbLine
 10
650.9707189794688
 20
-105.3943059164065
 30
0.0
 11
670.9707189794687
 21
-105.3943059164065
 31
0.0
  0
LINE
  5
B19
330
A
100
AcDbEntity
  8
0
  6
PHANTOM
 62
     7
100
AcDbLine
 10
570.9707211194647
 20
319.3461610835933
 30
0.0
 11
570.9707211194685
 21
34.34616108359245
 31
0.0
  0
LINE
  5
B1A
330
A
100
AcDbEntity
  8
0
  6
PHANTOM
 62
     7
100
AcDbLine
 10
930.7307389794663
 20
364.446171043466
 30
0.0
 11
645.7307089794661
 21
364.4461710434646
 31
0.0
  0
LINE
  5
B1B
330
A
100
AcDbEntity
  8
0
  6
PHANTOM
 62
     7
100
AcDbLine
 10
580.5707200794645
 20
319.3461610835934
 30
0.0
 11
580.5707200794683
 21
34.34616108359345
 31
0.0
  0
LINE
  5
B1C
330
A
100
AcDbEntity
  8
0
  6
PHANTOM
 62
     7
100
AcDbLine
 10
930.7307389794663
 20
354.8462084842966
 30
0.0
 11
645.7307089794643
 21
354.8462084842952
 31
0.0
  0
LINE
  5
B1D
330
A
100
AcDbEntity
  8
0
  6
PHANTOM
 62
     7
100
AcDbLine
 10
569.5707139794669
 20
-25.77551152082647
 30
0.0
 11
580.3707239794675
 21
-25.77551152082624
 31
0.0
  0
LINE
  5
B1E
330
A
100
AcDbEntity
  8
0
  6
PHANTOM
 62
     7
100
AcDbLine
 10
536.2799770323252
 20
28.80442072666034
 30
0.0
 11
528.660799310435
 21
21.18176278705952
 31
0.0
  0
LINE
  5
B1F
330
A
100
AcDbEntity
  8
0
  6
PHANTOM
 62
     7
100
AcDbLine
 10
559.9538995848196
 20
400.8190233623407
 30
0.0
 11
558.2654704746819
 21
399.1308101518586
 31
0.0
  0
LINE
  5
B20
330
A
100
AcDbEntity
  8
0
  6
PHANTOM
 62
     7
100
AcDbLine
 10
564.262935637464
 20
405.1275084179722
 30
0.0
 11
559.9538995848196
 21
400.8190233623407
 31
0.0
  0
LINE
  5
B21
330
A
100
AcDbEntity
  8
0
  6
PHANTOM
 62
     7
100
AcDbLine
 10
565.9513647475988
 20
406.8157216284542
 30
0.0
 11
564.262935637464
 21
405.1275084179722
 31
0.0
  0
LWPOLYLINE
  5
B22
330
A
100
AcDbEntity
  8
0
  6
PHANTOM
 62
     7
100
AcDbPolyline
 90
        5
 70
   128
 43
0.0
 10
565.6496006668985
 20
319.9770237164253
 10
565.3982320625967
 20
319.9494335466452
 10
564.3247242901277
 20
319.9836621652374
 10
563.5404918223607
 20
320.1664571435556
 10
563.2855030640664
 20
320.2564056073955
  0
LWPOLYLINE
  5
B29
330
A
100
AcDbEntity
  8
0
  6
PHANTOM
 62
     7
100
AcDbPolyline
 90
        7
 70
   128
 43
0.0
 10
566.2624066187991
 20
339.7573099189295
 10
566.2593671316503
 20
339.7563421618977
 10
566.4903020687262
 20
339.8293947847455
 10
566.6183749299793
 20
339.8667509230995
 10
567.5566777924034
 20
340.0722088587808
 10
569.045117168951
 20
340.1445345854828
 10
569.3971649180451
 20
340.1119571376648
  0
LINE
  5
B32
330
A
100
AcDbEntity
  8
0
  6
PHANTOM
 62
     7
100
AcDbLine
 10
575.2446522737488
 20
337.5547703861265
 30
0.0
 11
576.9328653810597
 21
335.866341379172
 31
0.0
  0
LINE
  5
B33
330
A
100
AcDbEntity
  8
0
  6
PHANTOM
 62
     7
100
AcDbLine
 10
571.7431082920341
 20
329.1019997510348
 30
0.0
 11
574.1307548335579
 21
329.1019997510343
 31
0.0
  0
LINE
  5
B34
330
A
100
AcDbEntity
  8
0
  6
PHANTOM
 62
     7
100
AcDbLine
 10
569.2479540597743
 20
343.5522354967604
 30
0.0
 11
570.9361672181156
 21
341.8638064387713
 31
0.0
  0
LINE
  5
B35
330
A
100
AcDbEntity
  8
0
  6
PHANTOM
 62
     7
100
AcDbLine
 10
574.0317560248781
 20
404.5278389775821
 30
0.0
 11
574.0451989776365
 21
404.7058010378514
 31
0.0
  0
LINE
  5
B36
330
A
100
AcDbEntity
  8
0
  6
PHANTOM
 62
     7
100
AcDbLine
 10
1067.841637111041
 20
307.131086336372
 30
0.0
 11
1202.893240394733
 21
368.680601354189
 31
0.0
  0
LINE
  5
B37
330
A
100
AcDbEntity
  8
0
  6
PHANTOM
 62
     7
100
AcDbLine
 10
1202.769007539076
 20
368.9531923946248
 30
0.0
 11
1067.717404255384
 21
307.4036773768078
 31
0.0
  0
LINE
  5
B38
330
A
100
AcDbEntity
  8
0
  6
PHANTOM
 62
     7
100
AcDbLine
 10
1132.463961552054
 20
428.7537488373287
 30
0.0
 11
1068.706269014523
 21
399.6962999887074
 31
0.0
  0
LWPOLYLINE
  5
B39
330
A
100
AcDbEntity
  8
0
  6
PHANTOM
 62
     7
100
AcDbPolyline
 90
       12
 70
   128
 43
0.0
 10
1072.306275098473
 20
386.5602211751288
 10
1073.570172934383
 20
383.3493954474387
 10
1074.678753316577
 20
379.6549479925915
 10
1075.496111641615
 20
375.4902989457245
 10
1075.916644593397
 20
371.0122005576454
 10
1075.9083071694
 20
366.8469576537904
 10
1075.566199453458
 20
362.6667289717884
 10
1074.961945631114
 20
358.700082939268
 10
1074.164605665278
 20
354.9089453612972
 10
1073.152130532928
 20
351.0306988010123
 10
1072.088104134967
 20
347.5284144014115
 10
1070.985062039844
 20
344.2683001952572
  0
LWPOLYLINE
  5
B47
330
A
100
AcDbEntity
  8
0
  6
PHANTOM
 62
     7
100
AcDbPolyline
 90
        7
 70
   128
 43
0.0
 10
1068.752314852323
 20
393.2325102588937
 10
1068.731115059835
 20
393.2670759293243
 10
1069.048810618506
 20
392.7526500617546
 10
1069.673145475277
 20
391.7101485452876
 10
1070.532378255432
 20
390.181550120358
 10
1071.392802524687
 20
388.5186977446817
 10
1072.306275098473
 20
386.5602211751288
  0
LINE
  5
B50
330
A
100
AcDbEntity
  8
0
  6
PHANTOM
 62
     7
100
AcDbLine
 10
987.230783979465
 20
370.3462200835957
 30
0.0
 11
987.2307839794649
 21
361.3462200835956
 31
0.0
  0
LWPOLYLINE
  5
B51
330
A
100
AcDbEntity
  8
0
  6
PHANTOM
 62
     7
100
AcDbPolyline
 90
        4
 70
   128
 43
0.0
 10
1068.054104742598
 20
392.3263781087397
 10
1068.044107829063
 20
392.3591801950942
 10
1068.153766601226
 20
392.0003555584289
 10
1068.379372082735
 20
391.2752611761464
  0
LWPOLYLINE
  5
B57
330
A
100
AcDbEntity
  8
0
  6
PHANTOM
 62
     7
100
AcDbPolyline
 90
        4
 70
   128
 43
0.0
 10
1068.270530577285
 20
340.6068588340845
 10
1068.063549569562
 20
339.5947214391116
 10
1067.988778098744
 20
339.2256676150511
 10
1067.991218142455
 20
339.2377175626827
  0
LWPOLYLINE
  5
B5D
330
A
100
AcDbEntity
  8
0
  6
PHANTOM
 62
     7
100
AcDbPolyline
 90
       18
 70
   128
 43
0.0
 10
1068.270530577288
 20
340.6068588340844
 10
1069.040477057698
 20
342.511157686174
 10
1070.021602885705
 20
345.0638321941872
 10
1071.143211224063
 20
348.2150830237892
 10
1072.224390768808
 20
351.594455211009
 10
1073.256341404633
 20
355.3436009367413
 10
1074.068617832431
 20
358.9994926645708
 10
1074.687198084384
 20
362.8324942259038
 10
1075.039025135561
 20
366.8626101387238
 10
1075.052086186547
 20
370.8813148020106
 10
1074.6278328979
 20
375.1995451772619
 10
1073.79985921176
 20
379.2041056428503
 10
1072.843201235549
 20
382.2876914142392
 10
1071.755763495517
 20
385.0206904973106
 10
1071.38423020412
 20
385.8399328686526
 10
1070.450608974595
 20
387.7215319666848
 10
1069.572723807063
 20
389.3134196165926
 10
1068.379372082735
 20
391.2752611761463
  0
LINE
  5
B71
330
A
100
AcDbEntity
  8
0
  6
PHANTOM
 62
     7
100
AcDbLine
 10
1068.379372082735
 20
391.2752611761463
 30
0.0
 11
1068.270530577288
 21
340.6068588340844
 31
0.0
  0
LWPOLYLINE
  5
B72
330
A
100
AcDbEntity
  8
0
  6
PHANTOM
 62
     7
100
AcDbPolyline
 90
        9
 70
   128
 43
0.0
 10
1067.27257217493
 20
341.5583468929464
 10
1067.291389004364
 20
341.3730985811239
 10
1067.347912064124
 20
341.1948867074098
 10
1067.439969204723
 20
341.0305598541683
 10
1067.564022721875
 20
340.8864330102141
 10
1067.715305308484
 20
340.768044889333
 10
1067.888003259588
 20
340.6799450806179
 10
1068.075479889776
 20
340.6255192103105
 10
1068.270530577288
 20
340.6068588340844
  0
LWPOLYLINE
  5
B7D
330
A
100
AcDbEntity
  8
0
  6
PHANTOM
 62
     7
100
AcDbPolyline
 90
        9
 70
   128
 43
0.0
 10
1068.379372082735
 20
391.2752611761463
 10
1068.184242534924
 20
391.2572101400504
 10
1067.996532354395
 20
391.2029125723787
 10
1067.823455138117
 20
391.1144550982063
 10
1067.671662146448
 20
390.9952370886582
 10
1067.546986698932
 20
390.849840024983
 10
1067.454220003097
 20
390.6838514347984
 10
1067.396927031042
 20
390.5036501665374
 10
1067.377309519551
 20
390.3161612538814
  0
LINE
  5
B88
330
A
100
AcDbEntity
  8
0
  6
PHANTOM
 62
     7
100
AcDbLine
 10
996.2709401417093
 20
387.4577846097903
 30
0.0
 11
996.2341825500443
 21
370.3462200835957
 31
0.0
  0
LINE
  5
B89
330
A
100
AcDbEntity
  8
0
  6
PHANTOM
 62
     7
100
AcDbLine
 10
996.2148495238629
 20
361.3462200835956
 30
0.0
 11
996.178486406624
 21
344.4182931218981
 31
0.0
  0
LWPOLYLINE
  5
B8A
330
A
100
AcDbEntity
  8
0
  6
PHANTOM
 62
     7
100
AcDbPolyline
 90
       10
 70
   128
 43
0.0
 10
1105.172629841362
 20
238.9801813289694
 10
1105.087041158797
 20
238.8924315794636
 10
1104.806489388877
 20
238.7237659970584
 10
1104.373685995365
 20
238.4998623877174
 10
1103.854521371548
 20
238.2548080462718
 10
1103.328033625164
 20
238.0259102747832
 10
1102.874375742977
 20
237.8480166839976
 10
1102.562613025132
 20
237.7482099605025
 10
1102.440208519284
 20
237.7416847731999
 10
1102.440208519284
 20
237.7416847731999
  0
LINE
  5
B96
330
A
100
AcDbEntity
  8
0
  6
PHANTOM
 62
     7
100
AcDbLine
 10
545.970718979469
 20
-101.8943059164065
 30
0.0
 11
775.970718979469
 21
-101.8943059164065
 31
0.0
  0
LINE
  5
B97
330
A
100
AcDbEntity
  8
0
  6
PHANTOM
 62
     7
100
AcDbLine
 10
775.970718979469
 20
-92.89430591640652
 30
0.0
 11
545.970718979469
 21
-92.89430591640652
 31
0.0
  0
LINE
  5
B98
330
A
100
AcDbEntity
  8
0
  6
PHANTOM
 62
     7
100
AcDbLine
 10
555.2354566215568
 20
-89.7037266890055
 30
0.0
 11
594.7059813373814
 21
-89.7037266890055
 31
0.0
  0
LINE
  5
B99
330
A
100
AcDbEntity
  8
0
  6
PHANTOM
 62
     7
100
AcDbLine
 10
588.8392549603405
 20
-52.23959553010707
 30
0.0
 11
561.1021829985978
 21
-52.23959553010707
 31
0.0
  0
ENDSEC
  0
SECTION
  2
OBJECTS
  0
DICTIONARY
  5
19
330
0
100
AcDbDictionary
281
     1
  3
ACAD_COLOR
350
C04
  3
ACAD_GROUP
350
1A
  3
ACAD_LAYOUT
350
B9D
  3
ACAD_MATERIAL
350
C03
  3
ACAD_MLINESTYLE
350
1B
  3
ACAD_PLOTSETTINGS
350
B9E
  3
ACAD_PLOTSTYLENAME
350
B9B
  3
ACDBHEADERROUNDTRIPXREC
350
C18
  3
AcDbVariableDictionary
350
BD0
  3
ASE_INDEX_DICTIONARY
350
C08
  0
DICTIONARY
  5
BC6
330
A
100
AcDbDictionary
280
     1
281
     1
  3
ACAD_LAYOUTSELFREF
360
BF8
  0
DICTIONARY
  5
BC8
330
B
100
AcDbDictionary
280
     1
281
     1
  3
ACAD_LAYOUTSELFREF
360
BF9
  0
DICTIONARY
  5
C04
102
{ACAD_REACTORS
330
19
102
}
330
19
100
AcDbDictionary
281
     1
  0
DICTIONARY
  5
1A
102
{ACAD_REACTORS
330
19
102
}
330
19
100
AcDbDictionary
281
     1
  0
DICTIONARY
  5
B9D
102
{ACAD_REACTORS
330
19
102
}
330
19
100
AcDbDictionary
281
     1
  3
Layout1
350
BA0
  3
Model
350
B9F
  0
DICTIONARY
  5
C03
102
{ACAD_REACTORS
330
19
102
}
330
19
100
AcDbDictionary
281
     1
  0
DICTIONARY
  5
1B
102
{ACAD_REACTORS
330
19
102
}
330
19
100
AcDbDictionary
281
     1
  3
STANDARD
350
1C
  0
DICTIONARY
  5
B9E
102
{ACAD_REACTORS
330
19
102
}
330
19
100
AcDbDictionary
281
     1
  0
ACDBDICTIONARYWDFLT
  5
B9B
102
{ACAD_REACTORS
330
19
102
}
330
19
100
AcDbDictionary
281
     1
  3
Normal
350
B9C
100
AcDbDictionaryWithDefault
340
B9C
  0
DICTIONARY
  5
C18
102
{ACAD_REACTORS
330
19
102
}
330
19
100
AcDbDictionary
281
     1
  3
COLORDICT
350
C1A
  3
MATERIALDICT
350
C19
  0
DICTIONARY
  5
BD0
102
{ACAD_REACTORS
330
19
102
}
330
19
100
AcDbDictionary
281
     1
  3
DIMASSOC
350
BD1
  3
PROJECTNAME
350
C13
  0
DICTIONARY
  5
C08
102
{ACAD_REACTORS
330
19
102
}
330
19
100
AcDbDictionary
281
     1
  3
ASEBlockHierarchyIndexRecord
350
C0A
1001
DCO15
1040
1552229213.406
  0
XRECORD
  5
BF8
102
{ACAD_REACTORS
330
BC6
102
}
330
BC6
100
AcDbXrecord
280
     1
340
A
  0
XRECORD
  5
BF9
102
{ACAD_REACTORS
330
BC8
102
}
330
BC8
100
AcDbXrecord
280
     1
340
B
  0
LAYOUT
  5
BA0
102
{ACAD_XDICTIONARY
360
C1D
102
}
102
{ACAD_REACTORS
330
B9D
102
}
330
B9D
100
AcDbPlotSettings
  1

  2
ProgeSOFT PDF Wizard
  4

  6

 40
0.0
 41
0.0
 42
0.0
 43
0.0
 44
0.0
 45
0.0
 46
0.0
 47
0.0
 48
0.0
 49
0.0
140
0.0
141
0.0
142
1.0
143
1.0
 70
   688
 72
     0
 73
     0
 74
     5
  7

 75
    16
147
1.0
148
0.0
149
0.0
100
AcDbLayout
  1
Layout1
 70
     1
 71
     1
 10
0.0
 20
0.0
 11
12.0
 21
9.0
 12
0.0
 22
0.0
 32
0.0
 14
1.000000000000000E+20
 24
1.000000000000000E+20
 34
1.000000000000000E+20
 15
-1.000000000000000E+20
 25
-1.000000000000000E+20
 35
-1.000000000000000E+20
146
0.0
 13
0.0
 23
0.0
 33
0.0
 16
1.0
 26
0.0
 36
0.0
 17
0.0
 27
1.0
 37
0.0
 76
     0
330
B
  0
LAYOUT
  5
B9F
102
{ACAD_XDICTIONARY
360
C1B
102
}
102
{ACAD_REACTORS
330
B9D
102
}
330
B9D
100
AcDbPlotSettings
  1

  2
ProgeSOFT PDF Wizard
  4

  6

 40
0.0
 41
0.0
 42
0.0
 43
0.0
 44
0.0
 45
0.0
 46
0.0
 47
0.0
 48
0.0
 49
0.0
140
0.0
141
0.0
142
1.0
143
1.0
 70
  1712
 72
     0
 73
     0
 74
     0
  7

 75
     0
147
1.0
148
0.0
149
0.0
100
AcDbLayout
  1
Model
 70
     1
 71
     0
 10
0.0
 20
0.0
 11
12.0
 21
9.0
 12
0.0
 22
0.0
 32
0.0
 14
0.0
 24
0.0
 34
0.0
 15
0.0
 25
0.0
 35
0.0
146
0.0
 13
0.0
 23
0.0
 33
0.0
 16
1.0
 26
0.0
 36
0.0
 17
0.0
 27
1.0
 37
0.0
 76
     0
330
A
  0
MLINESTYLE
  5
1C
102
{ACAD_REACTORS
330
1B
102
}
330
1B
100
AcDbMlineStyle
  2
STANDARD
 70
     0
  3

 62
     0
 51
90.0
 52
90.0
 71
     2
 49
0.5
 62
   256
  6
BYLAYER
 49
-0.5
 62
   256
  6
BYLAYER
  0
ACDBPLACEHOLDER
  5
B9C
102
{ACAD_REACTORS
330
B9B
102
}
330
B9B
  0
XRECORD
  5
C1A
102
{ACAD_REACTORS
330
C18
102
}
330
C18
100
AcDbXrecord
280
     1
340
C04
  0
XRECORD
  5
C19
102
{ACAD_REACTORS
330
C18
102
}
330
C18
100
AcDbXrecord
280
     1
340
C03
  0
DICTIONARYVAR
  5
BD1
102
{ACAD_REACTORS
330
BD0
102
}
330
BD0
100
DictionaryVariables
280
     0
  1
1
  0
DICTIONARYVAR
  5
C13
102
{ACAD_REACTORS
330
BD0
102
}
330
BD0
100
DictionaryVariables
280
     0
  1

  0
XRECORD
  5
C0A
102
{ACAD_REACTORS
330
C08
102
}
330
C08
100
AcDbXrecord
280
     1
  0
DICTIONARY
  5
C1D
330
BA0
100
AcDbDictionary
280
     1
281
     1
  3
ACAD_XREC_ROUNDTRIP
360
C1E
  0
DICTIONARY
  5
C1B
330
B9F
100
AcDbDictionary
280
     1
281
     1
  3
ACAD_XREC_ROUNDTRIP
360
C1C
  0
XRECORD
  5
C1E
102
{ACAD_REACTORS
330
C1D
102
}
330
C1D
100
AcDbXrecord
280
     1
102
SHADEPLOT
 70
     0
102
SHADEPLOTRESLEVEL
 70
     2
102
SHADEPLOTCUSTOMDPI
 70
   300
  0
XRECORD
  5
C1C
102
{ACAD_REACTORS
330
C1B
102
}
330
C1B
100
AcDbXrecord
280
     1
102
SHADEPLOT
 70
     0
102
SHADEPLOTRESLEVEL
 70
     2
102
SHADEPLOTCUSTOMDPI
 70
   300
  0
ENDSEC
  0
EOF
