  0
SECTION
  2
HEADER
  9
$ACADVER
  1
AC1018
  9
$ACADMAINTVER
 70
     0
  9
$DWGCODEPAGE
  3
ANSI_1252
  9
$INSBASE
 10
0.0
 20
0.0
 30
0.0
  9
$EXTMIN
 10
-74.60069158953775
 20
-74.60073594230595
 30
0.0
  9
$EXTMAX
 10
843.8823325799685
 20
2267.882332579969
 30
0.0
  9
$LIMMIN
 10
0.0
 20
0.0
  9
$LIMMAX
 10
12.0
 20
9.0
  9
$ORTHOMODE
 70
     0
  9
$REGENMODE
 70
     1
  9
$FILLMODE
 70
     1
  9
$QTEXTMODE
 70
     0
  9
$MIRRTEXT
 70
     1
  9
$LTSCALE
 40
1.0
  9
$ATTMODE
 70
     1
  9
$TEXTSIZE
 40
0.2
  9
$TRACEWID
 40
0.05
  9
$TEXTSTYLE
  7
Standard
  9
$CLAYER
  8
Predefinito
  9
$CELTYPE
  6
ByLayer
  9
$CECOLOR
 62
   256
  9
$CELTSCALE
 40
1.0
  9
$DISPSILH
 70
     0
  9
$DIMSCALE
 40
1.0
  9
$DIMASZ
 40
0.18
  9
$DIMEXO
 40
0.0625
  9
$DIMDLI
 40
0.38
  9
$DIMRND
 40
0.0
  9
$DIMDLE
 40
0.0
  9
$DIMEXE
 40
0.18
  9
$DIMTP
 40
0.0
  9
$DIMTM
 40
0.0
  9
$DIMTXT
 40
0.18
  9
$DIMCEN
 40
0.09
  9
$DIMTSZ
 40
0.0
  9
$DIMTOL
 70
     0
  9
$DIMLIM
 70
     0
  9
$DIMTIH
 70
     1
  9
$DIMTOH
 70
     1
  9
$DIMSE1
 70
     0
  9
$DIMSE2
 70
     0
  9
$DIMTAD
 70
     0
  9
$DIMZIN
 70
     0
  9
$DIMBLK
  1

  9
$DIMASO
 70
     1
  9
$DIMSHO
 70
     1
  9
$DIMPOST
  1

  9
$DIMAPOST
  1

  9
$DIMALT
 70
     0
  9
$DIMALTD
 70
     2
  9
$DIMALTF
 40
25.4
  9
$DIMLFAC
 40
1.0
  9
$DIMTOFL
 70
     0
  9
$DIMTVP
 40
0.0
  9
$DIMTIX
 70
     0
  9
$DIMSOXD
 70
     0
  9
$DIMSAH
 70
     0
  9
$DIMBLK1
  1

  9
$DIMBLK2
  1

  9
$DIMSTYLE
  2
Standard
  9
$DIMCLRD
 70
     0
  9
$DIMCLRE
 70
     0
  9
$DIMCLRT
 70
     0
  9
$DIMTFAC
 40
1.0
  9
$DIMGAP
 40
0.09
  9
$DIMJUST
 70
     0
  9
$DIMSD1
 70
     0
  9
$DIMSD2
 70
     0
  9
$DIMTOLJ
 70
     1
  9
$DIMTZIN
 70
     0
  9
$DIMALTZ
 70
     0
  9
$DIMALTTZ
 70
     0
  9
$DIMUPT
 70
     0
  9
$DIMDEC
 70
     4
  9
$DIMTDEC
 70
     4
  9
$DIMALTU
 70
     2
  9
$DIMALTTD
 70
     2
  9
$DIMTXSTY
  7
Standard
  9
$DIMAUNIT
 70
     0
  9
$DIMADEC
 70
     0
  9
$DIMALTRND
 40
0.0
  9
$DIMAZIN
 70
     0
  9
$DIMDSEP
 70
    46
  9
$DIMATFIT
 70
     3
  9
$DIMFRAC
 70
     0
  9
$DIMLDRBLK
  1

  9
$DIMLUNIT
 70
     2
  9
$DIMLWD
 70
    -2
  9
$DIMLWE
 70
    -2
  9
$DIMTMOVE
 70
     2
  9
$LUNITS
 70
     2
  9
$LUPREC
 70
     3
  9
$SKETCHINC
 40
0.1
  9
$FILLETRAD
 40
0.5
  9
$AUNITS
 70
     0
  9
$AUPREC
 70
     0
  9
$MENU
  1
.
  9
$ELEVATION
 40
0.0
  9
$PELEVATION
 40
0.0
  9
$THICKNESS
 40
0.0
  9
$LIMCHECK
 70
     0
  9
$CHAMFERA
 40
0.5
  9
$CHAMFERB
 40
0.5
  9
$CHAMFERC
 40
1.0
  9
$CHAMFERD
 40
0.0
  9
$SKPOLY
 70
     0
  9
$TDCREATE
 40
2458123.405633032
  9
$TDUCREATE
 40
2458123.363966366
  9
$TDUPDATE
 40
2458123.405633044
  9
$TDUUPDATE
 40
2458123.363966377
  9
$TDINDWG
 40
0.0000000116
  9
$TDUSRTIMER
 40
0.0000000116
  9
$USRTIMER
 70
     1
  9
$ANGBASE
 50
0.0
  9
$ANGDIR
 70
     0
  9
$PDMODE
 70
     0
  9
$PDSIZE
 40
0.0
  9
$PLINEWID
 40
0.0
  9
$SPLFRAME
 70
     0
  9
$SPLINETYPE
 70
     6
  9
$SPLINESEGS
 70
     8
  9
$HANDSEED
  5
1F2
  9
$SURFTAB1
 70
     6
  9
$SURFTAB2
 70
     6
  9
$SURFTYPE
 70
     6
  9
$SURFU
 70
     6
  9
$SURFV
 70
     6
  9
$UCSBASE
  2

  9
$UCSNAME
  2

  9
$UCSORG
 10
0.0
 20
0.0
 30
0.0
  9
$UCSXDIR
 10
1.0
 20
0.0
 30
0.0
  9
$UCSYDIR
 10
0.0
 20
1.0
 30
0.0
  9
$UCSORTHOREF
  2

  9
$UCSORTHOVIEW
 70
     0
  9
$UCSORGTOP
 10
0.0
 20
0.0
 30
0.0
  9
$UCSORGBOTTOM
 10
0.0
 20
0.0
 30
0.0
  9
$UCSORGLEFT
 10
0.0
 20
0.0
 30
0.0
  9
$UCSORGRIGHT
 10
0.0
 20
0.0
 30
0.0
  9
$UCSORGFRONT
 10
0.0
 20
0.0
 30
0.0
  9
$UCSORGBACK
 10
0.0
 20
0.0
 30
0.0
  9
$PUCSBASE
  2

  9
$PUCSNAME
  2

  9
$PUCSORG
 10
0.0
 20
0.0
 30
0.0
  9
$PUCSXDIR
 10
1.0
 20
0.0
 30
0.0
  9
$PUCSYDIR
 10
0.0
 20
1.0
 30
0.0
  9
$PUCSORTHOREF
  2

  9
$PUCSORTHOVIEW
 70
     0
  9
$PUCSORGTOP
 10
0.0
 20
0.0
 30
0.0
  9
$PUCSORGBOTTOM
 10
0.0
 20
0.0
 30
0.0
  9
$PUCSORGLEFT
 10
0.0
 20
0.0
 30
0.0
  9
$PUCSORGRIGHT
 10
0.0
 20
0.0
 30
0.0
  9
$PUCSORGFRONT
 10
0.0
 20
0.0
 30
0.0
  9
$PUCSORGBACK
 10
0.0
 20
0.0
 30
0.0
  9
$USERI1
 70
     0
  9
$USERI2
 70
     0
  9
$USERI3
 70
     0
  9
$USERI4
 70
     0
  9
$USERI5
 70
     0
  9
$USERR1
 40
0.0
  9
$USERR2
 40
0.0
  9
$USERR3
 40
0.0
  9
$USERR4
 40
0.0
  9
$USERR5
 40
0.0
  9
$WORLDVIEW
 70
     1
  9
$SHADEDGE
 70
     3
  9
$SHADEDIF
 70
    70
  9
$TILEMODE
 70
     0
  9
$MAXACTVP
 70
    64
  9
$PINSBASE
 10
0.0
 20
0.0
 30
0.0
  9
$PLIMCHECK
 70
     0
  9
$PEXTMIN
 10
0.0
 20
0.0
 30
0.0
  9
$PEXTMAX
 10
0.0
 20
0.0
 30
0.0
  9
$PLIMMIN
 10
0.0
 20
0.0
  9
$PLIMMAX
 10
12.0
 20
9.0
  9
$UNITMODE
 70
     0
  9
$VISRETAIN
 70
     1
  9
$PLINEGEN
 70
     0
  9
$PSLTSCALE
 70
     1
  9
$TREEDEPTH
 70
  3020
  9
$CMLSTYLE
  2
Standard
  9
$CMLJUST
 70
     0
  9
$CMLSCALE
 40
1.0
  9
$PROXYGRAPHICS
 70
     1
  9
$MEASUREMENT
 70
     0
  9
$CELWEIGHT
370
    -1
  9
$ENDCAPS
280
     0
  9
$JOINSTYLE
280
     0
  9
$LWDISPLAY
290
     0
  9
$INSUNITS
 70
     4
  9
$HYPERLINKBASE
  1

  9
$STYLESHEET
  1

  9
$XEDIT
290
     1
  9
$CEPSNTYPE
380
     0
  9
$PSTYLEMODE
290
     1
  9
$FINGERPRINTGUID
  2
{1A8117D6-408C-4CE5-969B-038C4F4F141C}
  9
$VERSIONGUID
  2
{FAEB1C32-E019-11D5-929B-00C0DF256EC4}
  9
$EXTNAMES
290
     1
  9
$PSVPSCALE
 40
0.0
  9
$OLESTARTUP
290
     0
  9
$SORTENTS
280
   127
  9
$INDEXCTL
280
     0
  9
$HIDETEXT
280
     1
  9
$XCLIPFRAME
290
     0
  9
$HALOGAP
280
     0
  9
$OBSCOLOR
 70
   257
  9
$OBSLTYPE
280
     0
  9
$INTERSECTIONDISPLAY
280
     0
  9
$INTERSECTIONCOLOR
 70
   257
  9
$DIMASSOC
280
     2
  9
$PROJECTNAME
  1

  0
ENDSEC
  0
SECTION
  2
CLASSES
  0
CLASS
  1
ACDBDICTIONARYWDFLT
  2
AcDbDictionaryWithDefault
  3
ObjectDBX Classes
 90
        0
 91
        4
280
     0
281
     0
  0
CLASS
  1
VISUALSTYLE
  2
AcDbVisualStyle
  3
ObjectDBX Classes
 90
     4095
 91
        4
280
     0
281
     0
  0
CLASS
  1
SCALE
  2
AcDbScale
  3
ObjectDBX Classes
 90
     1153
 91
        4
280
     0
281
     0
  0
CLASS
  1
DICTIONARYVAR
  2
AcDbDictionaryVar
  3
ObjectDBX Classes
 90
        0
 91
        4
280
     0
281
     0
  0
ENDSEC
  0
SECTION
  2
TABLES
  0
TABLE
  2
VPORT
  5
8
330
0
100
AcDbSymbolTable
 70
     1
  0
VPORT
  5
29
330
8
100
AcDbSymbolTableRecord
100
AcDbViewportTableRecord
  2
*Active
 70
     0
 10
0.0
 20
0.0
 11
1.0
 21
1.0
 12
384.6408204952154
 22
1096.640798318831
 13
0.0
 23
0.0
 14
0.5
 24
0.5
 15
0.5
 25
0.5
 16
0.0
 26
0.0
 36
1.0
 17
0.0
 27
0.0
 37
0.0
 40
2389.332729892721
 41
0.3920980418223127
 42
50.0
 43
0.0
 44
0.0
 50
0.0
 51
0.0
 71
     0
 72
   100
 73
     1
 74
     3
 75
     0
 76
     0
 77
     0
 78
     0
281
     0
 65
     1
110
0.0
120
0.0
130
0.0
111
1.0
121
0.0
131
0.0
112
0.0
122
1.0
132
0.0
 79
     0
146
0.0
  0
ENDTAB
  0
TABLE
  2
LTYPE
  5
5
330
0
100
AcDbSymbolTable
 70
     1
  0
LTYPE
  5
14
330
5
100
AcDbSymbolTableRecord
100
AcDbLinetypeTableRecord
  2
ByBlock
 70
     0
  3

 72
    65
 73
     0
 40
0.0
  0
LTYPE
  5
15
330
5
100
AcDbSymbolTableRecord
100
AcDbLinetypeTableRecord
  2
ByLayer
 70
     0
  3

 72
    65
 73
     0
 40
0.0
  0
LTYPE
  5
16
330
5
100
AcDbSymbolTableRecord
100
AcDbLinetypeTableRecord
  2
Continuous
 70
     0
  3
Solid line
 72
    65
 73
     0
 40
0.0
  0
ENDTAB
  0
TABLE
  2
LAYER
  5
2
330
0
100
AcDbSymbolTable
 70
     2
  0
LAYER
  5
10
330
2
100
AcDbSymbolTableRecord
100
AcDbLayerTableRecord
  2
0
 70
     0
 62
     7
  6
Continuous
370
    -3
390
F
  0
LAYER
  5
3B
330
2
100
AcDbSymbolTableRecord
100
AcDbLayerTableRecord
  2
Predefinito
 70
     0
 62
     7
  6
Continuous
370
    -3
390
F
  0
ENDTAB
  0
TABLE
  2
STYLE
  5
3
330
0
100
AcDbSymbolTable
 70
     1
  0
STYLE
  5
11
330
3
100
AcDbSymbolTableRecord
100
AcDbTextStyleTableRecord
  2
Standard
 70
     0
 40
0.0
 41
1.0
 50
0.0
 71
     0
 42
0.2
  3
txt
  4

  0
ENDTAB
  0
TABLE
  2
VIEW
  5
6
330
0
100
AcDbSymbolTable
 70
     0
  0
ENDTAB
  0
TABLE
  2
UCS
  5
7
330
0
100
AcDbSymbolTable
 70
     0
  0
ENDTAB
  0
TABLE
  2
APPID
  5
9
330
0
100
AcDbSymbolTable
 70
     1
  0
APPID
  5
12
330
9
100
AcDbSymbolTableRecord
100
AcDbRegAppTableRecord
  2
ACAD
 70
     0
  0
ENDTAB
  0
TABLE
  2
DIMSTYLE
  5
A
330
0
100
AcDbSymbolTable
 70
     1
100
AcDbDimStyleTable
  0
DIMSTYLE
105
27
330
A
100
AcDbSymbolTableRecord
100
AcDbDimStyleTableRecord
  2
Standard
 70
     0
340
11
  0
ENDTAB
  0
TABLE
  2
BLOCK_RECORD
  5
1
330
0
100
AcDbSymbolTable
 70
     3
  0
BLOCK_RECORD
  5
1F
330
1
100
AcDbSymbolTableRecord
100
AcDbBlockTableRecord
  2
*Model_Space
340
22
  0
BLOCK_RECORD
  5
1C7
330
1
100
AcDbSymbolTableRecord
100
AcDbBlockTableRecord
  2
*Paper_Space
340
1C8
  0
BLOCK_RECORD
  5
23
330
1
100
AcDbSymbolTableRecord
100
AcDbBlockTableRecord
  2
*Paper_Space0
340
26
  0
BLOCK_RECORD
  5
1B
330
1
100
AcDbSymbolTableRecord
100
AcDbBlockTableRecord
  2
*Paper_Space1
340
1E
  0
BLOCK_RECORD
  5
1C2
330
1
100
AcDbSymbolTableRecord
100
AcDbBlockTableRecord
  2
*Paper_Space2
340
1C3
  0
ENDTAB
  0
ENDSEC
  0
SECTION
  2
BLOCKS
  0
BLOCK
  5
20
330
1F
100
AcDbEntity
  8
0
100
AcDbBlockBegin
  2
*Model_Space
 70
     0
 10
0.0
 20
0.0
 30
0.0
  3
*Model_Space
  1

  0
ENDBLK
  5
21
330
1F
100
AcDbEntity
  8
0
100
AcDbBlockEnd
  0
BLOCK
  5
1C9
330
1C7
100
AcDbEntity
 67
     1
  8
0
100
AcDbBlockBegin
  2
*Paper_Space
 70
     0
 10
0.0
 20
0.0
 30
0.0
  3
*Paper_Space
  1

  0
ENDBLK
  5
1CA
330
1C7
100
AcDbEntity
 67
     1
  8
0
100
AcDbBlockEnd
  0
BLOCK
  5
24
330
23
100
AcDbEntity
  8
0
100
AcDbBlockBegin
  2
*Paper_Space0
 70
     0
 10
0.0
 20
0.0
 30
0.0
  3
*Paper_Space0
  1

  0
ENDBLK
  5
25
330
23
100
AcDbEntity
  8
0
100
AcDbBlockEnd
  0
BLOCK
  5
1C
330
1B
100
AcDbEntity
  8
0
100
AcDbBlockBegin
  2
*Paper_Space1
 70
     0
 10
0.0
 20
0.0
 30
0.0
  3
*Paper_Space1
  1

  0
ENDBLK
  5
1D
330
1B
100
AcDbEntity
  8
0
100
AcDbBlockEnd
  0
BLOCK
  5
1C4
330
1C2
100
AcDbEntity
  8
0
100
AcDbBlockBegin
  2
*Paper_Space2
 70
     0
 10
0.0
 20
0.0
 30
0.0
  3
*Paper_Space2
  1

  0
VIEWPORT
  5
1C6
330
1C2
100
AcDbEntity
  8
0
100
AcDbViewport
 10
6.0
 20
4.5
 30
0.0
 40
12.696
 41
9.522
 68
     1
 69
     1
 12
6.0
 22
4.5
 13
0.0
 23
0.0
 14
0.5
 24
0.5
 15
0.5
 25
0.5
 16
0.0
 26
0.0
 36
1.0
 17
0.0
 27
0.0
 37
0.0
 42
50.0
 43
0.0
 44
0.0
 45
9.522
 50
0.0
 51
0.0
 72
   100
 90
   557152
  1

281
     0
 71
     1
 74
     0
110
0.0
120
0.0
130
0.0
111
1.0
121
0.0
131
0.0
112
0.0
122
1.0
132
0.0
 79
     0
146
0.0
170
     0
  0
ENDBLK
  5
1C5
330
1C2
100
AcDbEntity
  8
0
100
AcDbBlockEnd
  0
ENDSEC
  0
SECTION
  2
ENTITIES
  0
SPLINE
  5
3C
330
1F
100
AcDbEntity
  8
Predefinito
100
AcDbSpline
210
0.0
220
0.0
230
1.0
 70
    12
 71
     2
 72
     6
 73
     3
 74
     0
 42
0.0000000001
 43
0.0000000001
 40
0.0
 40
0.0
 40
0.0
 40
10.06939174853347
 40
10.06939174853347
 40
10.06939174853347
 10
653.1683610375152
 20
1281.98786941932
 30
0.0
 41
1.0
 10
653.039226294212
 20
1275.619280503616
 30
0.0
 41
0.7133028279800787
 10
646.6693510189987
 20
1275.636296301559
 30
0.0
 41
1.0
  0
SPLINE
  5
3D
330
1F
100
AcDbEntity
  8
Predefinito
100
AcDbSpline
210
0.0
220
0.0
230
1.0
 70
    12
 71
     2
 72
     6
 73
     3
 74
     0
 42
0.0000000001
 43
0.0000000001
 40
0.0
 40
0.0
 40
0.0
 40
10.06939174853108
 40
10.06939174853108
 40
10.06939174853108
 10
646.6693510189987
 20
1283.062736018211
 30
0.0
 41
1.0
 10
653.0392262942108
 20
1283.045720220267
 30
0.0
 41
0.7133028279800254
 10
653.1683610375138
 20
1289.41430913597
 30
0.0
 41
1.0
  0
SPLINE
  5
3E
330
1F
100
AcDbEntity
  8
Predefinito
100
AcDbSpline
210
0.0
220
0.0
230
1.0
 70
    12
 71
     2
 72
     6
 73
     3
 74
     0
 42
0.0000000001
 43
0.0000000001
 40
0.0
 40
0.0
 40
0.0
 40
10.0693917485336
 40
10.0693917485336
 40
10.0693917485336
 10
641.0953141409386
 20
1275.636296301559
 30
0.0
 41
1.0
 10
634.7254388657251
 20
1275.619280503616
 30
0.0
 41
0.7133028279800604
 10
634.5963041224221
 20
1281.98786941932
 30
0.0
 41
1.0
  0
SPLINE
  5
3F
330
1F
100
AcDbEntity
  8
Predefinito
100
AcDbSpline
210
0.0
220
0.0
230
1.0
 70
    24
 71
     2
 72
     6
 73
     3
 74
     0
 42
0.0000000001
 43
0.0000000001
 40
0.0
 40
0.0
 40
0.0
 40
5.574036878060042
 40
5.574036878060042
 40
5.574036878060042
 10
641.0953141409386
 20
1275.636296301559
 30
0.0
 10
643.8823325799686
 20
1275.636296301559
 30
0.0
 10
646.6693510189987
 20
1275.636296301559
 30
0.0
  0
POLYLINE
  5
40
330
1F
100
AcDbEntity
  8
Predefinito
100
AcDb2dPolyline
 66
     1
 10
0.0
 20
0.0
 30
0.0
  0
VERTEX
  5
41
330
40
100
AcDbEntity
  8
Predefinito
100
AcDbVertex
100
AcDb2dVertex
 10
132.3993084104396
 20
1288.284309922198
 30
0.0
  0
VERTEX
  5
42
330
40
100
AcDbEntity
  8
Predefinito
100
AcDbVertex
100
AcDb2dVertex
 10
132.3993084104396
 20
1275.181255007189
 30
0.0
  0
SEQEND
  5
43
330
40
100
AcDbEntity
  8
Predefinito
  0
SPLINE
  5
44
330
1F
100
AcDbEntity
  8
Predefinito
100
AcDbSpline
210
0.0
220
0.0
230
1.0
 70
    24
 71
     2
 72
     6
 73
     3
 74
     0
 42
0.0000000001
 43
0.0000000001
 40
0.0
 40
0.0
 40
0.0
 40
13.46957214915389
 40
13.46957214915389
 40
13.46957214915389
 10
794.0823325799684
 20
118.3992640593442
 30
0.0
 10
794.0823325799684
 20
125.1340501339212
 30
0.0
 10
794.0823325799684
 20
131.8688362084981
 30
0.0
  0
SPLINE
  5
45
330
1F
100
AcDbEntity
  8
Predefinito
100
AcDbSpline
210
0.0
220
0.0
230
1.0
 70
    24
 71
     2
 72
     6
 73
     3
 74
     0
 42
0.0000000001
 43
0.0000000001
 40
0.0
 40
0.0
 40
0.0
 40
0.485750613046747
 40
0.485750613046747
 40
0.485750613046747
 10
794.0823325799684
 20
131.8688362084981
 30
0.0
 10
794.0823325799684
 20
132.1117115150215
 30
0.0
 10
794.0823325799684
 20
132.3545868215448
 30
0.0
  0
SPLINE
  5
46
330
1F
100
AcDbEntity
  8
Predefinito
100
AcDbSpline
210
0.0
220
0.0
230
1.0
 70
    28
 71
     2
 72
     6
 73
     3
 74
     0
 42
0.0000000001
 43
0.0000000001
 40
-25.42726553999239
 40
-25.42726553999239
 40
-25.42726553999239
 40
-21.99114857512855
 40
-21.99114857512855
 40
-21.99114857512855
 10
795.3823325799683
 20
132.3737508225132
 30
0.0
 41
0.8741474450410921
 10
795.3823325799683
 20
132.5189869737454
 30
0.0
 41
0.9084708691207942
 10
795.3823325799683
 20
131.8688362084983
 30
0.0
 41
1.0
  0
SPLINE
  5
47
330
1F
100
AcDbEntity
  8
Predefinito
100
AcDbSpline
210
0.0
220
0.0
230
1.0
 70
    28
 71
     2
 72
     6
 73
     3
 74
     0
 42
0.0000000001
 43
0.0000000001
 40
17.22967220953153
 40
17.22967220953153
 40
17.22967220953153
 40
20.42035224833366
 40
20.42035224833366
 40
20.42035224833366
 10
795.8823325799688
 20
131.8755731965725
 30
0.0
 41
0.8741474450410948
 10
795.8823325799686
 20
132.0104353370025
 30
0.0
 41
0.9084708691207962
 10
795.8823325799683
 20
131.4067239121302
 30
0.0
 41
1.0
  0
SPLINE
  5
48
330
1F
100
AcDbEntity
  8
Predefinito
100
AcDbSpline
210
0.0
220
0.0
230
1.0
 70
    24
 71
     2
 72
     6
 73
     3
 74
     0
 42
0.0000000001
 43
0.0000000001
 40
0.0
 40
0.0
 40
0.0
 40
12.47927830601878
 40
12.47927830601878
 40
12.47927830601878
 10
795.8823325799683
 20
131.4022332281347
 30
0.0
 10
795.8823325799683
 20
125.1625940751254
 30
0.0
 10
795.8823325799683
 20
118.922954922116
 30
0.0
  0
SPLINE
  5
49
330
1F
100
AcDbEntity
  8
Predefinito
100
AcDbSpline
210
0.0
220
0.0
230
1.0
 70
    24
 71
     2
 72
     6
 73
     3
 74
     0
 42
0.0000000001
 43
0.0000000001
 40
0.0
 40
0.0
 40
0.0
 40
13.46473604834208
 40
13.46473604834208
 40
13.46473604834208
 10
795.3823325799683
 20
131.8640001076863
 30
0.0
 10
795.3823325799683
 20
125.1316320835153
 30
0.0
 10
795.3823325799683
 20
118.3992640593442
 30
0.0
  0
SPLINE
  5
4A
330
1F
100
AcDbEntity
  8
Predefinito
100
AcDbSpline
210
0.0
220
0.0
230
1.0
 70
    24
 71
     2
 72
     6
 73
     3
 74
     0
 42
0.0000000001
 43
0.0000000001
 40
0.0
 40
0.0
 40
0.0
 40
1.299999999999955
 40
1.299999999999955
 40
1.299999999999955
 10
795.3823325799683
 20
118.3992640593442
 30
0.0
 10
794.7323325799683
 20
118.3992640593442
 30
0.0
 10
794.0823325799684
 20
118.3992640593442
 30
0.0
  0
SPLINE
  5
4B
330
1F
100
AcDbEntity
  8
Predefinito
100
AcDbSpline
210
0.0
220
0.0
230
1.0
 70
    24
 71
     2
 72
     6
 73
     3
 74
     0
 42
0.0000000001
 43
0.0000000001
 40
0.0
 40
0.0
 40
0.0
 40
6.999999999999886
 40
6.999999999999886
 40
6.999999999999886
 10
493.6823325799683
 20
132.3992640593445
 30
0.0
 10
493.6823325799683
 20
128.8992640593446
 30
0.0
 10
493.6823325799683
 20
125.3992640593447
 30
0.0
  0
SPLINE
  5
4C
330
1F
100
AcDbEntity
  8
Predefinito
100
AcDbSpline
210
0.0
220
0.0
230
1.0
 70
    24
 71
     2
 72
     6
 73
     3
 74
     0
 42
0.0000000001
 43
0.0000000001
 40
0.0
 40
0.0
 40
0.0
 40
6.971684360290027
 40
6.971684360290027
 40
6.971684360290027
 10
493.6823325799683
 20
125.3992640593447
 30
0.0
 10
493.6823325799683
 20
121.9134218791996
 30
0.0
 10
493.6823325799683
 20
118.4275796990546
 30
0.0
  0
SPLINE
  5
4D
330
1F
100
AcDbEntity
  8
Predefinito
100
AcDbSpline
210
0.0
220
0.0
230
1.0
 70
    28
 71
     2
 72
     8
 73
     5
 74
     0
 42
0.0000000001
 43
0.0000000001
 40
-33.6739462556656
 40
-33.6739462556656
 40
-33.6739462556656
 40
-32.98672286269283
 40
-32.98672286269283
 40
-21.99114857512855
 40
-21.99114857512855
 40
-21.99114857512855
 10
492.3823325799683
 20
118.4275796990544
 30
0.0
 41
0.9656765759202984
 10
492.3823325799685
 20
118.3992640593446
 30
0.0
 41
0.9816941738241591
 10
492.3823325799683
 20
118.3992640593445
 30
0.0
 41
1.0
 10
492.3823325799682
 20
118.3992640593445
 30
0.0
 41
0.7071067811865476
 10
492.3823325799682
 20
125.3992640593447
 30
0.0
 41
1.0
  0
SPLINE
  5
4E
330
1F
100
AcDbEntity
  8
Predefinito
100
AcDbSpline
210
0.0
220
0.0
230
1.0
 70
    28
 71
     2
 72
     8
 73
     5
 74
     0
 42
0.0000000001
 43
0.0000000001
 40
9.572040116406402
 40
9.572040116406402
 40
9.572040116406402
 40
10.21017612416683
 40
10.21017612416683
 40
20.42035224833366
 40
20.42035224833366
 40
20.42035224833366
 10
491.882332579968
 20
118.9255571533609
 30
0.0
 41
0.9656765759202985
 10
491.8823325799683
 20
118.8992640593447
 30
0.0
 41
0.9816941738241592
 10
491.8823325799683
 20
118.8992640593447
 30
0.0
 41
1.0
 10
491.8823325799682
 20
118.8992640593447
 30
0.0
 41
0.7071067811865476
 10
491.8823325799682
 20
125.3992640593447
 30
0.0
 41
1.0
  0
SPLINE
  5
4F
330
1F
100
AcDbEntity
  8
Predefinito
100
AcDbSpline
210
0.0
220
0.0
230
1.0
 70
    24
 71
     2
 72
     6
 73
     3
 74
     0
 42
0.0000000001
 43
0.0000000001
 40
0.0
 40
0.0
 40
0.0
 40
6.473706905983732
 40
6.473706905983732
 40
6.473706905983732
 10
491.8823325799682
 20
125.3992640593447
 30
0.0
 10
491.8823325799683
 20
128.6361175123365
 30
0.0
 10
491.8823325799683
 20
131.8729709653284
 30
0.0
  0
SPLINE
  5
50
330
1F
100
AcDbEntity
  8
Predefinito
100
AcDbSpline
210
0.0
220
0.0
230
1.0
 70
    24
 71
     2
 72
     6
 73
     3
 74
     0
 42
0.0000000001
 43
0.0000000001
 40
0.0
 40
0.0
 40
0.0
 40
6.971684360290084
 40
6.971684360290084
 40
6.971684360290084
 10
492.3823325799682
 20
125.3992640593447
 30
0.0
 10
492.3823325799683
 20
128.8851062394897
 30
0.0
 10
492.3823325799683
 20
132.3709484196347
 30
0.0
  0
SPLINE
  5
51
330
1F
100
AcDbEntity
  8
Predefinito
100
AcDbSpline
210
0.0
220
0.0
230
1.0
 70
    24
 71
     2
 72
     6
 73
     3
 74
     0
 42
0.0000000001
 43
0.0000000001
 40
0.0
 40
0.0
 40
0.0
 40
1.300000000000011
 40
1.300000000000011
 40
1.300000000000011
 10
492.3823325799683
 20
132.3992640593447
 30
0.0
 10
493.0323325799683
 20
132.3992640593447
 30
0.0
 10
493.6823325799683
 20
132.3992640593447
 30
0.0
  0
SPLINE
  5
52
330
1F
100
AcDbEntity
  8
Predefinito
100
AcDbSpline
210
0.0
220
0.0
230
1.0
 70
    15
 71
     2
 72
    12
 73
     9
 74
     0
 42
0.0000000001
 43
0.0000000001
 40
0.0
 40
0.0
 40
0.0
 40
118.590992289437
 40
118.590992289437
 40
237.1819845788741
 40
237.1819845788741
 40
355.7729768683113
 40
355.7729768683113
 40
474.3639691577484
 40
474.3639691577484
 40
474.3639691577484
 10
663.4224899247089
 20
198.3241240578059
 30
0.0
 41
1.0
 10
590.4976299262478
 20
217.8642814025461
 30
0.0
 41
0.7071067811865493
 10
570.9574725815073
 20
144.9394214040851
 30
0.0
 41
1.0
 10
551.4173152367667
 20
72.01456140562374
 30
0.0
 41
0.7071067811865462
 10
624.3421752352281
 20
52.47440406088342
 30
0.0
 41
1.0
 10
697.2670352336894
 20
32.93424671614289
 30
0.0
 41
0.7071067811865474
 10
716.8071925784299
 20
105.8591067146042
 30
0.0
 41
1.0
 10
736.34734992317
 20
178.7839667130655
 30
0.0
 41
0.707106781186548
 10
663.4224899247089
 20
198.3241240578059
 30
0.0
 41
1.0
  0
SPLINE
  5
53
330
1F
100
AcDbEntity
  8
Predefinito
100
AcDbSpline
210
0.0
220
0.0
230
1.0
 70
    24
 71
     2
 72
     6
 73
     3
 74
     0
 42
0.0000000001
 43
0.0000000001
 40
0.0
 40
0.0
 40
0.0
 40
79.65240834608329
 40
79.65240834608329
 40
79.65240834608329
 10
634.4459559567633
 20
280.2593275431218
 30
0.0
 10
634.4459559567633
 20
240.4331233700802
 30
0.0
 10
634.4459559567632
 20
200.6069191970385
 30
0.0
  0
SPLINE
  5
54
330
1F
100
AcDbEntity
  8
Predefinito
100
AcDbSpline
210
0.0
220
0.0
230
1.0
 70
    24
 71
     2
 72
     6
 73
     3
 74
     0
 42
0.0000000001
 43
0.0000000001
 40
0.0
 40
0.0
 40
0.0
 40
79.65236729125701
 40
79.65236729125701
 40
79.65236729125701
 10
653.3187092031736
 20
200.6069602518648
 30
0.0
 10
653.3187092031735
 20
240.4331438974933
 30
0.0
 10
653.3187092031735
 20
280.2593275431218
 30
0.0
  0
SPLINE
  5
55
330
1F
100
AcDbEntity
  8
Predefinito
100
AcDbSpline
210
0.0
220
0.0
230
1.0
 70
    24
 71
     2
 72
     6
 73
     3
 74
     0
 42
0.0000000001
 43
0.0000000001
 40
0.0
 40
0.0
 40
0.0
 40
18.87275324641018
 40
18.87275324641018
 40
18.87275324641018
 10
653.3187092031735
 20
280.2593275431218
 30
0.0
 10
643.8823325799684
 20
280.2593275431218
 30
0.0
 10
634.4459559567633
 20
280.2593275431218
 30
0.0
  0
SPLINE
  5
56
330
1F
100
AcDbEntity
  8
Predefinito
100
AcDbSpline
210
0.0
220
0.0
230
1.0
 70
    24
 71
     2
 72
     6
 73
     3
 74
     0
 42
0.0000000001
 43
0.0000000001
 40
0.0
 40
0.0
 40
0.0
 40
6.971684360290141
 40
6.971684360290141
 40
6.971684360290141
 10
493.8823325799683
 20
125.3992640593447
 30
0.0
 10
493.8823325799683
 20
121.9134218791996
 30
0.0
 10
493.8823325799684
 20
118.4275796990545
 30
0.0
  0
SPLINE
  5
57
330
1F
100
AcDbEntity
  8
Predefinito
100
AcDbSpline
210
0.0
220
0.0
230
1.0
 70
    28
 71
     2
 72
     8
 73
     5
 74
     0
 42
0.0000000001
 43
0.0000000001
 40
32.29949946972006
 40
32.29949946972006
 40
32.29949946972006
 40
32.98672286269283
 40
32.98672286269283
 40
43.9822971502571
 40
43.9822971502571
 40
43.9822971502571
 10
493.882332579968
 20
132.3709484196348
 30
0.0
 41
0.9656765759202985
 10
493.8823325799683
 20
132.3992640593447
 30
0.0
 41
0.9816941738241592
 10
493.8823325799683
 20
132.3992640593447
 30
0.0
 41
1.0
 10
493.8823325799682
 20
132.3992640593447
 30
0.0
 41
0.7071067811865476
 10
493.8823325799683
 20
125.3992640593447
 30
0.0
 41
1.0
  0
SPLINE
  5
58
330
1F
100
AcDbEntity
  8
Predefinito
100
AcDbSpline
210
0.0
220
0.0
230
1.0
 70
    24
 71
     2
 72
     6
 73
     3
 74
     0
 42
0.0000000001
 43
0.0000000001
 40
0.0
 40
0.0
 40
0.0
 40
10.00000000000006
 40
10.00000000000006
 40
10.00000000000006
 10
503.8823325799684
 20
118.3992640593447
 30
0.0
 10
498.8823325799683
 20
118.3992640593447
 30
0.0
 10
493.8823325799683
 20
118.3992640593447
 30
0.0
  0
SPLINE
  5
59
330
1F
100
AcDbEntity
  8
Predefinito
100
AcDbSpline
210
0.0
220
0.0
230
1.0
 70
    24
 71
     2
 72
     6
 73
     3
 74
     0
 42
0.0000000001
 43
0.0000000001
 40
0.0
 40
0.0
 40
0.0
 40
10.0
 40
10.0
 40
10.0
 10
793.8823325799683
 20
118.3992640593447
 30
0.0
 10
788.8823325799683
 20
118.3992640593447
 30
0.0
 10
783.8823325799683
 20
118.3992640593447
 30
0.0
  0
SPLINE
  5
5A
330
1F
100
AcDbEntity
  8
Predefinito
100
AcDbSpline
210
0.0
220
0.0
230
1.0
 70
    24
 71
     2
 72
     6
 73
     3
 74
     0
 42
0.0000000001
 43
0.0000000001
 40
0.0
 40
0.0
 40
0.0
 40
7.0
 40
7.0
 40
7.0
 10
793.8823325799683
 20
125.3992640593447
 30
0.0
 10
793.8823325799683
 20
121.8992640593447
 30
0.0
 10
793.8823325799683
 20
118.3992640593447
 30
0.0
  0
SPLINE
  5
5B
330
1F
100
AcDbEntity
  8
Predefinito
100
AcDbSpline
210
0.0
220
0.0
230
1.0
 70
    28
 71
     2
 72
     8
 73
     5
 74
     0
 42
0.0000000001
 43
0.0000000001
 40
32.29949946972006
 40
32.29949946972006
 40
32.29949946972006
 40
32.98672286269283
 40
32.98672286269283
 40
43.9822971502571
 40
43.9822971502571
 40
43.9822971502571
 10
793.8823325799683
 20
132.3709484196348
 30
0.0
 41
0.9656765759202985
 10
793.8823325799683
 20
132.3992640593447
 30
0.0
 41
0.9816941738241592
 10
793.8823325799683
 20
132.3992640593447
 30
0.0
 41
1.0
 10
793.8823325799683
 20
132.3992640593447
 30
0.0
 41
0.7071067811865476
 10
793.8823325799683
 20
125.3992640593447
 30
0.0
 41
1.0
  0
SPLINE
  5
5C
330
1F
100
AcDbEntity
  8
Predefinito
100
AcDbSpline
210
0.0
220
0.0
230
1.0
 70
    12
 71
     2
 72
     6
 73
     3
 74
     0
 42
0.0000000001
 43
0.0000000001
 40
0.0
 40
0.0
 40
0.0
 40
10.99557428756417
 40
10.99557428756417
 40
10.99557428756417
 10
496.8823325799684
 20
125.3992640593447
 30
0.0
 41
1.0
 10
496.8823325799683
 20
118.3992640593447
 30
0.0
 41
0.7071067811865482
 10
503.8823325799683
 20
118.3992640593447
 30
0.0
 41
1.0
  0
SPLINE
  5
5D
330
1F
100
AcDbEntity
  8
Predefinito
100
AcDbSpline
210
0.0
220
0.0
230
1.0
 70
    12
 71
     2
 72
     6
 73
     3
 74
     0
 42
0.0000000001
 43
0.0000000001
 40
0.0
 40
0.0
 40
0.0
 40
10.99557168666779
 40
10.99557168666779
 40
10.99557168666779
 10
503.882329979072
 20
132.3992640593441
 30
0.0
 41
1.0
 10
496.8823325799684
 20
132.3992614584487
 30
0.0
 41
0.7071069125516352
 10
496.8823325799685
 20
125.3992640593447
 30
0.0
 41
1.0
  0
SPLINE
  5
5E
330
1F
100
AcDbEntity
  8
Predefinito
100
AcDbSpline
210
0.0
220
0.0
230
1.0
 70
    12
 71
     2
 72
     6
 73
     3
 74
     0
 42
0.0000000001
 43
0.0000000001
 40
0.0
 40
0.0
 40
0.0
 40
10.99557428756423
 40
10.99557428756423
 40
10.99557428756423
 10
790.8823325799683
 20
125.3992640593447
 30
0.0
 41
1.0
 10
790.8823325799685
 20
132.3992640593447
 30
0.0
 41
0.707106781186541
 10
783.8823325799684
 20
132.3992640593447
 30
0.0
 41
1.0
  0
SPLINE
  5
5F
330
1F
100
AcDbEntity
  8
Predefinito
100
AcDbSpline
210
0.0
220
0.0
230
1.0
 70
    12
 71
     2
 72
     6
 73
     3
 74
     0
 42
0.0000000001
 43
0.0000000001
 40
0.0
 40
0.0
 40
0.0
 40
10.99557374726208
 40
10.99557374726208
 40
10.99557374726208
 10
783.8823325799684
 20
118.3992640593446
 30
0.0
 41
1.0
 10
790.8823320396663
 20
118.3992640593446
 30
0.0
 41
0.7071068084759189
 10
790.8823325799683
 20
125.3992635190425
 30
0.0
 41
1.0
  0
SPLINE
  5
60
330
1F
100
AcDbEntity
  8
Predefinito
100
AcDbSpline
210
0.0
220
0.0
230
1.0
 70
    24
 71
     2
 72
     6
 73
     3
 74
     0
 42
0.0000000001
 43
0.0000000001
 40
0.0
 40
0.0
 40
0.0
 40
0.2828427124746532
 40
0.2828427124746532
 40
0.2828427124746532
 10
794.0823325799684
 20
118.3992640593442
 30
0.0
 10
793.9823325799683
 20
118.4992640593442
 30
0.0
 10
793.8823325799683
 20
118.5992640593442
 30
0.0
  0
SPLINE
  5
61
330
1F
100
AcDbEntity
  8
Predefinito
100
AcDbSpline
210
0.0
220
0.0
230
1.0
 70
    24
 71
     2
 72
     6
 73
     3
 74
     0
 42
0.0000000001
 43
0.0000000001
 40
0.0
 40
0.0
 40
0.0
 40
0.2512511346619496
 40
0.2512511346619496
 40
0.2512511346619496
 10
793.8823325799683
 20
132.1992640593442
 30
0.0
 10
793.9711632705184
 20
132.2880947498944
 30
0.0
 10
794.0599939610686
 20
132.3769254404445
 30
0.0
  0
SPLINE
  5
62
330
1F
100
AcDbEntity
  8
Predefinito
100
AcDbSpline
210
0.0
220
0.0
230
1.0
 70
    24
 71
     2
 72
     6
 73
     3
 74
     0
 42
0.0000000001
 43
0.0000000001
 40
0.0
 40
0.0
 40
0.0
 40
0.7071067811865476
 40
0.7071067811865476
 40
0.7071067811865476
 10
795.8823325799683
 20
118.8992640593442
 30
0.0
 10
795.6323325799683
 20
118.6492640593442
 30
0.0
 10
795.3823325799683
 20
118.3992640593442
 30
0.0
  0
SPLINE
  5
63
330
1F
100
AcDbEntity
  8
Predefinito
100
AcDbSpline
210
0.0
220
0.0
230
1.0
 70
    24
 71
     2
 72
     6
 73
     3
 74
     0
 42
0.0000000001
 43
0.0000000001
 40
0.0
 40
0.0
 40
0.0
 40
0.6890661984132567
 40
0.6890661984132567
 40
0.6890661984132567
 10
795.3950891983839
 20
132.3865074409287
 30
0.0
 10
795.6387108891761
 20
132.1428857501365
 30
0.0
 10
795.8823325799683
 20
131.8992640593442
 30
0.0
  0
SPLINE
  5
64
330
1F
100
AcDbEntity
  8
Predefinito
100
AcDbSpline
210
0.0
220
0.0
230
1.0
 70
    24
 71
     2
 72
     6
 73
     3
 74
     0
 42
0.0000000001
 43
0.0000000001
 40
0.0
 40
0.0
 40
0.0
 40
1.299999999999955
 40
1.299999999999955
 40
1.299999999999955
 10
794.0823325799684
 20
132.3992640593442
 30
0.0
 10
794.7323325799683
 20
132.3992640593442
 30
0.0
 10
795.3823325799683
 20
132.3992640593442
 30
0.0
  0
SPLINE
  5
65
330
1F
100
AcDbEntity
  8
Predefinito
100
AcDbSpline
210
0.0
220
0.0
230
1.0
 70
    24
 71
     2
 72
     6
 73
     3
 74
     0
 42
0.0000000001
 43
0.0000000001
 40
0.0
 40
0.0
 40
0.0
 40
0.2828427124746632
 40
0.2828427124746632
 40
0.2828427124746632
 10
493.6823325799684
 20
132.3992640593447
 30
0.0
 10
493.7823325799684
 20
132.2992640593447
 30
0.0
 10
493.8823325799684
 20
132.1992640593447
 30
0.0
  0
SPLINE
  5
66
330
1F
100
AcDbEntity
  8
Predefinito
100
AcDbSpline
210
0.0
220
0.0
230
1.0
 70
    24
 71
     2
 72
     6
 73
     3
 74
     0
 42
0.0000000001
 43
0.0000000001
 40
0.0
 40
0.0
 40
0.0
 40
0.2628205316221665
 40
0.2628205316221665
 40
0.2628205316221665
 10
493.8823325799684
 20
118.5992640593447
 30
0.0
 10
493.7894114898959
 20
118.5063429692721
 30
0.0
 10
493.6964903998233
 20
118.4134218791996
 30
0.0
  0
SPLINE
  5
67
330
1F
100
AcDbEntity
  8
Predefinito
100
AcDbSpline
210
0.0
220
0.0
230
1.0
 70
    24
 71
     2
 72
     6
 73
     3
 74
     0
 42
0.0000000001
 43
0.0000000001
 40
0.0
 40
0.0
 40
0.0
 40
0.6870846003340106
 40
0.6870846003340106
 40
0.6870846003340106
 10
491.8823325799683
 20
131.8992640593447
 30
0.0
 10
492.1252536700408
 20
132.1421851494172
 30
0.0
 10
492.3681747601133
 20
132.3851062394897
 30
0.0
  0
SPLINE
  5
68
330
1F
100
AcDbEntity
  8
Predefinito
100
AcDbSpline
210
0.0
220
0.0
230
1.0
 70
    24
 71
     2
 72
     6
 73
     3
 74
     0
 42
0.0000000001
 43
0.0000000001
 40
0.0
 40
0.0
 40
0.0
 40
0.6870846003342316
 40
0.6870846003342316
 40
0.6870846003342316
 10
492.3681747601135
 20
118.4134218791995
 30
0.0
 10
492.1252536700409
 20
118.6563429692721
 30
0.0
 10
491.8823325799683
 20
118.8992640593446
 30
0.0
  0
SPLINE
  5
69
330
1F
100
AcDbEntity
  8
Predefinito
100
AcDbSpline
210
0.0
220
0.0
230
1.0
 70
    24
 71
     2
 72
     6
 73
     3
 74
     0
 42
0.0000000001
 43
0.0000000001
 40
0.0
 40
0.0
 40
0.0
 40
1.300000000000011
 40
1.300000000000011
 40
1.300000000000011
 10
493.6823325799683
 20
118.3992640593447
 30
0.0
 10
493.0323325799683
 20
118.3992640593447
 30
0.0
 10
492.3823325799683
 20
118.3992640593447
 30
0.0
  0
SPLINE
  5
6A
330
1F
100
AcDbEntity
  8
Predefinito
100
AcDbSpline
210
0.0
220
0.0
230
1.0
 70
    15
 71
     2
 72
    12
 73
     9
 74
     0
 42
0.0000000001
 43
0.0000000001
 40
0.0
 40
0.0
 40
0.0
 40
119.0622151388088
 40
119.0622151388088
 40
238.1244302776176
 40
238.1244302776176
 40
357.1866454164264
 40
357.1866454164264
 40
476.2488605552352
 40
476.2488605552352
 40
476.2488605552352
 10
663.5001334208883
 20
198.6138935304248
 30
0.0
 41
1.0
 10
736.7147531167385
 20
178.9960625818696
 30
0.0
 41
0.7071067811865476
 10
717.0969221681834
 20
105.7814428860193
 30
0.0
 41
1.0
 10
697.479091219628
 20
32.56682319016897
 30
0.0
 41
0.7071067811865476
 10
624.2644715237778
 20
52.1846541387242
 30
0.0
 41
1.0
 10
551.0498518279276
 20
71.80248508727944
 30
0.0
 41
0.7071067811865476
 10
570.6676827764828
 20
145.0171047831298
 30
0.0
 41
1.0
 10
590.2855137250382
 20
218.2317244789801
 30
0.0
 41
0.7071067811865476
 10
663.5001334208883
 20
198.6138935304248
 30
0.0
 41
1.0
  0
SPLINE
  5
6B
330
1F
100
AcDbEntity
  8
Predefinito
100
AcDbSpline
210
0.0
220
0.0
230
1.0
 70
    12
 71
     2
 72
    12
 73
     9
 74
     0
 42
0.0000000001
 43
0.0000000001
 40
0.0
 40
0.0
 40
0.0
 40
44.09366044573215
 40
44.09366044573215
 40
88.1873208914643
 40
88.1873208914643
 40
132.2809813371964
 40
132.2809813371964
 40
176.3746417829286
 40
176.3746417829286
 40
176.3746417829286
 10
685.5216793437812
 20
62.06360958566986
 30
0.0
 41
1.0
 10
694.6216636085873
 20
39.85745590381666
 30
0.0
 41
0.882366002031063
 10
681.2512147568613
 20
19.92873109601275
 30
0.0
 41
1.0
 10
667.8807659051354
 20
0.0000062882088335
 30
0.0
 41
0.882366002031063
 10
643.882370647082
 20
-0.0000004999852834
 30
0.0
 41
1.0
 10
619.8839753890288
 20
-0.0000072881794054
 30
0.0
 41
0.882366002031063
 10
606.5135152632134
 20
19.92870995568203
 30
0.0
 41
1.0
 10
593.1430551373982
 20
39.85742719954347
 30
0.0
 41
0.882366002031063
 10
602.2430268397223
 20
62.06358602944232
 30
0.0
 41
1.0
  0
SPLINE
  5
6C
330
1F
100
AcDbEntity
  8
Predefinito
100
AcDbSpline
210
0.0
220
0.0
230
1.0
 70
    24
 71
     2
 72
     6
 73
     3
 74
     0
 42
0.0000000001
 43
0.0000000001
 40
0.0
 40
0.0
 40
0.0
 40
9.372046603372155
 40
9.372046603372155
 40
9.372046603372155
 10
493.8823325799683
 20
132.3992640593447
 30
0.0
 10
498.5683558816544
 20
132.3992640593447
 30
0.0
 10
503.2543791833405
 20
132.3992640593447
 30
0.0
  0
SPLINE
  5
6D
330
1F
100
AcDbEntity
  8
Predefinito
100
AcDbSpline
210
0.0
220
0.0
230
1.0
 70
    24
 71
     2
 72
     6
 73
     3
 74
     0
 42
0.0000000001
 43
0.0000000001
 40
0.0
 40
0.0
 40
0.0
 40
9.406323265820902
 40
9.406323265820902
 40
9.406323265820902
 10
784.4760093141474
 20
132.3992640593447
 30
0.0
 10
789.1791709470579
 20
132.3992640593447
 30
0.0
 10
793.8823325799683
 20
132.3992640593447
 30
0.0
  0
SPLINE
  5
6E
330
1F
100
AcDbEntity
  8
Predefinito
100
AcDbSpline
210
0.0
220
0.0
230
1.0
 70
    24
 71
     2
 72
     6
 73
     3
 74
     0
 42
0.0000000001
 43
0.0000000001
 40
0.0
 40
0.0
 40
0.0
 40
64.52653136568722
 40
64.52653136568722
 40
64.52653136568722
 10
503.8823331811097
 20
132.3992640593447
 30
0.0
 10
536.1455988639534
 20
132.3992640593447
 30
0.0
 10
568.408864546797
 20
132.3992640593447
 30
0.0
  0
SPLINE
  5
6F
330
1F
100
AcDbEntity
  8
Predefinito
100
AcDbSpline
210
0.0
220
0.0
230
1.0
 70
    24
 71
     2
 72
     6
 73
     3
 74
     0
 42
0.0000000001
 43
0.0000000001
 40
0.0
 40
0.0
 40
0.0
 40
64.52655938551823
 40
64.52655938551823
 40
64.52655938551823
 10
719.3557728881856
 20
132.3992640593447
 30
0.0
 10
751.6190525809448
 20
132.3992640593447
 30
0.0
 10
783.8823322737038
 20
132.3992640593447
 30
0.0
  0
SPLINE
  5
70
330
1F
100
AcDbEntity
  8
Predefinito
100
AcDbSpline
210
0.0
220
0.0
230
1.0
 70
    24
 71
     2
 72
     6
 73
     3
 74
     0
 42
0.0000000001
 43
0.0000000001
 40
0.0
 40
0.0
 40
0.0
 40
64.52653459024611
 40
64.52653459024611
 40
64.52653459024611
 10
783.882332202821
 20
118.3992640593447
 30
0.0
 10
751.619064907698
 20
118.3992640593447
 30
0.0
 10
719.3557976125749
 20
118.3992640593447
 30
0.0
  0
SPLINE
  5
71
330
1F
100
AcDbEntity
  8
Predefinito
100
AcDbSpline
210
0.0
220
0.0
230
1.0
 70
    24
 71
     2
 72
     6
 73
     3
 74
     0
 42
0.0000000001
 43
0.0000000001
 40
0.0
 40
0.0
 40
0.0
 40
64.52656340706483
 40
64.52656340706483
 40
64.52656340706483
 10
568.4088964980454
 20
118.3992640593447
 30
0.0
 10
536.145614794513
 20
118.3992640593447
 30
0.0
 10
503.8823330909805
 20
118.3992640593447
 30
0.0
  0
SPLINE
  5
72
330
1F
100
AcDbEntity
  8
Predefinito
100
AcDbSpline
210
0.0
220
0.0
230
1.0
 70
    24
 71
     2
 72
     6
 73
     3
 74
     0
 42
0.0000000001
 43
0.0000000001
 40
0.0
 40
0.0
 40
0.0
 40
2.67294523080659
 40
2.67294523080659
 40
2.67294523080659
 10
794.0823325799684
 20
1234.882332579969
 30
0.0
 10
794.0823325799684
 20
1233.545859964565
 30
0.0
 10
794.0823325799684
 20
1232.209387349162
 30
0.0
  0
SPLINE
  5
73
330
1F
100
AcDbEntity
  8
Predefinito
100
AcDbSpline
210
0.0
220
0.0
230
1.0
 70
    24
 71
     2
 72
     6
 73
     3
 74
     0
 42
0.0000000001
 43
0.0000000001
 40
0.0
 40
0.0
 40
0.0
 40
6.996193033045984
 40
6.996193033045984
 40
6.996193033045984
 10
794.0823325799684
 20
1234.882332579969
 30
0.0
 10
794.0823325799684
 20
1238.380429096492
 30
0.0
 10
794.0823325799685
 20
1241.878525613015
 30
0.0
  0
SPLINE
  5
74
330
1F
100
AcDbEntity
  8
Predefinito
100
AcDbSpline
210
0.0
220
0.0
230
1.0
 70
    28
 71
     2
 72
     6
 73
     3
 74
     0
 42
0.0000000001
 43
0.0000000001
 40
-8.933904108645974
 40
-8.933904108645974
 40
-8.933904108645974
 40
0.0
 40
0.0
 40
0.0
 10
794.0823325799681
 20
1227.927009817768
 30
0.0
 41
0.9107590973927734
 10
794.0823325799681
 20
1227.331686800554
 30
0.0
 41
0.7620242597140625
 10
794.0823325799684
 20
1232.209387349162
 30
0.0
 41
1.0
  0
SPLINE
  5
75
330
1F
100
AcDbEntity
  8
Predefinito
100
AcDbSpline
210
0.0
220
0.0
230
1.0
 70
    24
 71
     2
 72
     6
 73
     3
 74
     0
 42
0.0000000001
 43
0.0000000001
 40
0.0
 40
0.0
 40
0.0
 40
4.301541532362762
 40
4.301541532362762
 40
4.301541532362762
 10
795.3823325799683
 20
1232.209387349162
 30
0.0
 10
795.3823325799683
 20
1230.05861658298
 30
0.0
 10
795.3823325799683
 20
1227.907845816799
 30
0.0
  0
SPLINE
  5
76
330
1F
100
AcDbEntity
  8
Predefinito
100
AcDbSpline
210
0.0
220
0.0
230
1.0
 70
    24
 71
     2
 72
     6
 73
     3
 74
     0
 42
0.0000000001
 43
0.0000000001
 40
0.0
 40
0.0
 40
0.0
 40
3.994288565765601
 40
3.994288565765601
 40
3.994288565765601
 10
795.8823325799683
 20
1232.400312008506
 30
0.0
 10
795.8823325799683
 20
1230.403167725623
 30
0.0
 10
795.8823325799683
 20
1228.40602344274
 30
0.0
  0
SPLINE
  5
77
330
1F
100
AcDbEntity
  8
Predefinito
100
AcDbSpline
210
0.0
220
0.0
230
1.0
 70
    28
 71
     2
 72
     8
 73
     5
 74
     0
 42
0.0000000001
 43
0.0000000001
 40
27.43984833369835
 40
27.43984833369835
 40
27.43984833369835
 40
30.63052837250049
 40
30.63052837250049
 40
40.84070449666731
 40
40.84070449666731
 40
40.84070449666731
 10
795.8823325799688
 20
1241.358641717197
 30
0.0
 41
0.8741474450410948
 10
795.8823325799686
 20
1241.493503857627
 30
0.0
 41
0.9084708691207962
 10
795.8823325799683
 20
1240.889792432754
 30
0.0
 41
1.0
 10
795.8823325799683
 20
1238.407771861292
 30
0.0
 41
0.7071067811865476
 10
795.8823325799683
 20
1232.400312008506
 30
0.0
 41
1.0
  0
SPLINE
  5
78
330
1F
100
AcDbEntity
  8
Predefinito
100
AcDbSpline
210
0.0
220
0.0
230
1.0
 70
    24
 71
     2
 72
     6
 73
     3
 74
     0
 42
0.0000000001
 43
0.0000000001
 40
0.0
 40
0.0
 40
0.0
 40
6.996193033045756
 40
6.996193033045756
 40
6.996193033045756
 10
795.3823325799683
 20
1241.878525613014
 30
0.0
 10
795.3823325799683
 20
1238.380429096491
 30
0.0
 10
795.3823325799683
 20
1234.882332579969
 30
0.0
  0
SPLINE
  5
79
330
1F
100
AcDbEntity
  8
Predefinito
100
AcDbSpline
210
0.0
220
0.0
230
1.0
 70
    24
 71
     2
 72
     6
 73
     3
 74
     0
 42
0.0000000001
 43
0.0000000001
 40
0.0
 40
0.0
 40
0.0
 40
2.67294523080659
 40
2.67294523080659
 40
2.67294523080659
 10
795.3823325799683
 20
1232.209387349162
 30
0.0
 10
795.3823325799683
 20
1233.545859964565
 30
0.0
 10
795.3823325799683
 20
1234.882332579969
 30
0.0
  0
SPLINE
  5
7A
330
1F
100
AcDbEntity
  8
Predefinito
100
AcDbSpline
210
0.0
220
0.0
230
1.0
 70
    24
 71
     2
 72
     6
 73
     3
 74
     0
 42
0.0000000001
 43
0.0000000001
 40
0.0
 40
0.0
 40
0.0
 40
0.2828427124745225
 40
0.2828427124745225
 40
0.2828427124745225
 10
493.8823325799684
 20
1228.082332579968
 30
0.0
 10
493.7823325799683
 20
1227.982332579968
 30
0.0
 10
493.6823325799683
 20
1227.882332579969
 30
0.0
  0
SPLINE
  5
7B
330
1F
100
AcDbEntity
  8
Predefinito
100
AcDbSpline
210
0.0
220
0.0
230
1.0
 70
    24
 71
     2
 72
     6
 73
     3
 74
     0
 42
0.0000000001
 43
0.0000000001
 40
0.0
 40
0.0
 40
0.0
 40
13.97168436030347
 40
13.97168436030347
 40
13.97168436030347
 10
493.6823325799683
 20
1241.854016940272
 30
0.0
 10
493.6823325799683
 20
1234.86817476012
 30
0.0
 10
493.6823325799683
 20
1227.882332579969
 30
0.0
  0
SPLINE
  5
7C
330
1F
100
AcDbEntity
  8
Predefinito
100
AcDbSpline
210
0.0
220
0.0
230
1.0
 70
    24
 71
     2
 72
     6
 73
     3
 74
     0
 42
0.0000000001
 43
0.0000000001
 40
0.0
 40
0.0
 40
0.0
 40
13.97168436029028
 40
13.97168436029028
 40
13.97168436029028
 10
492.3823325799683
 20
1227.882332579969
 30
0.0
 10
492.3823325799683
 20
1234.868174760114
 30
0.0
 10
492.3823325799682
 20
1241.854016940259
 30
0.0
  0
SPLINE
  5
7D
330
1F
100
AcDbEntity
  8
Predefinito
100
AcDbSpline
210
0.0
220
0.0
230
1.0
 70
    24
 71
     2
 72
     6
 73
     3
 74
     0
 42
0.0000000001
 43
0.0000000001
 40
0.0
 40
0.0
 40
0.0
 40
0.6870846003340507
 40
0.6870846003340507
 40
0.6870846003340507
 10
491.8823325799682
 20
1241.382332579969
 30
0.0
 10
492.1252536700408
 20
1241.625253670041
 30
0.0
 10
492.3681747601133
 20
1241.868174760114
 30
0.0
  0
SPLINE
  5
7E
330
1F
100
AcDbEntity
  8
Predefinito
100
AcDbSpline
210
0.0
220
0.0
230
1.0
 70
    24
 71
     2
 72
     6
 73
     3
 74
     0
 42
0.0000000001
 43
0.0000000001
 40
0.0
 40
0.0
 40
0.0
 40
13.0
 40
13.0
 40
13.0
 10
491.8823325799683
 20
1228.382332579969
 30
0.0
 10
491.8823325799683
 20
1234.882332579969
 30
0.0
 10
491.8823325799682
 20
1241.382332579969
 30
0.0
  0
SPLINE
  5
7F
330
1F
100
AcDbEntity
  8
Predefinito
100
AcDbSpline
210
0.0
220
0.0
230
1.0
 70
    24
 71
     2
 72
     6
 73
     3
 74
     0
 42
0.0000000001
 43
0.0000000001
 40
0.0
 40
0.0
 40
0.0
 40
1.37650605179206
 40
1.37650605179206
 40
1.37650605179206
 10
631.003792999747
 20
1591.344763525545
 30
0.0
 10
630.3181589844038
 20
1591.284778321875
 30
0.0
 10
629.6325249690606
 20
1591.224793118204
 30
0.0
  0
SPLINE
  5
80
330
1F
100
AcDbEntity
  8
Predefinito
100
AcDbSpline
210
0.0
220
0.0
230
1.0
 70
    24
 71
     2
 72
     6
 73
     3
 74
     0
 42
0.0000000001
 43
0.0000000001
 40
0.0
 40
0.0
 40
0.0
 40
29.63486229709861
 40
29.63486229709861
 40
29.63486229709861
 10
629.064901431419
 20
1591.17513249351
 30
0.0
 10
643.8823325799683
 20
1591.17513249351
 30
0.0
 10
658.6997637285176
 20
1591.17513249351
 30
0.0
  0
SPLINE
  5
81
330
1F
100
AcDbEntity
  8
Predefinito
100
AcDbSpline
210
0.0
220
0.0
230
1.0
 70
    24
 71
     2
 72
     6
 73
     3
 74
     0
 42
0.0000000001
 43
0.0000000001
 40
0.0
 40
0.0
 40
0.0
 40
21.45651526758854
 40
21.45651526758854
 40
21.45651526758854
 10
654.6323325799683
 20
1595.33098660868
 30
0.0
 10
643.904074946174
 20
1595.33098660868
 30
0.0
 10
633.1758173123798
 20
1595.33098660868
 30
0.0
  0
SPLINE
  5
82
330
1F
100
AcDbEntity
  8
Predefinito
100
AcDbSpline
210
0.0
220
0.0
230
1.0
 70
    24
 71
     2
 72
     6
 73
     3
 74
     0
 42
0.0000000001
 43
0.0000000001
 40
0.0
 40
0.0
 40
0.0
 40
2.971826819984926
 40
2.971826819984926
 40
2.971826819984926
 10
633.1323325799683
 20
1595.33098660868
 30
0.0
 10
633.1323325799683
 20
1593.845073198688
 30
0.0
 10
633.1323325799683
 20
1592.359159788695
 30
0.0
  0
SPLINE
  5
83
330
1F
100
AcDbEntity
  8
Predefinito
100
AcDbSpline
210
0.0
220
0.0
230
1.0
 70
    24
 71
     2
 72
     6
 73
     3
 74
     0
 42
0.0000000001
 43
0.0000000001
 40
0.0
 40
0.0
 40
0.0
 40
21.05732428586577
 40
21.05732428586577
 40
21.05732428586577
 10
633.3323325799684
 20
1595.53098660868
 30
0.0
 10
643.8609947229013
 20
1595.53098660868
 30
0.0
 10
654.3896568658341
 20
1595.53098660868
 30
0.0
  0
SPLINE
  5
84
330
1F
100
AcDbEntity
  8
Predefinito
100
AcDbSpline
210
0.0
220
0.0
230
1.0
 70
    24
 71
     2
 72
     6
 73
     3
 74
     0
 42
0.0000000001
 43
0.0000000001
 40
0.0
 40
0.0
 40
0.0
 40
1.598472064981934
 40
1.598472064981934
 40
1.598472064981934
 10
628.8823325799683
 20
1590.975893553891
 30
0.0
 10
628.8823325799682
 20
1590.176657521401
 30
0.0
 10
628.8823325799681
 20
1589.377421488909
 30
0.0
  0
SPLINE
  5
85
330
1F
100
AcDbEntity
  8
Predefinito
100
AcDbSpline
210
0.0
220
0.0
230
1.0
 70
    24
 71
     2
 72
     6
 73
     3
 74
     0
 42
0.0000000001
 43
0.0000000001
 40
0.0
 40
0.0
 40
0.0
 40
30.0
 40
30.0
 40
30.0
 10
658.8823325799683
 20
1590.975893553891
 30
0.0
 10
643.8823325799683
 20
1590.975893553891
 30
0.0
 10
628.8823325799683
 20
1590.975893553891
 30
0.0
  0
SPLINE
  5
86
330
1F
100
AcDbEntity
  8
Predefinito
100
AcDbSpline
210
0.0
220
0.0
230
1.0
 70
    24
 71
     2
 72
     6
 73
     3
 74
     0
 42
0.0000000001
 43
0.0000000001
 40
0.0
 40
0.0
 40
0.0
 40
0.2520943633084596
 40
0.2520943633084596
 40
0.2520943633084596
 10
633.3323325799684
 20
1595.53098660868
 30
0.0
 10
633.2432037630713
 20
1595.441857791783
 30
0.0
 10
633.1540749461741
 20
1595.352728974886
 30
0.0
  0
SPLINE
  5
87
330
1F
100
AcDbEntity
  8
Predefinito
100
AcDbSpline
210
0.0
220
0.0
230
1.0
 70
    24
 71
     2
 72
     6
 73
     3
 74
     0
 42
0.0000000001
 43
0.0000000001
 40
0.0
 40
0.0
 40
0.0
 40
0.2292437210961318
 40
0.2292437210961318
 40
0.2292437210961318
 10
629.064901431419
 20
1591.17513249351
 30
0.0
 10
628.987464024854
 20
1591.090624393425
 30
0.0
 10
628.9100266182892
 20
1591.00611629334
 30
0.0
  0
SPLINE
  5
88
330
1F
100
AcDbEntity
  8
Predefinito
100
AcDbSpline
210
0.0
220
0.0
230
1.0
 70
    24
 71
     2
 72
     6
 73
     3
 74
     0
 42
0.0000000001
 43
0.0000000001
 40
0.0
 40
0.0
 40
0.0
 40
7.967639268902985
 40
7.967639268902985
 40
7.967639268902985
 10
643.8823325799684
 20
1595.882332579969
 30
0.0
 10
647.8661522144199
 20
1595.882332579969
 30
0.0
 10
651.8499718488714
 20
1595.882332579968
 30
0.0
  0
SPLINE
  5
89
330
1F
100
AcDbEntity
  8
Predefinito
100
AcDbSpline
210
0.0
220
0.0
230
1.0
 70
    12
 71
     2
 72
     8
 73
     5
 74
     0
 42
0.0000000001
 43
0.0000000001
 40
0.0
 40
0.0
 40
0.0
 40
0.032360731096901
 40
0.032360731096901
 40
12.59873134545607
 40
12.59873134545607
 40
12.59873134545607
 10
635.9146933110653
 20
1595.8823325634
 30
0.0
 41
1.0
 10
635.8985129455168
 20
1595.882332563401
 30
0.0
 41
1.0
 10
635.8823325799684
 20
1595.882332563401
 30
0.0
 41
1.0
 10
635.8823325799684
 20
1595.882332579968
 30
0.0
 41
0.7071067811865476
 10
643.8823325799684
 20
1595.882332579969
 30
0.0
 41
1.0
  0
SPLINE
  5
8A
330
1F
100
AcDbEntity
  8
Predefinito
100
AcDbSpline
210
0.0
220
0.0
230
1.0
 70
    24
 71
     2
 72
     6
 73
     3
 74
     0
 42
0.0000000001
 43
0.0000000001
 40
0.0
 40
0.0
 40
0.0
 40
14.5
 40
14.5
 40
14.5
 10
643.8823325799684
 20
1586.882332579969
 30
0.0
 10
636.6323325799684
 20
1586.882332579969
 30
0.0
 10
629.3823325799684
 20
1586.882332579969
 30
0.0
  0
SPLINE
  5
8B
330
1F
100
AcDbEntity
  8
Predefinito
100
AcDbSpline
210
0.0
220
0.0
230
1.0
 70
    24
 71
     2
 72
     6
 73
     3
 74
     0
 42
0.0000000001
 43
0.0000000001
 40
0.0
 40
0.0
 40
0.0
 40
14.5
 40
14.5
 40
14.5
 10
658.3823325799684
 20
1586.882332579969
 30
0.0
 10
651.1323325799684
 20
1586.882332579969
 30
0.0
 10
643.8823325799684
 20
1586.882332579969
 30
0.0
  0
SPLINE
  5
8C
330
1F
100
AcDbEntity
  8
Predefinito
100
AcDbSpline
210
0.0
220
0.0
230
1.0
 70
    24
 71
     2
 72
     6
 73
     3
 74
     0
 42
0.0000000001
 43
0.0000000001
 40
0.0
 40
0.0
 40
0.0
 40
1.995088908940716
 40
1.995088908940716
 40
1.995088908940716
 10
628.8823325799684
 20
1589.377421488909
 30
0.0
 10
628.8823325799684
 20
1588.379877034439
 30
0.0
 10
628.8823325799684
 20
1587.382332579969
 30
0.0
  0
SPLINE
  5
8D
330
1F
100
AcDbEntity
  8
Predefinito
100
AcDbSpline
210
0.0
220
0.0
230
1.0
 70
    24
 71
     2
 72
     6
 73
     3
 74
     0
 42
0.0000000001
 43
0.0000000001
 40
0.0
 40
0.0
 40
0.0
 40
29.98483801806924
 40
29.98483801806924
 40
29.98483801806924
 10
628.8823325799684
 20
1587.382332579969
 30
0.0
 10
643.874751589003
 20
1587.382332579969
 30
0.0
 10
658.8671705980377
 20
1587.382332579969
 30
0.0
  0
SPLINE
  5
8E
330
1F
100
AcDbEntity
  8
Predefinito
100
AcDbSpline
210
0.0
220
0.0
230
1.0
 70
    24
 71
     2
 72
     6
 73
     3
 74
     0
 42
0.0000000001
 43
0.0000000001
 40
0.0
 40
0.0
 40
0.0
 40
29.0
 40
29.0
 40
29.0
 10
658.3823325799683
 20
1592.359159788695
 30
0.0
 10
643.8823325799683
 20
1592.359159788695
 30
0.0
 10
629.3823325799683
 20
1592.359159788695
 30
0.0
  0
SPLINE
  5
8F
330
1F
100
AcDbEntity
  8
Predefinito
100
AcDbSpline
210
0.0
220
0.0
230
1.0
 70
    24
 71
     2
 72
     6
 73
     3
 74
     0
 42
0.0000000001
 43
0.0000000001
 40
0.0
 40
0.0
 40
0.0
 40
1.0
 40
1.0
 40
1.0
 10
629.3823325799683
 20
1592.359159788695
 30
0.0
 10
629.3823325799683
 20
1591.859159788695
 30
0.0
 10
629.3823325799683
 20
1591.359159788695
 30
0.0
  0
SPLINE
  5
90
330
1F
100
AcDbEntity
  8
Predefinito
100
AcDbSpline
210
0.0
220
0.0
230
1.0
 70
    24
 71
     2
 72
     6
 73
     3
 74
     0
 42
0.0000000001
 43
0.0000000001
 40
0.0
 40
0.0
 40
0.0
 40
29.0
 40
29.0
 40
29.0
 10
629.3823325799683
 20
1591.359159788695
 30
0.0
 10
643.8823325799683
 20
1591.359159788695
 30
0.0
 10
658.3823325799683
 20
1591.359159788695
 30
0.0
  0
SPLINE
  5
91
330
1F
100
AcDbEntity
  8
Predefinito
100
AcDbSpline
210
0.0
220
0.0
230
1.0
 70
    12
 71
     2
 72
    10
 73
     7
 74
     0
 42
0.0000000001
 43
0.0000000001
 40
-4.466952054322986
 40
-4.466952054322986
 40
-4.466952054322986
 40
-3.141592653589793
 40
-3.141592653589793
 40
-1.570796326794897
 40
-1.570796326794897
 40
0.9648356783173373
 40
0.9648356783173373
 40
0.9648356783173373
 10
568.421840576395
 20
2267.882332579969
 30
0.0
 41
0.9227722958206714
 10
566.5520516373774
 20
2267.882332579968
 30
0.0
 41
0.7528713466261497
 10
624.3421752352281
 20
2267.882332579969
 30
0.0
 41
1.0
 10
697.2670352336895
 20
2267.882332579969
 30
0.0
 41
0.7071067811865476
 10
716.8071925784297
 20
2267.882332579969
 30
0.0
 41
1.0
 10
718.0750085809859
 20
2267.882324218749
 30
0.0
 41
1.0
 10
719.342824583542
 20
2267.882324218748
 30
0.0
 41
1.0
  0
SPLINE
  5
92
330
1F
100
AcDbEntity
  8
Predefinito
100
AcDbSpline
210
0.0
220
0.0
230
1.0
 70
    28
 71
     2
 72
    10
 73
     7
 74
     0
 42
0.0000000001
 43
0.0000000001
 40
1.276272015520854
 40
1.276272015520854
 40
1.276272015520854
 40
1.570796326794897
 40
1.570796326794897
 40
3.141592653589793
 40
3.141592653589793
 40
4.417864669110646
 40
4.417864669110646
 40
4.417864669110646
 10
719.3747669498609
 20
2233.882332579968
 30
0.0
 41
0.9107590973927763
 10
719.5543462443467
 20
2233.882332579968
 30
0.0
 41
0.9450825214724777
 10
716.812906975302
 20
2233.882332579969
 30
0.0
 41
1.0
 10
697.2712184625344
 20
2233.882332579968
 30
0.0
 41
0.7071067811865476
 10
624.340644067201
 20
2233.882332579969
 30
0.0
 41
1.0
 10
569.3550137137488
 20
2233.882332579969
 30
0.0
 41
0.7620242597140701
 10
568.3898982100758
 20
2233.882332579969
 30
0.0
 41
0.910759097392776
  0
SPLINE
  5
93
330
1F
100
AcDbEntity
  8
Predefinito
100
AcDbSpline
210
0.0
220
0.0
230
1.0
 70
     8
 71
     3
 72
    13
 73
     9
 74
     0
 42
0.0000000001
 43
0.0000000001
 40
0.0
 40
0.0
 40
0.0
 40
0.0
 40
0.7035741086867475
 40
1.451867383504849
 40
3.598718878226872
 40
7.134817376230874
 40
8.536923122487627
 40
9.478275941084554
 40
9.478275941084554
 40
9.478275941084554
 40
9.478275941084554
 10
640.9520537008564
 20
1238.13450565572
 30
0.0
 10
640.7156429163051
 20
1238.135666881983
 30
0.0
 10
640.2375860793279
 20
1238.208328488488
 30
0.0
 10
639.1192136344097
 20
1238.68547547259
 30
0.0
 10
637.4593822307331
 20
1240.053983577122
 30
0.0
 10
635.8184578904022
 20
1241.758472242253
 30
0.0
 10
634.6102794305942
 20
1243.303128321963
 30
0.0
 10
634.2006481052886
 20
1243.972459956483
 30
0.0
 10
634.1097557985279
 20
1244.275378333468
 30
0.0
  0
SPLINE
  5
94
330
1F
100
AcDbEntity
  8
Predefinito
100
AcDbSpline
210
0.0
220
0.0
230
1.0
 70
    12
 71
     2
 72
     6
 73
     3
 74
     0
 42
0.0000000001
 43
0.0000000001
 40
0.0
 40
0.0
 40
0.0
 40
7.272919341217659
 40
7.272919341217659
 40
7.272919341217659
 10
634.1097557985267
 20
1244.275378333468
 30
0.0
 41
1.0
 10
634.0464428439128
 20
1240.639469841703
 30
0.0
 41
0.9999999912234784
 10
633.9840933192625
 20
1237.003544701181
 30
0.0
 41
1.0
  0
SPLINE
  5
95
330
1F
100
AcDbEntity
  8
Predefinito
100
AcDbSpline
210
0.0
220
0.0
230
1.0
 70
    24
 71
     2
 72
     6
 73
     3
 74
     0
 42
0.0000000001
 43
0.0000000001
 40
0.0
 40
0.0
 40
0.0
 40
19.79647852140602
 40
19.79647852140602
 40
19.79647852140602
 10
633.9840933192654
 20
1237.003544701181
 30
0.0
 10
643.8823325799684
 20
1237.003544701181
 30
0.0
 10
653.7805718406714
 20
1237.003544701181
 30
0.0
  0
SPLINE
  5
96
330
1F
100
AcDbEntity
  8
Predefinito
100
AcDbSpline
210
0.0
220
0.0
230
1.0
 70
    12
 71
     2
 72
     6
 73
     3
 74
     0
 42
0.0000000001
 43
0.0000000001
 40
0.0
 40
0.0
 40
0.0
 40
7.272736972899
 40
7.272736972899
 40
7.272736972899
 10
653.7805718406671
 20
1237.003544701181
 30
0.0
 41
1.0
 10
653.7182231448745
 20
1240.639378658411
 30
0.0
 41
0.9999999911986692
 10
653.6549096825778
 20
1244.275195943412
 30
0.0
 41
1.0
  0
SPLINE
  5
97
330
1F
100
AcDbEntity
  8
Predefinito
100
AcDbSpline
210
0.0
220
0.0
230
1.0
 70
     8
 71
     3
 72
    12
 73
     8
 74
     0
 42
0.0000000001
 43
0.0000000001
 40
0.0
 40
0.0
 40
0.0
 40
0.0
 40
0.9382650471845467
 40
2.407305264318218
 40
5.878798658422768
 40
8.025737169680593
 40
9.477666120809854
 40
9.477666120809854
 40
9.477666120809854
 40
9.477666120809854
 10
653.6549096825822
 20
1244.275195943412
 30
0.0
 10
653.5644117695851
 20
1243.972946908822
 30
0.0
 10
653.1401513639913
 20
1243.288031821317
 30
0.0
 10
651.9318118538552
 20
1241.743314372533
 30
0.0
 10
650.2893645687576
 20
1240.040308226256
 30
0.0
 10
648.463432235877
 20
1238.535058614796
 30
0.0
 10
647.2999377009604
 20
1238.13096973438
 30
0.0
 10
646.8126114590805
 20
1238.13450565572
 30
0.0
  0
SPLINE
  5
98
330
1F
100
AcDbEntity
  8
Predefinito
100
AcDbSpline
210
0.0
220
0.0
230
1.0
 70
    24
 71
     2
 72
     6
 73
     3
 74
     0
 42
0.0000000001
 43
0.0000000001
 40
0.0
 40
0.0
 40
0.0
 40
5.860557758224104
 40
5.860557758224104
 40
5.860557758224104
 10
646.8126114590805
 20
1238.13450565572
 30
0.0
 10
643.8823325799684
 20
1238.13450565572
 30
0.0
 10
640.9520537008564
 20
1238.13450565572
 30
0.0
  0
SPLINE
  5
99
330
1F
100
AcDbEntity
  8
Predefinito
100
AcDbSpline
210
0.0
220
0.0
230
1.0
 70
    24
 71
     2
 72
     6
 73
     3
 74
     0
 42
0.0000000001
 43
0.0000000001
 40
0.0
 40
0.0
 40
0.0
 40
19.79647852140602
 40
19.79647852140602
 40
19.79647852140602
 10
633.9840933192654
 20
1236.88233257997
 30
0.0
 10
643.8823325799684
 20
1236.88233257997
 30
0.0
 10
653.7805718406714
 20
1236.88233257997
 30
0.0
  0
SPLINE
  5
9A
330
1F
100
AcDbEntity
  8
Predefinito
100
AcDbSpline
210
0.0
220
0.0
230
1.0
 70
    24
 71
     2
 72
     6
 73
     3
 74
     0
 42
0.0000000001
 43
0.0000000001
 40
0.0
 40
0.0
 40
0.0
 40
5.860557758224331
 40
5.860557758224331
 40
5.860557758224331
 10
640.9520537008563
 20
1238.28838810629
 30
0.0
 10
643.8823325799684
 20
1238.28838810629
 30
0.0
 10
646.8126114590806
 20
1238.28838810629
 30
0.0
  0
SPLINE
  5
9B
330
1F
100
AcDbEntity
  8
Predefinito
100
AcDbSpline
210
0.0
220
0.0
230
1.0
 70
    24
 71
     2
 72
     6
 73
     3
 74
     0
 42
0.0000000001
 43
0.0000000001
 40
0.0
 40
0.0
 40
0.0
 40
5.019130395008233
 40
5.019130395008233
 40
5.019130395008233
 10
646.3918977774725
 20
1262.39105878319
 30
0.0
 10
643.8823325799684
 20
1262.39105878319
 30
0.0
 10
641.3727673824643
 20
1262.39105878319
 30
0.0
  0
SPLINE
  5
9C
330
1F
100
AcDbEntity
  8
Predefinito
100
AcDbSpline
210
0.0
220
0.0
230
1.0
 70
    24
 71
     2
 72
     6
 73
     3
 74
     0
 42
0.0000000001
 43
0.0000000001
 40
0.0
 40
0.0
 40
0.0
 40
17.40401181910818
 40
17.40401181910818
 40
17.40401181910818
 10
652.8909077959887
 20
1262.39105878319
 30
0.0
 10
653.0427787399419
 20
1253.690378231285
 30
0.0
 10
653.1946496838952
 20
1244.98969767938
 30
0.0
  0
SPLINE
  5
9D
330
1F
100
AcDbEntity
  8
Predefinito
100
AcDbSpline
210
0.0
220
0.0
230
1.0
 70
    24
 71
     2
 72
     6
 73
     3
 74
     0
 42
0.0000000001
 43
0.0000000001
 40
0.0
 40
0.0
 40
0.0
 40
17.40401181910818
 40
17.40401181910818
 40
17.40401181910818
 10
634.5700154760416
 20
1244.98969767938
 30
0.0
 10
634.7218864199949
 20
1253.690378231285
 30
0.0
 10
634.8737573639481
 20
1262.39105878319
 30
0.0
  0
SPLINE
  5
9E
330
1F
100
AcDbEntity
  8
Predefinito
100
AcDbSpline
210
0.0
220
0.0
230
1.0
 70
    24
 71
     2
 72
     6
 73
     3
 74
     0
 42
0.0000000001
 43
0.0000000001
 40
0.0
 40
0.0
 40
0.0
 40
5.999086170937971
 40
5.999086170937971
 40
5.999086170937971
 10
652.3909839484104
 20
1262.88233257997
 30
0.0
 10
649.3914408629414
 20
1262.88233257997
 30
0.0
 10
646.3918977774724
 20
1262.88233257997
 30
0.0
  0
SPLINE
  5
9F
330
1F
100
AcDbEntity
  8
Predefinito
100
AcDbSpline
210
0.0
220
0.0
230
1.0
 70
    24
 71
     2
 72
     6
 73
     3
 74
     0
 42
0.0000000001
 43
0.0000000001
 40
0.0
 40
0.0
 40
0.0
 40
5.019130395008006
 40
5.019130395008006
 40
5.019130395008006
 10
646.3918977774724
 20
1262.88233257997
 30
0.0
 10
643.8823325799684
 20
1262.88233257997
 30
0.0
 10
641.3727673824644
 20
1262.88233257997
 30
0.0
  0
SPLINE
  5
A0
330
1F
100
AcDbEntity
  8
Predefinito
100
AcDbSpline
210
0.0
220
0.0
230
1.0
 70
    24
 71
     2
 72
     6
 73
     3
 74
     0
 42
0.0000000001
 43
0.0000000001
 40
0.0
 40
0.0
 40
0.0
 40
5.971168659034106
 40
5.971168659034106
 40
5.971168659034106
 10
641.3727673824644
 20
1262.88233257997
 30
0.0
 10
638.3871830529474
 20
1262.88233257997
 30
0.0
 10
635.4015987234303
 20
1262.88233257997
 30
0.0
  0
SPLINE
  5
A1
330
1F
100
AcDbEntity
  8
Predefinito
100
AcDbSpline
210
0.0
220
0.0
230
1.0
 70
    24
 71
     2
 72
     6
 73
     3
 74
     0
 42
0.0000000001
 43
0.0000000001
 40
0.0
 40
0.0
 40
0.0
 40
7.200290856031583
 40
7.200290856031583
 40
7.200290856031583
 10
633.88410854975
 20
1236.984077820611
 30
0.0
 10
633.9469397509931
 20
1240.58367492904
 30
0.0
 10
634.0097709522363
 20
1244.18327203747
 30
0.0
  0
SPLINE
  5
A2
330
1F
100
AcDbEntity
  8
Predefinito
100
AcDbSpline
210
0.0
220
0.0
230
1.0
 70
    24
 71
     2
 72
     6
 73
     3
 74
     0
 42
0.0000000001
 43
0.0000000001
 40
0.0
 40
0.0
 40
0.0
 40
0.1746223327514809
 40
0.1746223327514809
 40
0.1746223327514809
 10
634.0109182829452
 20
1244.249002569766
 30
0.0
 10
634.0124420729073
 20
1244.336300438228
 30
0.0
 10
634.0139658628693
 20
1244.42359830669
 30
0.0
  0
SPLINE
  5
A3
330
1F
100
AcDbEntity
  8
Predefinito
100
AcDbSpline
210
0.0
220
0.0
230
1.0
 70
    24
 71
     2
 72
     6
 73
     3
 74
     0
 42
0.0000000001
 43
0.0000000001
 40
0.0
 40
0.0
 40
0.0
 40
0.2972219107557533
 40
0.2972219107557533
 40
0.2972219107557533
 10
634.0150992745009
 20
1244.48853141558
 30
0.0
 10
634.0176928932952
 20
1244.637119736789
 30
0.0
 10
634.0202865120896
 20
1244.785708057999
 30
0.0
  0
SPLINE
  5
A4
330
1F
100
AcDbEntity
  8
Predefinito
100
AcDbSpline
210
0.0
220
0.0
230
1.0
 70
    24
 71
     2
 72
     6
 73
     3
 74
     0
 42
0.0000000001
 43
0.0000000001
 40
0.0
 40
0.0
 40
0.0
 40
0.2972222848951828
 40
0.2972222848951828
 40
0.2972222848951828
 10
653.7443786478472
 20
1244.785708057999
 30
0.0
 10
653.7469722699063
 20
1244.637119549748
 30
0.0
 10
653.7495658919654
 20
1244.488531041497
 30
0.0
  0
SPLINE
  5
A5
330
1F
100
AcDbEntity
  8
Predefinito
100
AcDbSpline
210
0.0
220
0.0
230
1.0
 70
    24
 71
     2
 72
     6
 73
     3
 74
     0
 42
0.0000000001
 43
0.0000000001
 40
0.0
 40
0.0
 40
0.0
 40
0.1745311488276718
 40
0.1745311488276718
 40
0.1745311488276718
 10
653.7506992970675
 20
1244.42359830669
 30
0.0
 10
653.7522222913401
 20
1244.336346023246
 30
0.0
 10
653.7537452856128
 20
1244.249093739802
 30
0.0
  0
SPLINE
  5
A6
330
1F
100
AcDbEntity
  8
Predefinito
100
AcDbSpline
210
0.0
220
0.0
230
1.0
 70
    24
 71
     2
 72
     6
 73
     3
 74
     0
 42
0.0000000001
 43
0.0000000001
 40
0.0
 40
0.0
 40
0.0
 40
7.200290856041359
 40
7.200290856041359
 40
7.200290856041359
 10
653.7548942077005
 20
1244.183272037479
 30
0.0
 10
653.8177254089437
 20
1240.583674929045
 30
0.0
 10
653.8805566101869
 20
1236.984077820611
 30
0.0
  0
SPLINE
  5
A7
330
1F
100
AcDbEntity
  8
Predefinito
100
AcDbSpline
210
0.0
220
0.0
230
1.0
 70
     8
 71
     3
 72
    12
 73
     8
 74
     0
 42
0.0000000001
 43
0.0000000001
 40
0.0
 40
0.0
 40
0.0
 40
0.0
 40
0.6992186513074317
 40
2.002097852409373
 40
5.737103586772732
 40
8.110143451809675
 40
9.597282441742834
 40
9.597282441742834
 40
9.597282441742834
 40
9.597282441742834
 10
634.5700154760416
 20
1244.98969767938
 30
0.0
 10
634.5736251387062
 20
1244.753029731457
 30
0.0
 10
634.8206901578681
 20
1244.126903744324
 30
0.0
 10
635.859819967286
 20
1242.514259659006
 30
0.0
 10
637.4299140663371
 20
1240.609454517237
 30
0.0
 10
639.2455916916467
 20
1238.823682362104
 30
0.0
 10
640.4418722737499
 20
1238.273160005371
 30
0.0
 10
640.9520537008563
 20
1238.28838810629
 30
0.0
  0
SPLINE
  5
A8
330
1F
100
AcDbEntity
  8
Predefinito
100
AcDbSpline
210
0.0
220
0.0
230
1.0
 70
    12
 71
     2
 72
     6
 73
     3
 74
     0
 42
0.0000000001
 43
0.0000000001
 40
0.0
 40
0.0
 40
0.0
 40
6.499017821762997
 40
6.499017821762997
 40
6.499017821762997
 10
634.8737573639481
 20
1262.39105878319
 30
0.0
 41
1.0
 10
638.1232623732062
 20
1262.399780616159
 30
0.0
 41
0.9999963979580466
 10
641.3727673824643
 20
1262.39105878319
 30
0.0
 41
1.0
  0
SPLINE
  5
A9
330
1F
100
AcDbEntity
  8
Predefinito
100
AcDbSpline
210
0.0
220
0.0
230
1.0
 70
     8
 71
     3
 72
    13
 73
     9
 74
     0
 42
0.0000000001
 43
0.0000000001
 40
0.0
 40
0.0
 40
0.0
 40
0.0
 40
0.703743798150305
 40
1.486370489796103
 40
3.860406909971915
 40
7.594166795901521
 40
8.897411283841144
 40
9.597193830117215
 40
9.597193830117215
 40
9.597193830117215
 40
9.597193830117215
 10
646.8126114590806
 20
1238.28838810629
 30
0.0
 10
647.0454283797726
 20
1238.294016992255
 30
0.0
 10
647.5448791313019
 20
1238.367388083931
 30
0.0
 10
648.6846007230785
 20
1238.993000505707
 30
0.0
 10
650.3370757221226
 20
1240.605303515658
 30
0.0
 10
651.9030718241012
 20
1242.516219866822
 30
0.0
 10
652.9444367058703
 20
1244.125489493968
 30
0.0
 10
653.1906861604201
 20
1244.753337089546
 30
0.0
 10
653.1946496838952
 20
1244.98969767938
 30
0.0
  0
SPLINE
  5
AA
330
1F
100
AcDbEntity
  8
Predefinito
100
AcDbSpline
210
0.0
220
0.0
230
1.0
 70
    12
 71
     2
 72
     6
 73
     3
 74
     0
 42
0.0000000001
 43
0.0000000001
 40
0.0
 40
0.0
 40
0.0
 40
6.499017821762998
 40
6.499017821762998
 40
6.499017821762998
 10
646.3918977774725
 20
1262.39105878319
 30
0.0
 41
1.0
 10
649.6414027867306
 20
1262.399780616159
 30
0.0
 41
0.9999963979580466
 10
652.8909077959887
 20
1262.39105878319
 30
0.0
 41
1.0
  0
SPLINE
  5
AB
330
1F
100
AcDbEntity
  8
Predefinito
100
AcDbSpline
210
0.0
220
0.0
230
1.0
 70
    12
 71
     2
 72
     6
 73
     3
 74
     0
 42
0.0000000001
 43
0.0000000001
 40
0.0
 40
0.0
 40
0.0
 40
0.2425639083259832
 40
0.2425639083259832
 40
0.2425639083259832
 10
634.1054546303604
 20
1244.517871388297
 30
0.0
 41
1.0
 10
634.1041553300317
 20
1244.396563669303
 30
0.0
 41
0.9995954456554397
 10
634.1097557985279
 20
1244.275378333468
 30
0.0
 41
1.0
  0
SPLINE
  5
AC
330
1F
100
AcDbEntity
  8
Predefinito
100
AcDbSpline
210
0.0
220
0.0
230
1.0
 70
    12
 71
     2
 72
     6
 73
     3
 74
     0
 42
0.0000000001
 43
0.0000000001
 40
0.0
 40
0.0
 40
0.0
 40
0.5535151003033946
 40
0.5535151003033946
 40
0.5535151003033946
 10
634.5348968992548
 20
1244.820949757556
 30
0.0
 41
1.0
 10
634.4139465028237
 20
1244.536543557085
 30
0.0
 41
0.8503636618488181
 10
634.1054546303606
 20
1244.517871388297
 30
0.0
 41
1.0
  0
SPLINE
  5
AD
330
1F
100
AcDbEntity
  8
Predefinito
100
AcDbSpline
210
0.0
220
0.0
230
1.0
 70
    12
 71
     2
 72
     6
 73
     3
 74
     0
 42
0.0000000001
 43
0.0000000001
 40
0.0
 40
0.0
 40
0.0
 40
0.2427446378268531
 40
0.2427446378268531
 40
0.2427446378268531
 10
653.6549096825822
 20
1244.275195943412
 30
0.0
 41
1.0
 10
653.6604512457571
 20
1244.396473226669
 30
0.0
 41
0.999610792013591
 10
653.6592201770936
 20
1244.517870808302
 30
0.0
 41
1.0
  0
SPLINE
  5
AE
330
1F
100
AcDbEntity
  8
Predefinito
100
AcDbSpline
210
0.0
220
0.0
230
1.0
 70
    12
 71
     2
 72
     6
 73
     3
 74
     0
 42
0.0000000001
 43
0.0000000001
 40
0.0
 40
0.0
 40
0.0
 40
0.5534313007624365
 40
0.5534313007624365
 40
0.5534313007624365
 10
653.6592201770936
 20
1244.517870808302
 30
0.0
 41
1.0
 10
653.3507886757469
 20
1244.536540399386
 30
0.0
 41
0.8504176056625978
 10
653.2298046085616
 20
1244.820866620727
 30
0.0
 41
1.0
  0
SPLINE
  5
AF
330
1F
100
AcDbEntity
  8
Predefinito
100
AcDbSpline
210
0.0
220
0.0
230
1.0
 70
    24
 71
     2
 72
     6
 73
     3
 74
     0
 42
0.0000000001
 43
0.0000000001
 40
0.0
 40
0.0
 40
0.0
 40
0.3641755936675031
 40
0.3641755936675031
 40
0.3641755936675031
 10
634.1121164732157
 20
1244.881986044515
 30
0.0
 10
634.1087855517881
 20
1244.699928716406
 30
0.0
 10
634.1054546303604
 20
1244.517871388297
 30
0.0
  0
SPLINE
  5
B0
330
1F
100
AcDbEntity
  8
Predefinito
100
AcDbSpline
210
0.0
220
0.0
230
1.0
 70
    24
 71
     2
 72
     6
 73
     3
 74
     0
 42
0.0000000001
 43
0.0000000001
 40
0.0
 40
0.0
 40
0.0
 40
0.3641754668592687
 40
0.3641754668592687
 40
0.3641754668592687
 10
653.6592201770936
 20
1244.517870808302
 30
0.0
 10
653.6558892492276
 20
1244.699928072878
 30
0.0
 10
653.6525583213617
 20
1244.881985337455
 30
0.0
  0
SPLINE
  5
B1
330
1F
100
AcDbEntity
  8
Predefinito
100
AcDbSpline
210
0.0
220
0.0
230
1.0
 70
    12
 71
     2
 72
     6
 73
     3
 74
     0
 42
0.0000000001
 43
0.0000000001
 40
0.0
 40
0.0
 40
0.0
 40
0.7766715171368124
 40
0.7766715171368124
 40
0.7766715171368124
 10
635.3736812115263
 20
1262.88233257997
 30
0.0
 41
1.0
 10
634.8823325799685
 20
1262.882332579971
 30
0.0
 41
0.7132504491534094
 10
634.8737573639481
 20
1262.39105878319
 30
0.0
 41
1.0
  0
SPLINE
  5
B2
330
1F
100
AcDbEntity
  8
Predefinito
100
AcDbSpline
210
0.0
220
0.0
230
1.0
 70
    12
 71
     2
 72
     6
 73
     3
 74
     0
 42
0.0000000001
 43
0.0000000001
 40
0.0
 40
0.0
 40
0.0
 40
0.7766715171365329
 40
0.7766715171365329
 40
0.7766715171365329
 10
652.8909077959887
 20
1262.39105878319
 30
0.0
 41
1.0
 10
652.8823325799676
 20
1262.882332579971
 30
0.0
 41
0.713250449154121
 10
652.3909839484104
 20
1262.88233257997
 30
0.0
 41
1.0
  0
SPLINE
  5
B3
330
1F
100
AcDbEntity
  8
Predefinito
100
AcDbSpline
210
0.0
220
0.0
230
1.0
 70
    12
 71
     2
 72
     6
 73
     3
 74
     0
 42
0.0000000001
 43
0.0000000001
 40
0.0
 40
0.0
 40
0.0
 40
0.1444232028917486
 40
0.1444232028917486
 40
0.1444232028917486
 10
653.6592201770936
 20
1244.517870808302
 30
0.0
 41
1.0
 10
653.7486092114245
 20
1244.513090657441
 30
0.0
 41
0.7337234429196853
 10
653.7506992970675
 20
1244.42359830669
 30
0.0
 41
1.0
  0
SPLINE
  5
B4
330
1F
100
AcDbEntity
  8
Predefinito
100
AcDbSpline
210
0.0
220
0.0
230
1.0
 70
    12
 71
     2
 72
     6
 73
     3
 74
     0
 42
0.0000000001
 43
0.0000000001
 40
0.0
 40
0.0
 40
0.0
 40
0.1505467737609273
 40
0.1505467737609273
 40
0.1505467737609273
 10
653.6549096825822
 20
1244.275195943412
 30
0.0
 41
1.0
 10
653.7501719819508
 20
1244.278473664136
 30
0.0
 41
0.7124490883634411
 10
653.7548942077005
 20
1244.183272037479
 30
0.0
 41
1.0
  0
SPLINE
  5
B5
330
1F
100
AcDbEntity
  8
Predefinito
100
AcDbSpline
210
0.0
220
0.0
230
1.0
 70
    12
 71
     2
 72
     6
 73
     3
 74
     0
 42
0.0000000001
 43
0.0000000001
 40
0.0
 40
0.0
 40
0.0
 40
0.1444296389540011
 40
0.1444296389540011
 40
0.1444296389540011
 10
634.0139658628693
 20
1244.42359830669
 30
0.0
 41
1.0
 10
634.0160638026847
 20
1244.513092212846
 30
0.0
 41
0.733749043318806
 10
634.1054546303606
 20
1244.517871388297
 30
0.0
 41
1.0
  0
SPLINE
  5
B6
330
1F
100
AcDbEntity
  8
Predefinito
100
AcDbSpline
210
0.0
220
0.0
230
1.0
 70
    12
 71
     2
 72
     6
 73
     3
 74
     0
 42
0.0000000001
 43
0.0000000001
 40
0.0
 40
0.0
 40
0.0
 40
0.104436125521152
 40
0.104436125521152
 40
0.104436125521152
 10
653.7805718406714
 20
1237.003544701181
 30
0.0
 41
1.0
 10
653.8345195277426
 20
1237.014126276891
 30
0.0
 41
0.9264303234509017
 10
653.880556610187
 20
1236.984077820611
 30
0.0
 41
1.0
  0
SPLINE
  5
B7
330
1F
100
AcDbEntity
  8
Predefinito
100
AcDbSpline
210
0.0
220
0.0
230
1.0
 70
    12
 71
     2
 72
     8
 73
     5
 74
     0
 42
0.0000000001
 43
0.0000000001
 40
0.0
 40
0.0
 40
0.0
 40
0.0794124809642575
 40
0.0794124809642575
 40
0.1588249619283356
 40
0.1588249619283356
 40
0.1588249619283356
 10
653.8805566101869
 20
1236.984077820611
 30
0.0
 41
1.0
 10
653.8812884503254
 20
1236.942150727108
 30
0.0
 41
0.9222009716717611
 10
653.8518968855858
 20
1236.912241653539
 30
0.0
 41
1.0
 10
653.8225053208463
 20
1236.88233257997
 30
0.0
 41
0.9222009716714215
 10
653.7805718406714
 20
1236.88233257997
 30
0.0
 41
1.0
  0
SPLINE
  5
B8
330
1F
100
AcDbEntity
  8
Predefinito
100
AcDbSpline
210
0.0
220
0.0
230
1.0
 70
    12
 71
     2
 72
     6
 73
     3
 74
     0
 42
0.0000000001
 43
0.0000000001
 40
0.0
 40
0.0
 40
0.0
 40
0.1506591743507131
 40
0.1506591743507131
 40
0.1506591743507131
 10
634.0097709522363
 20
1244.18327203747
 30
0.0
 41
1.0
 10
634.0144586605065
 20
1244.278505156328
 30
0.0
 41
0.712875706728925
 10
634.1097557985279
 20
1244.275378333468
 30
0.0
 41
1.0
  0
SPLINE
  5
B9
330
1F
100
AcDbEntity
  8
Predefinito
100
AcDbSpline
210
0.0
220
0.0
230
1.0
 70
    24
 71
     2
 72
     6
 73
     3
 74
     0
 42
0.0000000001
 43
0.0000000001
 40
0.0
 40
0.0
 40
0.0
 40
0.121212121210192
 40
0.121212121210192
 40
0.121212121210192
 10
653.7805718406714
 20
1237.003544701181
 30
0.0
 10
653.7805718406714
 20
1236.942938640575
 30
0.0
 10
653.7805718406715
 20
1236.88233257997
 30
0.0
  0
SPLINE
  5
BA
330
1F
100
AcDbEntity
  8
Predefinito
100
AcDbSpline
210
0.0
220
0.0
230
1.0
 70
    12
 71
     2
 72
     6
 73
     3
 74
     0
 42
0.0000000001
 43
0.0000000001
 40
0.0
 40
0.0
 40
0.0
 40
0.1044361255212466
 40
0.1044361255212466
 40
0.1044361255212466
 10
633.88410854975
 20
1236.984077820611
 30
0.0
 41
1.0
 10
633.9301456321942
 20
1237.014126276892
 30
0.0
 41
0.9264303234480278
 10
633.9840933192654
 20
1237.003544701181
 30
0.0
 41
1.0
  0
SPLINE
  5
BB
330
1F
100
AcDbEntity
  8
Predefinito
100
AcDbSpline
210
0.0
220
0.0
230
1.0
 70
    24
 71
     2
 72
     6
 73
     3
 74
     0
 42
0.0000000001
 43
0.0000000001
 40
0.0
 40
0.0
 40
0.0
 40
0.1212121212104194
 40
0.1212121212104194
 40
0.1212121212104194
 10
633.9840933192654
 20
1237.003544701181
 30
0.0
 10
633.9840933192654
 20
1236.942938640575
 30
0.0
 10
633.9840933192654
 20
1236.88233257997
 30
0.0
  0
SPLINE
  5
BC
330
1F
100
AcDbEntity
  8
Predefinito
100
AcDbSpline
210
0.0
220
0.0
230
1.0
 70
    12
 71
     2
 72
     8
 73
     5
 74
     0
 42
0.0000000001
 43
0.0000000001
 40
0.0
 40
0.0
 40
0.0
 40
0.0794124809638859
 40
0.0794124809638859
 40
0.1588249619281104
 40
0.1588249619281104
 40
0.1588249619281104
 10
633.9840933192654
 20
1236.88233257997
 30
0.0
 41
1.0
 10
633.9421598390908
 20
1236.882332579971
 30
0.0
 41
0.9222009716759958
 10
633.9127682743513
 20
1236.912241653539
 30
0.0
 41
1.0
 10
633.8833767096116
 20
1236.942150727107
 30
0.0
 41
0.9222009716724906
 10
633.88410854975
 20
1236.984077820611
 30
0.0
 41
1.0
  0
SPLINE
  5
BD
330
1F
100
AcDbEntity
  8
Predefinito
100
AcDbSpline
210
0.0
220
0.0
230
1.0
 70
    24
 71
     2
 72
     6
 73
     3
 74
     0
 42
0.0000000001
 43
0.0000000001
 40
0.0
 40
0.0
 40
0.0
 40
7.641194984471326
 40
7.641194984471326
 40
7.641194984471326
 10
643.8823325799684
 20
1263.70955500709
 30
0.0
 10
640.0617350877328
 20
1263.70955500709
 30
0.0
 10
636.2411375954971
 20
1263.70955500709
 30
0.0
  0
SPLINE
  5
BE
330
1F
100
AcDbEntity
  8
Predefinito
100
AcDbSpline
210
0.0
220
0.0
230
1.0
 70
    28
 71
     2
 72
     8
 73
     5
 74
     0
 42
0.0000000001
 43
0.0000000001
 40
35.40131202076957
 40
35.40131202076957
 40
35.40131202076957
 40
36.15453142546679
 40
36.15453142546679
 40
48.2060419006224
 40
48.2060419006224
 40
48.2060419006224
 10
651.5235275644399
 20
1263.70955500709
 30
0.0
 41
0.9656765759202984
 10
651.5545624353483
 20
1263.70955500709
 30
0.0
 41
0.9816941738241591
 10
651.5545624353479
 20
1263.70955500709
 30
0.0
 41
1.0
 10
651.554562435348
 20
1263.70955500709
 30
0.0
 41
0.7071067811865476
 10
643.8823325799684
 20
1263.70955500709
 30
0.0
 41
1.0
  0
SPLINE
  5
BF
330
1F
100
AcDbEntity
  8
Predefinito
100
AcDbSpline
210
0.0
220
0.0
230
1.0
 70
    12
 71
     2
 72
     6
 73
     3
 74
     0
 42
0.0000000001
 43
0.0000000001
 40
0.0
 40
0.0
 40
0.0
 40
6.466995586911594
 40
6.466995586911594
 40
6.466995586911594
 10
646.3854762046167
 20
1264.382332559395
 30
0.0
 41
1.0
 10
649.6189678475962
 20
1264.375769857968
 30
0.0
 41
0.9999997637141905
 10
652.8524654573673
 20
1264.37365281438
 30
0.0
 41
1.0
  0
SPLINE
  5
C0
330
1F
100
AcDbEntity
  8
Predefinito
100
AcDbSpline
210
0.0
220
0.0
230
1.0
 70
    24
 71
     2
 72
     6
 73
     3
 74
     0
 42
0.0000000001
 43
0.0000000001
 40
0.0
 40
0.0
 40
0.0
 40
6.000893997385219
 40
6.000893997385219
 40
6.000893997385219
 10
652.3863547894133
 20
1263.88233257997
 30
0.0
 10
649.3859077907207
 20
1263.88233257997
 30
0.0
 10
646.3854607920281
 20
1263.88233257997
 30
0.0
  0
SPLINE
  5
C1
330
1F
100
AcDbEntity
  8
Predefinito
100
AcDbSpline
210
0.0
220
0.0
230
1.0
 70
    12
 71
     2
 72
     6
 73
     3
 74
     0
 42
0.0000000001
 43
0.0000000001
 40
0.0
 40
0.0
 40
0.0
 40
0.7760877617714564
 40
0.7760877617714564
 40
0.7760877617714564
 10
652.3863547894133
 20
1263.88233257997
 30
0.0
 41
1.0
 10
652.877130243537
 20
1263.882332977632
 30
0.0
 41
0.7136590141888908
 10
652.8862672884038
 20
1264.373023369612
 30
0.0
 41
1.0
  0
SPLINE
  5
C2
330
1F
100
AcDbEntity
  8
Predefinito
100
AcDbSpline
210
0.0
220
0.0
230
1.0
 70
    24
 71
     2
 72
     6
 73
     3
 74
     0
 42
0.0000000001
 43
0.0000000001
 40
0.0
 40
0.0
 40
0.0
 40
5.006256424119329
 40
5.006256424119329
 40
5.006256424119329
 10
646.3854607920281
 20
1263.88233257997
 30
0.0
 10
643.8823325799684
 20
1263.88233257997
 30
0.0
 10
641.3792043679088
 20
1263.88233257997
 30
0.0
  0
SPLINE
  5
C3
330
1F
100
AcDbEntity
  8
Predefinito
100
AcDbSpline
210
0.0
220
0.0
230
1.0
 70
    24
 71
     2
 72
     6
 73
     3
 74
     0
 42
0.0000000001
 43
0.0000000001
 40
0.0
 40
0.0
 40
0.0
 40
5.006256424119329
 40
5.006256424119329
 40
5.006256424119329
 10
641.3792043679086
 20
1264.38233257997
 30
0.0
 10
643.8823325799683
 20
1264.38233257997
 30
0.0
 10
646.385460792028
 20
1264.38233257997
 30
0.0
  0
SPLINE
  5
C4
330
1F
100
AcDbEntity
  8
Predefinito
100
AcDbSpline
210
0.0
220
0.0
230
1.0
 70
    12
 71
     2
 72
     6
 73
     3
 74
     0
 42
0.0000000001
 43
0.0000000001
 40
0.0
 40
0.0
 40
0.0
 40
6.50080885463728
 40
6.50080885463728
 40
6.50080885463728
 10
634.8783865229452
 20
1264.37365417981
 30
0.0
 41
1.0
 10
638.1287910468203
 20
1264.375515645985
 30
0.0
 41
0.9999997094629032
 10
641.3791889553193
 20
1264.382332559394
 30
0.0
 41
1.0
  0
SPLINE
  5
C5
330
1F
100
AcDbEntity
  8
Predefinito
100
AcDbSpline
210
0.0
220
0.0
230
1.0
 70
    12
 71
     2
 72
     6
 73
     3
 74
     0
 42
0.0000000001
 43
0.0000000001
 40
0.0
 40
0.0
 40
0.0
 40
0.7767186740429672
 40
0.7767186740429672
 40
0.7767186740429672
 10
634.8783865229452
 20
1264.373654179809
 30
0.0
 41
1.0
 10
634.886915152831
 20
1263.88233297892
 30
0.0
 41
0.7132169234639397
 10
635.3783103705234
 20
1263.88233257997
 30
0.0
 41
1.0
  0
SPLINE
  5
C6
330
1F
100
AcDbEntity
  8
Predefinito
100
AcDbSpline
210
0.0
220
0.0
230
1.0
 70
    24
 71
     2
 72
     6
 73
     3
 74
     0
 42
0.0000000001
 43
0.0000000001
 40
0.0
 40
0.0
 40
0.0
 40
6.000893997385333
 40
6.000893997385333
 40
6.000893997385333
 10
641.3792043679088
 20
1263.88233257997
 30
0.0
 10
638.3787573692161
 20
1263.88233257997
 30
0.0
 10
635.3783103705234
 20
1263.88233257997
 30
0.0
  0
SPLINE
  5
C7
330
1F
100
AcDbEntity
  8
Predefinito
100
AcDbSpline
210
0.0
220
0.0
230
1.0
 70
    24
 71
     2
 72
     6
 73
     3
 74
     0
 42
0.0000000001
 43
0.0000000001
 40
0.0
 40
0.0
 40
0.0
 40
3.194128923784982
 40
3.194128923784982
 40
3.194128923784982
 10
652.9417185871971
 20
1267.567301936479
 30
0.0
 10
652.9139986120942
 20
1265.970478058144
 30
0.0
 10
652.8862786369913
 20
1264.373654179809
 30
0.0
  0
SPLINE
  5
C8
330
1F
100
AcDbEntity
  8
Predefinito
100
AcDbSpline
210
0.0
220
0.0
230
1.0
 70
    12
 71
     2
 72
     6
 73
     3
 74
     0
 42
0.0000000001
 43
0.0000000001
 40
0.0
 40
0.0
 40
0.0
 40
13.84696547309059
 40
13.84696547309059
 40
13.84696547309059
 10
653.1634678552155
 20
1281.412482995912
 30
0.0
 41
1.0
 10
653.0660499602341
 20
1274.489676938351
 30
0.0
 41
0.9999981106555345
 10
652.9417185871968
 20
1267.567301936479
 30
0.0
 41
1.0
  0
SPLINE
  5
C9
330
1F
100
AcDbEntity
  8
Predefinito
100
AcDbSpline
210
0.0
220
0.0
230
1.0
 70
    24
 71
     2
 72
     6
 73
     3
 74
     0
 42
0.0000000001
 43
0.0000000001
 40
0.0
 40
0.0
 40
0.0
 40
6.851415972506175
 40
6.851415972506175
 40
6.851415972506175
 10
653.1683610375137
 20
1288.839285391826
 30
0.0
 10
653.1683610375144
 20
1285.413577405573
 30
0.0
 10
653.168361037515
 20
1281.98786941932
 30
0.0
  0
SPLINE
  5
CA
330
1F
100
AcDbEntity
  8
Predefinito
100
AcDbSpline
210
0.0
220
0.0
230
1.0
 70
    12
 71
     2
 72
     6
 73
     3
 74
     0
 42
0.0000000001
 43
0.0000000001
 40
0.0
 40
0.0
 40
0.0
 40
10.06939174853112
 40
10.06939174853112
 40
10.06939174853112
 10
634.5963041224232
 20
1289.41430913597
 30
0.0
 41
1.0
 10
634.725438865726
 20
1283.045720220267
 30
0.0
 41
0.713302827979995
 10
641.0953141409384
 20
1283.062736018211
 30
0.0
 41
1.0
  0
SPLINE
  5
CB
330
1F
100
AcDbEntity
  8
Predefinito
100
AcDbSpline
210
0.0
220
0.0
230
1.0
 70
    12
 71
     2
 72
     8
 73
     5
 74
     0
 42
0.0000000001
 43
0.0000000001
 40
0.0
 40
0.0
 40
0.0
 40
4.377838326738269
 40
4.377838326738269
 40
8.755676653476538
 40
8.755676653476538
 40
8.755676653476538
 10
646.6693510189984
 20
1283.062736018211
 30
0.0
 41
1.0
 10
646.6693510189986
 20
1283.354058772742
 30
0.0
 41
0.7071067811865476
 10
643.8823325799684
 20
1283.354058772742
 30
0.0
 41
1.0
 10
641.0953141409383
 20
1283.354058772742
 30
0.0
 41
0.7071067811865476
 10
641.0953141409384
 20
1283.062736018211
 30
0.0
 41
1.0
  0
SPLINE
  5
CC
330
1F
100
AcDbEntity
  8
Predefinito
100
AcDbSpline
210
0.0
220
0.0
230
1.0
 70
    12
 71
     2
 72
     6
 73
     3
 74
     0
 42
0.0000000001
 43
0.0000000001
 40
0.0
 40
0.0
 40
0.0
 40
13.8469654730906
 40
13.8469654730906
 40
13.8469654730906
 10
634.82294657274
 20
1267.567301936479
 30
0.0
 41
1.0
 10
634.6986151997024
 20
1274.489676938351
 30
0.0
 41
0.9999981106555345
 10
634.6011973047215
 20
1281.412482995912
 30
0.0
 41
1.0
  0
SPLINE
  5
CD
330
1F
100
AcDbEntity
  8
Predefinito
100
AcDbSpline
210
0.0
220
0.0
230
1.0
 70
    24
 71
     2
 72
     6
 73
     3
 74
     0
 42
0.0000000001
 43
0.0000000001
 40
0.0
 40
0.0
 40
0.0
 40
3.194128923784981
 40
3.194128923784981
 40
3.194128923784981
 10
634.8783865229452
 20
1264.373654179809
 30
0.0
 10
634.8506665478424
 20
1265.970478058144
 30
0.0
 10
634.8229465727395
 20
1267.567301936479
 30
0.0
  0
SPLINE
  5
CE
330
1F
100
AcDbEntity
  8
Predefinito
100
AcDbSpline
210
0.0
220
0.0
230
1.0
 70
    12
 71
     2
 72
     6
 73
     3
 74
     0
 42
0.0000000001
 43
0.0000000001
 40
0.0
 40
0.0
 40
0.0
 40
1.790320531523429
 40
1.790320531523429
 40
1.790320531523429
 10
653.3085471535411
 20
1272.165659075041
 30
0.0
 41
1.0
 10
653.2926858875767
 20
1271.26482399293
 30
0.0
 41
0.9903477989932058
 10
653.0301246115333
 20
1270.402955672802
 30
0.0
 41
1.0
  0
SPLINE
  5
CF
330
1F
100
AcDbEntity
  8
Predefinito
100
AcDbSpline
210
0.0
220
0.0
230
1.0
 70
    24
 71
     2
 72
     6
 73
     3
 74
     0
 42
0.0000000001
 43
0.0000000001
 40
0.0
 40
0.0
 40
0.0
 40
6.220421554864766
 40
6.220421554864766
 40
6.220421554864766
 10
653.1999858283556
 20
1278.385133229573
 30
0.0
 10
653.2542664909483
 20
1275.275396152307
 30
0.0
 10
653.3085471535412
 20
1272.165659075041
 30
0.0
  0
SPLINE
  5
D0
330
1F
100
AcDbEntity
  8
Predefinito
100
AcDbSpline
210
0.0
220
0.0
230
1.0
 70
    12
 71
     2
 72
     6
 73
     3
 74
     0
 42
0.0000000001
 43
0.0000000001
 40
0.0
 40
0.0
 40
0.0
 40
1.790320531523142
 40
1.790320531523142
 40
1.790320531523142
 10
634.7345405484033
 20
1270.402955672801
 30
0.0
 41
1.0
 10
634.4719792723608
 20
1271.26482399293
 30
0.0
 41
0.9903477989932475
 10
634.4561180063957
 20
1272.16565907504
 30
0.0
 41
1.0
  0
SPLINE
  5
D1
330
1F
100
AcDbEntity
  8
Predefinito
100
AcDbSpline
210
0.0
220
0.0
230
1.0
 70
    24
 71
     2
 72
     6
 73
     3
 74
     0
 42
0.0000000001
 43
0.0000000001
 40
0.0
 40
0.0
 40
0.0
 40
5.601369966284964
 40
5.601369966284964
 40
5.601369966284964
 10
634.4561180063957
 20
1272.16565907504
 30
0.0
 10
634.5049966990243
 20
1274.965917500294
 30
0.0
 10
634.5538753916528
 20
1277.766175925548
 30
0.0
  0
SPLINE
  5
D2
330
1F
100
AcDbEntity
  8
Predefinito
100
AcDbSpline
210
0.0
220
0.0
230
1.0
 70
    24
 71
     2
 72
     6
 73
     3
 74
     0
 42
0.0000000001
 43
0.0000000001
 40
0.0
 40
0.0
 40
0.0
 40
0.4848067923818036
 40
0.4848067923818036
 40
0.4848067923818036
 10
634.5612111971166
 20
1278.186443939096
 30
0.0
 10
634.5654417197086
 20
1278.428810416076
 30
0.0
 10
634.5696722423007
 20
1278.671176893055
 30
0.0
  0
SPLINE
  5
D3
330
1F
100
AcDbEntity
  8
Predefinito
100
AcDbSpline
210
0.0
220
0.0
230
1.0
 70
    24
 71
     2
 72
     6
 73
     3
 74
     0
 42
0.0000000001
 43
0.0000000001
 40
0.0
 40
0.0
 40
0.0
 40
8.481029614454762
 40
8.481029614454762
 40
8.481029614454762
 10
634.5947853867784
 20
1289.500840802178
 30
0.0
 10
634.5203706717707
 20
1293.740702625458
 30
0.0
 10
634.445955956763
 20
1297.980564448737
 30
0.0
  0
SPLINE
  5
D4
330
1F
100
AcDbEntity
  8
Predefinito
100
AcDbSpline
210
0.0
220
0.0
230
1.0
 70
    24
 71
     2
 72
     6
 73
     3
 74
     0
 42
0.0000000001
 43
0.0000000001
 40
0.0
 40
0.0
 40
0.0
 40
8.481029614454762
 40
8.481029614454762
 40
8.481029614454762
 10
653.3187092031739
 20
1297.980564448737
 30
0.0
 10
653.2442944881661
 20
1293.740702625458
 30
0.0
 10
653.1698797731584
 20
1289.500840802178
 30
0.0
  0
SPLINE
  5
D5
330
1F
100
AcDbEntity
  8
Predefinito
100
AcDbSpline
210
0.0
220
0.0
230
1.0
 70
    12
 71
     2
 72
     8
 73
     5
 74
     0
 42
0.0000000001
 43
0.0000000001
 40
0.0
 40
0.0
 40
0.0
 40
14.82262573798434
 40
14.82262573798434
 40
29.64525147596867
 40
29.64525147596867
 40
29.64525147596867
 10
634.445955956763
 20
1297.980564448737
 30
0.0
 41
1.0
 10
634.4459559567628
 20
1298.966934395976
 30
0.0
 41
0.7071067811865476
 10
643.8823325799684
 20
1298.966934395976
 30
0.0
 41
1.0
 10
653.3187092031741
 20
1298.966934395976
 30
0.0
 41
0.7071067811865476
 10
653.3187092031739
 20
1297.980564448737
 30
0.0
 41
1.0
  0
SPLINE
  5
D6
330
1F
100
AcDbEntity
  8
Predefinito
100
AcDbSpline
210
0.0
220
0.0
230
1.0
 70
    24
 71
     2
 72
     6
 73
     3
 74
     0
 42
0.0000000001
 43
0.0000000001
 40
0.0
 40
0.0
 40
0.0
 40
6.851415972506175
 40
6.851415972506175
 40
6.851415972506175
 10
634.5963041224219
 20
1281.98786941932
 30
0.0
 10
634.5963041224225
 20
1285.413577405573
 30
0.0
 10
634.5963041224231
 20
1288.839285391826
 30
0.0
  0
SPLINE
  5
D7
330
1F
100
AcDbEntity
  8
Predefinito
100
AcDbSpline
210
0.0
220
0.0
230
1.0
 70
    24
 71
     2
 72
     6
 73
     3
 74
     0
 42
0.0000000001
 43
0.0000000001
 40
0.0
 40
0.0
 40
0.0
 40
25.23697342533796
 40
25.23697342533796
 40
25.23697342533796
 10
634.4459559567633
 20
1272.743591023399
 30
0.0
 10
634.4459559567631
 20
1285.362077736068
 30
0.0
 10
634.445955956763
 20
1297.980564448737
 30
0.0
  0
SPLINE
  5
D8
330
1F
100
AcDbEntity
  8
Predefinito
100
AcDbSpline
210
0.0
220
0.0
230
1.0
 70
    24
 71
     2
 72
     6
 73
     3
 74
     0
 42
0.0000000001
 43
0.0000000001
 40
0.0
 40
0.0
 40
0.0
 40
25.23697342533796
 40
25.23697342533796
 40
25.23697342533796
 10
653.3187092031739
 20
1297.980564448737
 30
0.0
 10
653.3187092031737
 20
1285.362077736068
 30
0.0
 10
653.3187092031735
 20
1272.743591023399
 30
0.0
  0
SPLINE
  5
D9
330
1F
100
AcDbEntity
  8
Predefinito
100
AcDbSpline
210
0.0
220
0.0
230
1.0
 70
    12
 71
     2
 72
     6
 73
     3
 74
     0
 42
0.0000000001
 43
0.0000000001
 40
0.0
 40
0.0
 40
0.0
 40
0.051189059329613
 40
0.051189059329613
 40
0.051189059329613
 10
623.8263617985272
 20
1302.75745445345
 30
0.0
 41
1.0
 10
623.8037087098772
 20
1302.769370534003
 30
0.0
 41
0.9999136244208562
 10
623.7813766513805
 20
1302.781877914401
 30
0.0
 41
1.0
  0
SPLINE
  5
DA
330
1F
100
AcDbEntity
  8
Predefinito
100
AcDbSpline
210
0.0
220
0.0
230
1.0
 70
    12
 71
     2
 72
     8
 73
     5
 74
     0
 42
0.0000000001
 43
0.0000000001
 40
-116.4311585025347
 40
-116.4311585025347
 40
-116.4311585025347
 40
-96.35682082968391
 40
-96.35682082968391
 40
-64.23788055312261
 40
-64.23788055312261
 40
-64.23788055312261
 10
623.5796426649594
 20
1302.919773535096
 30
0.0
 41
0.8627063036811906
 10
622.2652743863168
 20
1304.067826915541
 30
0.0
 41
0.8169417382415877
 10
630.7388992182657
 20
1304.81104681225
 30
0.0
 41
1.0
 10
646.4026331460968
 20
1306.184909703611
 30
0.0
 41
0.70710678118654
 10
659.5460665077992
 20
1304.547603667101
 30
0.0
 41
1.0
  0
SPLINE
  5
DB
330
1F
100
AcDbEntity
  8
Predefinito
100
AcDbSpline
210
0.0
220
0.0
230
1.0
 70
    12
 71
     2
 72
     6
 73
     3
 74
     0
 42
0.0000000001
 43
0.0000000001
 40
-64.23788055312261
 40
-64.23788055312261
 40
-64.23788055312261
 40
-46.07925970167553
 40
-46.07925970167553
 40
-46.07925970167553
 10
659.5460665077991
 20
1304.547603667102
 30
0.0
 41
1.0
 10
665.8465684241398
 20
1303.76273646104
 30
0.0
 41
0.8774068269720428
 10
663.9388785710302
 20
1302.757757361688
 30
0.0
 41
0.9467455206428353
  0
SPLINE
  5
DC
330
1F
100
AcDbEntity
  8
Predefinito
100
AcDbSpline
210
0.0
220
0.0
230
1.0
 70
    12
 71
     2
 72
     8
 73
     5
 74
     0
 42
0.0000000001
 43
0.0000000001
 40
46.51302456564851
 40
46.51302456564851
 40
46.51302456564851
 40
67.08609312353175
 40
67.08609312353175
 40
78.65844418734108
 40
78.65844418734108
 40
78.65844418734108
 10
643.8823325799683
 20
1305.404062611626
 30
0.0
 41
1.0
 10
655.129017705815
 20
1305.404062611626
 30
0.0
 41
0.8767267557075089
 10
661.1718572191326
 20
1304.412572713323
 30
0.0
 41
1.0
 10
664.3739754210161
 20
1303.887179337686
 30
0.0
 41
0.9306588000854737
 10
664.3823125208238
 20
1303.264226776154
 30
0.0
 41
0.9393264500747895
  0
SPLINE
  5
DD
330
1F
100
AcDbEntity
  8
Predefinito
100
AcDbSpline
210
0.0
220
0.0
230
1.0
 70
    12
 71
     2
 72
     8
 73
     5
 74
     0
 42
0.0000000001
 43
0.0000000001
 40
13.98758417072524
 40
13.98758417072524
 40
13.98758417072524
 40
23.25651228282425
 40
23.25651228282425
 40
46.51302456564851
 40
46.51302456564851
 40
46.51302456564851
 10
623.384001344281
 20
1303.233888066635
 30
0.0
 41
0.9249192621353817
 10
623.3242603900981
 20
1303.723266284881
 30
0.0
 41
0.937583356745532
 10
625.303022945716
 20
1304.166829682336
 30
0.0
 41
1.0
 10
630.822392233413
 20
1305.404062611628
 30
0.0
 41
0.8433914458128781
 10
643.8823325799669
 20
1305.404062611628
 30
0.0
 41
1.0
  0
SPLINE
  5
DE
330
1F
100
AcDbEntity
  8
Predefinito
100
AcDbSpline
210
0.0
220
0.0
230
1.0
 70
    12
 71
     2
 72
    10
 73
     7
 74
     0
 42
0.0000000001
 43
0.0000000001
 40
0.0
 40
0.0
 40
0.0
 40
8.080535890366557
 40
8.080535890366557
 40
15.09116375882796
 40
15.09116375882796
 40
15.16091224007256
 40
15.16091224007256
 40
15.16091224007256
 10
650.7766230709227
 20
1299.580447314763
 30
0.0
 41
1.0
 10
646.7524973719071
 20
1299.995571675322
 30
0.0
 41
0.9980682320723423
 10
642.7079548600682
 20
1299.908441048466
 30
0.0
 41
1.0
 10
639.1943443890037
 20
1299.937418713301
 30
0.0
 41
0.9964110941295842
 10
635.7261953985208
 20
1299.373290334964
 30
0.0
 41
1.0
 10
634.8818587021158
 20
1299.184013693638
 30
0.0
 41
0.9461687841261084
 10
634.8829468896531
 20
1298.975171722757
 30
0.0
 41
0.9393518323830319
  0
SPLINE
  5
DF
330
1F
100
AcDbEntity
  8
Predefinito
100
AcDbSpline
210
0.0
220
0.0
230
1.0
 70
    12
 71
     2
 72
     6
 73
     3
 74
     0
 42
0.0000000001
 43
0.0000000001
 40
0.8871546174964949
 40
0.8871546174964949
 40
0.8871546174964949
 40
1.0
 40
1.0
 40
1.0
 10
652.8810600475413
 20
1298.962016074404
 30
0.0
 41
0.9265897402247901
 10
652.9299575718865
 20
1299.312180893569
 30
0.0
 41
0.9021196536330535
 10
650.7766230709228
 20
1299.580447314763
 30
0.0
 41
1.0
  0
SPLINE
  5
E0
330
1F
100
AcDbEntity
  8
Predefinito
100
AcDbSpline
210
0.0
220
0.0
230
1.0
 70
    12
 71
     2
 72
     8
 73
     5
 74
     0
 42
0.0000000001
 43
0.0000000001
 40
17.88962483294225
 40
17.88962483294225
 40
17.88962483294225
 40
41.14613711576661
 40
41.14613711576661
 40
50.24372373050593
 40
50.24372373050593
 40
50.24372373050593
 10
643.8823325799684
 20
1305.793561933446
 30
0.0
 41
1.0
 10
630.8223922334146
 20
1305.793561933446
 30
0.0
 41
0.8433914458128794
 10
625.3030229457167
 20
1304.556329004157
 30
0.0
 41
1.0
 10
623.3632261110191
 20
1304.121500241137
 30
0.0
 41
0.9387371644982789
 10
623.3825135722013
 20
1303.64172402142
 30
0.0
 41
0.9254044696353199
  0
SPLINE
  5
E1
330
1F
100
AcDbEntity
  8
Predefinito
100
AcDbSpline
210
0.0
220
0.0
230
1.0
 70
    12
 71
     2
 72
     6
 73
     3
 74
     0
 42
0.0000000001
 43
0.0000000001
 40
114.4725805263004
 40
114.4725805263004
 40
114.4725805263004
 40
128.8052987971815
 40
128.8052987971815
 40
128.8052987971815
 10
664.3821970039407
 20
1303.658521661702
 30
0.0
 41
0.8553191392480989
 10
664.3552142700252
 20
1304.434034233113
 30
0.0
 41
0.8696340592225202
 10
659.5862436639077
 20
1305.028115257945
 30
0.0
 41
1.0
  0
SPLINE
  5
E2
330
1F
100
AcDbEntity
  8
Predefinito
100
AcDbSpline
210
0.0
220
0.0
230
1.0
 70
    12
 71
     2
 72
     6
 73
     3
 74
     0
 42
0.0000000001
 43
0.0000000001
 40
0.0
 40
0.0
 40
0.0
 40
15.73103213236351
 40
15.73103213236351
 40
15.73103213236351
 10
659.5862436639077
 20
1305.028115257946
 30
0.0
 41
1.0
 10
651.7560759097543
 20
1305.857837052327
 30
0.0
 41
0.9983835125165631
 10
643.8823325799683
 20
1305.793561933448
 30
0.0
 41
1.0
  0
SPLINE
  5
E3
330
1F
100
AcDbEntity
  8
Predefinito
100
AcDbSpline
210
0.0
220
0.0
230
1.0
 70
    24
 71
     2
 72
     6
 73
     3
 74
     0
 42
0.0000000001
 43
0.0000000001
 40
0.0
 40
0.0
 40
0.0
 40
7.0
 40
7.0
 40
7.0
 10
493.8823325799683
 20
1241.882332579969
 30
0.0
 10
493.8823325799683
 20
1238.382332579969
 30
0.0
 10
493.8823325799683
 20
1234.882332579969
 30
0.0
  0
SPLINE
  5
E4
330
1F
100
AcDbEntity
  8
Predefinito
100
AcDbSpline
210
0.0
220
0.0
230
1.0
 70
    24
 71
     2
 72
     6
 73
     3
 74
     0
 42
0.0000000001
 43
0.0000000001
 40
0.0
 40
0.0
 40
0.0
 40
6.971684360290283
 40
6.971684360290283
 40
6.971684360290283
 10
493.8823325799683
 20
1234.882332579969
 30
0.0
 10
493.8823325799683
 20
1231.396490399824
 30
0.0
 10
493.8823325799683
 20
1227.910648219678
 30
0.0
  0
SPLINE
  5
E5
330
1F
100
AcDbEntity
  8
Predefinito
100
AcDbSpline
210
0.0
220
0.0
230
1.0
 70
    24
 71
     2
 72
     6
 73
     3
 74
     0
 42
0.0000000001
 43
0.0000000001
 40
0.0
 40
0.0
 40
0.0
 40
152.9999999999998
 40
152.9999999999998
 40
152.9999999999998
 10
776.8823325799683
 20
1394.882332579968
 30
0.0
 10
776.8823325799683
 20
1318.382332579969
 30
0.0
 10
776.8823325799683
 20
1241.882332579969
 30
0.0
  0
SPLINE
  5
E6
330
1F
100
AcDbEntity
  8
Predefinito
100
AcDbSpline
210
0.0
220
0.0
230
1.0
 70
    24
 71
     2
 72
     6
 73
     3
 74
     0
 42
0.0000000001
 43
0.0000000001
 40
0.0
 40
0.0
 40
0.0
 40
6.971684360290283
 40
6.971684360290283
 40
6.971684360290283
 10
793.8823325799683
 20
1234.882332579969
 30
0.0
 10
793.8823325799683
 20
1231.396490399824
 30
0.0
 10
793.8823325799682
 20
1227.910648219678
 30
0.0
  0
SPLINE
  5
E7
330
1F
100
AcDbEntity
  8
Predefinito
100
AcDbSpline
210
0.0
220
0.0
230
1.0
 70
    24
 71
     2
 72
     6
 73
     3
 74
     0
 42
0.0000000001
 43
0.0000000001
 40
0.0
 40
0.0
 40
0.0
 40
300.0
 40
300.0
 40
300.0
 10
793.8823325799683
 20
1227.882332579969
 30
0.0
 10
643.8823325799683
 20
1227.882332579969
 30
0.0
 10
493.8823325799683
 20
1227.882332579969
 30
0.0
  0
SPLINE
  5
E8
330
1F
100
AcDbEntity
  8
Predefinito
100
AcDbSpline
210
0.0
220
0.0
230
1.0
 70
    24
 71
     2
 72
     6
 73
     3
 74
     0
 42
0.0000000001
 43
0.0000000001
 40
0.0
 40
0.0
 40
0.0
 40
3.000000000000057
 40
3.000000000000057
 40
3.000000000000057
 10
493.8823325799683
 20
1241.882332579969
 30
0.0
 10
495.3823325799683
 20
1241.882332579969
 30
0.0
 10
496.8823325799684
 20
1241.882332579969
 30
0.0
  0
SPLINE
  5
E9
330
1F
100
AcDbEntity
  8
Predefinito
100
AcDbSpline
210
0.0
220
0.0
230
1.0
 70
    24
 71
     2
 72
     6
 73
     3
 74
     0
 42
0.0000000001
 43
0.0000000001
 40
0.0
 40
0.0
 40
0.0
 40
3.000000001563041
 40
3.000000001563041
 40
3.000000001563041
 10
790.8823325799683
 20
1241.882235738632
 30
0.0
 10
792.3823325799683
 20
1241.8822841593
 30
0.0
 10
793.8823325799683
 20
1241.882332579969
 30
0.0
  0
SPLINE
  5
EA
330
1F
100
AcDbEntity
  8
Predefinito
100
AcDbSpline
210
0.0
220
0.0
230
1.0
 70
    24
 71
     2
 72
     6
 73
     3
 74
     0
 42
0.0000000001
 43
0.0000000001
 40
0.0
 40
0.0
 40
0.0
 40
7.0
 40
7.0
 40
7.0
 10
793.8823325799683
 20
1241.882332579969
 30
0.0
 10
793.8823325799683
 20
1238.382332579969
 30
0.0
 10
793.8823325799683
 20
1234.882332579969
 30
0.0
  0
SPLINE
  5
EB
330
1F
100
AcDbEntity
  8
Predefinito
100
AcDbSpline
210
0.0
220
0.0
230
1.0
 70
    24
 71
     2
 72
     6
 73
     3
 74
     0
 42
0.0000000001
 43
0.0000000001
 40
0.0
 40
0.0
 40
0.0
 40
123.0872753245665
 40
123.0872753245665
 40
123.0872753245665
 10
510.8823325799684
 20
1241.882332579969
 30
0.0
 10
572.4259702422517
 20
1241.882332579969
 30
0.0
 10
633.9696079045349
 20
1241.882332579969
 30
0.0
  0
SPLINE
  5
EC
330
1F
100
AcDbEntity
  8
Predefinito
100
AcDbSpline
210
0.0
220
0.0
230
1.0
 70
    24
 71
     2
 72
     6
 73
     3
 74
     0
 42
0.0000000001
 43
0.0000000001
 40
0.0
 40
0.0
 40
0.0
 40
123.0872753245663
 40
123.0872753245663
 40
123.0872753245663
 10
653.795057255402
 20
1241.882332579969
 30
0.0
 10
715.3386949176852
 20
1241.882332579969
 30
0.0
 10
776.8823325799683
 20
1241.882332579969
 30
0.0
  0
SPLINE
  5
ED
330
1F
100
AcDbEntity
  8
Predefinito
100
AcDbSpline
210
0.0
220
0.0
230
1.0
 70
    24
 71
     2
 72
     6
 73
     3
 74
     0
 42
0.0000000001
 43
0.0000000001
 40
0.0
 40
0.0
 40
0.0
 40
153.0
 40
153.0
 40
153.0
 10
496.8823325799684
 20
1394.882332579969
 30
0.0
 10
496.8823325799684
 20
1318.382332579969
 30
0.0
 10
496.8823325799684
 20
1241.882332579969
 30
0.0
  0
SPLINE
  5
EE
330
1F
100
AcDbEntity
  8
Predefinito
100
AcDbSpline
210
0.0
220
0.0
230
1.0
 70
    24
 71
     2
 72
     6
 73
     3
 74
     0
 42
0.0000000001
 43
0.0000000001
 40
0.0
 40
0.0
 40
0.0
 40
638.0
 40
638.0
 40
638.0
 10
636.8823325814243
 20
2233.882332579969
 30
0.0
 10
636.8823330457993
 20
1914.882332579969
 30
0.0
 10
636.8823335101744
 20
1595.882332579969
 30
0.0
  0
SPLINE
  5
EF
330
1F
100
AcDbEntity
  8
Predefinito
100
AcDbSpline
210
0.0
220
0.0
230
1.0
 70
    24
 71
     2
 72
     6
 73
     3
 74
     0
 42
0.0000000001
 43
0.0000000001
 40
0.0
 40
0.0
 40
0.0
 40
45.16676119203885
 40
45.16676119203885
 40
45.16676119203885
 10
636.8823335232759
 20
1586.882332579969
 30
0.0
 10
636.882333556151
 20
1564.298951983949
 30
0.0
 10
636.8823335890261
 20
1541.71557138793
 30
0.0
  0
SPLINE
  5
F0
330
1F
100
AcDbEntity
  8
Predefinito
100
AcDbSpline
210
0.0
220
0.0
230
1.0
 70
    24
 71
     2
 72
     6
 73
     3
 74
     0
 42
0.0000000001
 43
0.0000000001
 40
0.0
 40
0.0
 40
0.0
 40
45.16676152620857
 40
45.16676152620857
 40
45.16676152620857
 10
650.882332361178
 20
1541.71557105376
 30
0.0
 10
650.8823323683062
 20
1564.298951816864
 30
0.0
 10
650.8823323754344
 20
1586.882332579969
 30
0.0
  0
SPLINE
  5
F1
330
1F
100
AcDbEntity
  8
Predefinito
100
AcDbSpline
210
0.0
220
0.0
230
1.0
 70
    24
 71
     2
 72
     6
 73
     3
 74
     0
 42
0.0000000001
 43
0.0000000001
 40
0.0
 40
0.0
 40
0.0
 40
638.0
 40
638.0
 40
638.0
 10
650.8823323782751
 20
1595.882332579969
 30
0.0
 10
650.882332478964
 20
1914.882332579969
 30
0.0
 10
650.8823325796529
 20
2233.882332579969
 30
0.0
  0
SPLINE
  5
F2
330
1F
100
AcDbEntity
  8
Predefinito
100
AcDbSpline
210
0.0
220
0.0
230
1.0
 70
    12
 71
     2
 72
     6
 73
     3
 74
     0
 42
0.0000000001
 43
0.0000000001
 40
0.0
 40
0.0
 40
0.0
 40
223.9044129948346
 40
223.9044129948346
 40
223.9044129948346
 10
496.8823325799684
 20
1394.882332579969
 30
0.0
 41
1.0
 10
496.8823322436194
 20
1535.041334484781
 30
0.0
 41
0.7237468604662739
 10
636.8823335890262
 20
1541.71557138793
 30
0.0
 41
1.0
  0
SPLINE
  5
F3
330
1F
100
AcDbEntity
  8
Predefinito
100
AcDbSpline
210
0.0
220
0.0
230
1.0
 70
    12
 71
     2
 72
     6
 73
     3
 74
     0
 42
0.0000000001
 43
0.0000000001
 40
0.0
 40
0.0
 40
0.0
 40
223.9044120444556
 40
223.9044120444556
 40
223.9044120444556
 10
650.882332361178
 20
1541.71557105376
 30
0.0
 41
1.0
 10
790.882332958821
 20
1535.041333756626
 30
0.0
 41
0.7237468614180802
 10
790.8823325799685
 20
1394.882332579968
 30
0.0
 41
1.0
  0
SPLINE
  5
F4
330
1F
100
AcDbEntity
  8
Predefinito
100
AcDbSpline
210
0.0
220
0.0
230
1.0
 70
    24
 71
     2
 72
     6
 73
     3
 74
     0
 42
0.0000000001
 43
0.0000000001
 40
0.0
 40
0.0
 40
0.0
 40
0.2362156801096583
 40
0.2362156801096583
 40
0.2362156801096583
 10
793.8823325799683
 20
1241.682332579968
 30
0.0
 10
793.9658474345824
 20
1241.765847434582
 30
0.0
 10
794.0493622891966
 20
1241.849362289196
 30
0.0
  0
SPLINE
  5
F5
330
1F
100
AcDbEntity
  8
Predefinito
100
AcDbSpline
210
0.0
220
0.0
230
1.0
 70
    24
 71
     2
 72
     6
 73
     3
 74
     0
 42
0.0000000001
 43
0.0000000001
 40
0.0
 40
0.0
 40
0.0
 40
0.2512511346621104
 40
0.2512511346621104
 40
0.2512511346621104
 10
794.0599939610688
 20
1227.904671198868
 30
0.0
 10
793.9711632705186
 20
1227.993501889418
 30
0.0
 10
793.8823325799683
 20
1228.082332579968
 30
0.0
  0
SPLINE
  5
F6
330
1F
100
AcDbEntity
  8
Predefinito
100
AcDbSpline
210
0.0
220
0.0
230
1.0
 70
    24
 71
     2
 72
     6
 73
     3
 74
     0
 42
0.0000000001
 43
0.0000000001
 40
0.0
 40
0.0
 40
0.0
 40
0.6604797488217636
 40
0.6604797488217636
 40
0.6604797488217636
 10
795.4153028707402
 20
1241.849362289197
 30
0.0
 10
795.6488177253543
 20
1241.615847434582
 30
0.0
 10
795.8823325799683
 20
1241.382332579968
 30
0.0
  0
SPLINE
  5
F7
330
1F
100
AcDbEntity
  8
Predefinito
100
AcDbSpline
210
0.0
220
0.0
230
1.0
 70
    24
 71
     2
 72
     6
 73
     3
 74
     0
 42
0.0000000001
 43
0.0000000001
 40
0.0
 40
0.0
 40
0.0
 40
0.6890661984134977
 40
0.6890661984134977
 40
0.6890661984134977
 10
795.8823325799683
 20
1228.382332579969
 30
0.0
 10
795.6387108891759
 20
1228.138710889176
 30
0.0
 10
795.3950891983835
 20
1227.895089198384
 30
0.0
  0
SPLINE
  5
F8
330
1F
100
AcDbEntity
  8
Predefinito
100
AcDbSpline
210
0.0
220
0.0
230
1.0
 70
    24
 71
     2
 72
     6
 73
     3
 74
     0
 42
0.0000000001
 43
0.0000000001
 40
0.0
 40
0.0
 40
0.0
 40
1.299999999999955
 40
1.299999999999955
 40
1.299999999999955
 10
795.3823325799683
 20
1227.882332579969
 30
0.0
 10
794.7323325799683
 20
1227.882332579969
 30
0.0
 10
794.0823325799684
 20
1227.882332579969
 30
0.0
  0
SPLINE
  5
F9
330
1F
100
AcDbEntity
  8
Predefinito
100
AcDbSpline
210
0.0
220
0.0
230
1.0
 70
    24
 71
     2
 72
     6
 73
     3
 74
     0
 42
0.0000000001
 43
0.0000000001
 40
0.0
 40
0.0
 40
0.0
 40
1.299999999999955
 40
1.299999999999955
 40
1.299999999999955
 10
794.0823325799684
 20
1241.882332579969
 30
0.0
 10
794.7323325799683
 20
1241.882332579969
 30
0.0
 10
795.3823325799683
 20
1241.882332579969
 30
0.0
  0
SPLINE
  5
FA
330
1F
100
AcDbEntity
  8
Predefinito
100
AcDbSpline
210
0.0
220
0.0
230
1.0
 70
    24
 71
     2
 72
     6
 73
     3
 74
     0
 42
0.0000000001
 43
0.0000000001
 40
0.0
 40
0.0
 40
0.0
 40
0.2628205316224277
 40
0.2628205316224277
 40
0.2628205316224277
 10
493.6964903998232
 20
1241.868174760114
 30
0.0
 10
493.7894114898958
 20
1241.775253670041
 30
0.0
 10
493.8823325799684
 20
1241.682332579968
 30
0.0
  0
SPLINE
  5
FB
330
1F
100
AcDbEntity
  8
Predefinito
100
AcDbSpline
210
0.0
220
0.0
230
1.0
 70
    24
 71
     2
 72
     6
 73
     3
 74
     0
 42
0.0000000001
 43
0.0000000001
 40
0.0
 40
0.0
 40
0.0
 40
0.7071067811865476
 40
0.7071067811865476
 40
0.7071067811865476
 10
492.3823325799683
 20
1227.882332579969
 30
0.0
 10
492.1323325799683
 20
1228.132332579969
 30
0.0
 10
491.8823325799683
 20
1228.382332579969
 30
0.0
  0
SPLINE
  5
FC
330
1F
100
AcDbEntity
  8
Predefinito
100
AcDbSpline
210
0.0
220
0.0
230
1.0
 70
    24
 71
     2
 72
     6
 73
     3
 74
     0
 42
0.0000000001
 43
0.0000000001
 40
0.0
 40
0.0
 40
0.0
 40
1.300000000000011
 40
1.300000000000011
 40
1.300000000000011
 10
493.6823325799683
 20
1227.882332579969
 30
0.0
 10
493.0323325799683
 20
1227.882332579969
 30
0.0
 10
492.3823325799683
 20
1227.882332579969
 30
0.0
  0
SPLINE
  5
FD
330
1F
100
AcDbEntity
  8
Predefinito
100
AcDbSpline
210
0.0
220
0.0
230
1.0
 70
    24
 71
     2
 72
     6
 73
     3
 74
     0
 42
0.0000000001
 43
0.0000000001
 40
0.0
 40
0.0
 40
0.0
 40
1.300000000000011
 40
1.300000000000011
 40
1.300000000000011
 10
492.3823325799683
 20
1241.882332579969
 30
0.0
 10
493.0323325799683
 20
1241.882332579969
 30
0.0
 10
493.6823325799683
 20
1241.882332579969
 30
0.0
  0
SPLINE
  5
FE
330
1F
100
AcDbEntity
  8
Predefinito
100
AcDbSpline
210
0.0
220
0.0
230
1.0
 70
    24
 71
     2
 72
     6
 73
     3
 74
     0
 42
0.0000000001
 43
0.0000000001
 40
0.0
 40
0.0
 40
0.0
 40
1.376188256730399
 40
1.376188256730399
 40
1.376188256730399
 10
656.7611887459452
 20
1591.34473582788
 30
0.0
 10
657.4466644684107
 20
1591.284764473042
 30
0.0
 10
658.1321401908762
 20
1591.224793118204
 30
0.0
  0
SPLINE
  5
FF
330
1F
100
AcDbEntity
  8
Predefinito
100
AcDbSpline
210
0.0
220
0.0
230
1.0
 70
    24
 71
     2
 72
     6
 73
     3
 74
     0
 42
0.0000000001
 43
0.0000000001
 40
0.0
 40
0.0
 40
0.0
 40
2.971826819984699
 40
2.971826819984699
 40
2.971826819984699
 10
654.6323325799683
 20
1595.33098660868
 30
0.0
 10
654.6323325799683
 20
1593.845073198688
 30
0.0
 10
654.6323325799683
 20
1592.359159788696
 30
0.0
  0
SPLINE
  5
100
330
1F
100
AcDbEntity
  8
Predefinito
100
AcDbSpline
210
0.0
220
0.0
230
1.0
 70
    24
 71
     2
 72
     6
 73
     3
 74
     0
 42
0.0000000001
 43
0.0000000001
 40
0.0
 40
0.0
 40
0.0
 40
1.598472064981934
 40
1.598472064981934
 40
1.598472064981934
 10
658.8823325799683
 20
1590.975893553891
 30
0.0
 10
658.8823325799683
 20
1590.176657521401
 30
0.0
 10
658.8823325799683
 20
1589.377421488909
 30
0.0
  0
SPLINE
  5
101
330
1F
100
AcDbEntity
  8
Predefinito
100
AcDbSpline
210
0.0
220
0.0
230
1.0
 70
    24
 71
     2
 72
     6
 73
     3
 74
     0
 42
0.0000000001
 43
0.0000000001
 40
0.0
 40
0.0
 40
0.0
 40
0.2828427124746833
 40
0.2828427124746833
 40
0.2828427124746833
 10
654.4323325799683
 20
1595.53098660868
 30
0.0
 10
654.5323325799683
 20
1595.430986608681
 30
0.0
 10
654.6323325799683
 20
1595.33098660868
 30
0.0
  0
SPLINE
  5
102
330
1F
100
AcDbEntity
  8
Predefinito
100
AcDbSpline
210
0.0
220
0.0
230
1.0
 70
    24
 71
     2
 72
     6
 73
     3
 74
     0
 42
0.0000000001
 43
0.0000000001
 40
0.0
 40
0.0
 40
0.0
 40
0.2292437210961177
 40
0.2292437210961177
 40
0.2292437210961177
 10
658.6997637285174
 20
1591.17513249351
 30
0.0
 10
658.7772011350824
 20
1591.090624393425
 30
0.0
 10
658.8546385416474
 20
1591.00611629334
 30
0.0
  0
SPLINE
  5
103
330
1F
100
AcDbEntity
  8
Predefinito
100
AcDbSpline
210
0.0
220
0.0
230
1.0
 70
    24
 71
     2
 72
     6
 73
     3
 74
     0
 42
0.0000000001
 43
0.0000000001
 40
0.0
 40
0.0
 40
0.0
 40
1.995088908940716
 40
1.995088908940716
 40
1.995088908940716
 10
658.8823325799684
 20
1589.377421488909
 30
0.0
 10
658.8823325799684
 20
1588.379877034439
 30
0.0
 10
658.8823325799684
 20
1587.382332579969
 30
0.0
  0
SPLINE
  5
104
330
1F
100
AcDbEntity
  8
Predefinito
100
AcDbSpline
210
0.0
220
0.0
230
1.0
 70
    12
 71
     2
 72
     6
 73
     3
 74
     0
 42
0.0000000001
 43
0.0000000001
 40
0.0
 40
0.0
 40
0.0
 40
0.7847227596987356
 40
0.7847227596987356
 40
0.7847227596987356
 10
629.3823325799684
 20
1586.882332579969
 30
0.0
 41
1.0
 10
628.8839053700649
 20
1586.883905370065
 30
0.0
 41
0.7093345294503579
 10
628.8823325799685
 20
1587.382332579969
 30
0.0
 41
1.0
  0
SPLINE
  5
105
330
1F
100
AcDbEntity
  8
Predefinito
100
AcDbSpline
210
0.0
220
0.0
230
1.0
 70
    12
 71
     2
 72
     6
 73
     3
 74
     0
 42
0.0000000001
 43
0.0000000001
 40
0.0
 40
0.0
 40
0.0
 40
0.7848984666143926
 40
0.7848984666143926
 40
0.7848984666143926
 10
658.8823325799684
 20
1587.382332579969
 30
0.0
 41
1.0
 10
658.8811687946027
 20
1586.883496365334
 30
0.0
 41
0.7087545331480095
 10
658.3823325799684
 20
1586.882332579969
 30
0.0
 41
1.0
  0
SPLINE
  5
106
330
1F
100
AcDbEntity
  8
Predefinito
100
AcDbSpline
210
0.0
220
0.0
230
1.0
 70
    12
 71
     2
 72
     6
 73
     3
 74
     0
 42
0.0000000001
 43
0.0000000001
 40
0.0
 40
0.0
 40
0.0
 40
0.6335819497565349
 40
0.6335819497565349
 40
0.6335819497565349
 10
635.4055813989528
 20
1595.530986608667
 30
0.0
 41
1.0
 10
635.5153118067692
 20
1595.881221035937
 30
0.0
 41
0.8068035476661902
 10
635.8823318074705
 20
1595.882332579968
 30
0.0
 41
1.0
  0
SPLINE
  5
107
330
1F
100
AcDbEntity
  8
Predefinito
100
AcDbSpline
210
0.0
220
0.0
230
1.0
 70
    12
 71
     2
 72
     6
 73
     3
 74
     0
 42
0.0000000001
 43
0.0000000001
 40
0.0
 40
0.0
 40
0.0
 40
0.6335265790684668
 40
0.6335265790684668
 40
0.6335265790684668
 10
651.8823333524665
 20
1595.882332579968
 30
0.0
 41
1.0
 10
652.2495482673551
 20
1595.881564749675
 30
0.0
 41
0.806098381260554
 10
652.3588293275957
 20
1595.530986608382
 30
0.0
 41
1.0
  0
SPLINE
  5
108
330
1F
100
AcDbEntity
  8
Predefinito
100
AcDbSpline
210
0.0
220
0.0
230
1.0
 70
    24
 71
     2
 72
     6
 73
     3
 74
     0
 42
0.0000000001
 43
0.0000000001
 40
0.0
 40
0.0
 40
0.0
 40
1.0
 40
1.0
 40
1.0
 10
658.3823325799683
 20
1592.359159788695
 30
0.0
 10
658.3823325799683
 20
1591.859159788695
 30
0.0
 10
658.3823325799683
 20
1591.359159788695
 30
0.0
  0
SPLINE
  5
109
330
1F
100
AcDbEntity
  8
Predefinito
100
AcDbSpline
210
0.0
220
0.0
230
1.0
 70
    24
 71
     2
 72
     6
 73
     3
 74
     0
 42
0.0000000001
 43
0.0000000001
 40
0.0
 40
0.0
 40
0.0
 40
33.17017767989714
 40
33.17017767989714
 40
33.17017767989714
 10
568.3790460848543
 20
2233.882332579969
 30
0.0
 10
568.2343171237596
 20
2250.466789922818
 30
0.0
 10
568.089588162665
 20
2267.051247265668
 30
0.0
  0
SPLINE
  5
10A
330
1F
100
AcDbEntity
  8
Predefinito
100
AcDbSpline
210
0.0
220
0.0
230
1.0
 70
    12
 71
     3
 72
    11
 73
     7
 74
     0
 42
0.0000000001
 43
0.0000000001
 40
0.0
 40
0.0
 40
0.0
 40
0.0
 40
0.5262167694762904
 40
0.5262167694762904
 40
0.7500552460445619
 40
1.002021177834701
 40
1.002021177834701
 40
1.002021177834701
 40
1.002021177834701
 10
568.089588162665
 20
2267.051247265668
 30
0.0
 41
1.0
 10
568.0880574944225
 20
2267.226646176716
 30
0.0
 41
1.0
 10
568.0865268261799
 20
2267.402045087763
 30
0.0
 41
1.0
 10
568.0843450527898
 20
2267.652053983362
 30
0.0
 41
1.0
 10
568.1445738930581
 20
2267.810803838217
 30
0.0
 41
1.0
 10
568.3009716319405
 20
2267.882332075771
 30
0.0
 41
1.0
 10
568.3849602752199
 20
2267.882332579963
 30
0.0
 41
1.0
  0
SPLINE
  5
10B
330
1F
100
AcDbEntity
  8
Predefinito
100
AcDbSpline
210
0.0
220
0.0
230
1.0
 70
    24
 71
     2
 72
     6
 73
     3
 74
     0
 42
0.0000000001
 43
0.0000000001
 40
0.0
 40
0.0
 40
0.0
 40
33.17017767989714
 40
33.17017767989714
 40
33.17017767989714
 10
719.6750769972721
 20
2267.051247265668
 30
0.0
 10
719.5303480361774
 20
2250.466789922818
 30
0.0
 10
719.3856190750827
 20
2233.882332579969
 30
0.0
  0
SPLINE
  5
10C
330
1F
100
AcDbEntity
  8
Predefinito
100
AcDbSpline
210
0.0
220
0.0
230
1.0
 70
    12
 71
     3
 72
    11
 73
     7
 74
     0
 42
0.0000000001
 43
0.0000000001
 40
0.0
 40
0.0
 40
0.0
 40
0.0
 40
0.5262167694762904
 40
0.5262167694762904
 40
0.7500552460445619
 40
1.002021177834701
 40
1.002021177834701
 40
1.002021177834701
 40
1.002021177834701
 10
719.6750769972721
 20
2267.051247265668
 30
0.0
 41
1.0
 10
719.6766076655144
 20
2267.226646176716
 30
0.0
 41
1.0
 10
719.6781383337571
 20
2267.402045087763
 30
0.0
 41
1.0
 10
719.6803201071472
 20
2267.652053983362
 30
0.0
 41
1.0
 10
719.6200912668796
 20
2267.810803838214
 30
0.0
 41
1.0
 10
719.4636935279965
 20
2267.882332075771
 30
0.0
 41
1.0
 10
719.3797048847171
 20
2267.882332579963
 30
0.0
 41
1.0
  0
SPLINE
  5
10D
330
1F
100
AcDbEntity
  8
Predefinito
100
AcDbSpline
210
0.0
220
0.0
230
1.0
 70
    12
 71
     2
 72
     6
 73
     3
 74
     0
 42
0.0000000001
 43
0.0000000001
 40
0.0
 40
0.0
 40
0.0
 40
0.6458966896316394
 40
0.6458966896316394
 40
0.6458966896316394
 10
634.1121158065567
 20
1244.881995391759
 30
0.0
 41
1.0
 10
634.4858252006504
 20
1244.912780609095
 30
0.0
 41
0.8043010044148644
 10
634.566194530905
 20
1245.27904173397
 30
0.0
 41
1.0
  0
SPLINE
  5
10E
330
1F
100
AcDbEntity
  8
Predefinito
100
AcDbSpline
210
0.0
220
0.0
230
1.0
 70
    12
 71
     2
 72
     6
 73
     3
 74
     0
 42
0.0000000001
 43
0.0000000001
 40
0.0
 40
0.0
 40
0.0
 40
0.5574319385080444
 40
0.5574319385080444
 40
0.5574319385080444
 10
653.224876678361
 20
1245.193620186128
 30
0.0
 41
1.0
 10
653.3419393308275
 20
1244.904986299796
 30
0.0
 41
0.8494764784204781
 10
653.6525589550313
 20
1244.88199425767
 30
0.0
 41
1.0
  0
SPLINE
  5
10F
330
1F
100
AcDbEntity
  8
Predefinito
100
AcDbSpline
210
0.0
220
0.0
230
1.0
 70
    12
 71
     2
 72
     6
 73
     3
 74
     0
 42
0.0000000001
 43
0.0000000001
 40
0.0
 40
0.0
 40
0.0
 40
0.1458074856900069
 40
0.1458074856900069
 40
0.1458074856900069
 10
653.6527555710855
 20
1244.88428770976
 30
0.0
 41
1.0
 10
653.7400627991442
 20
1244.874165967349
 30
0.0
 41
0.7627803886440482
 10
653.7443669289995
 20
1244.786379429617
 30
0.0
 41
1.0
  0
SPLINE
  5
110
330
1F
100
AcDbEntity
  8
Predefinito
100
AcDbSpline
210
0.0
220
0.0
230
1.0
 70
    12
 71
     2
 72
     6
 73
     3
 74
     0
 42
0.0000000001
 43
0.0000000001
 40
0.0
 40
0.0
 40
0.0
 40
0.145815693795102
 40
0.145815693795102
 40
0.145815693795102
 10
634.0202982309381
 20
1244.786379429682
 30
0.0
 41
1.0
 10
634.0246064761905
 20
1244.874171014847
 30
0.0
 41
0.7627768005259284
 10
634.1119194694622
 20
1244.884288554513
 30
0.0
 41
1.0
  0
SPLINE
  5
111
330
1F
100
AcDbEntity
  8
Predefinito
100
AcDbSpline
210
0.0
220
0.0
230
1.0
 70
    12
 71
     2
 72
     6
 73
     3
 74
     0
 42
0.0000000001
 43
0.0000000001
 40
0.0
 40
0.0
 40
0.0
 40
0.1696358826744384
 40
0.1696358826744384
 40
0.1696358826744384
 10
651.5865713984176
 20
1263.876120422434
 30
0.0
 41
1.0
 10
651.5729305780684
 20
1263.792383488754
 30
0.0
 41
0.9995974975666684
 10
651.5545624353476
 20
1263.70955500709
 30
0.0
 41
1.0
  0
SPLINE
  5
112
330
1F
100
AcDbEntity
  8
Predefinito
100
AcDbSpline
210
0.0
220
0.0
230
1.0
 70
    12
 71
     2
 72
     6
 73
     3
 74
     0
 42
0.0000000001
 43
0.0000000001
 40
0.0
 40
0.0
 40
0.0
 40
0.1696358826715443
 40
0.1696358826715443
 40
0.1696358826715443
 10
636.2101027245892
 20
1263.70955500709
 30
0.0
 41
1.0
 10
636.1917345818679
 20
1263.792383488753
 30
0.0
 41
0.9995974975665088
 10
636.1780937615192
 20
1263.876120422431
 30
0.0
 41
1.0
  0
SPLINE
  5
113
330
1F
100
AcDbEntity
  8
Predefinito
100
AcDbSpline
210
0.0
220
0.0
230
1.0
 70
    24
 71
     2
 72
     6
 73
     3
 74
     0
 42
0.0000000001
 43
0.0000000001
 40
0.0
 40
0.0
 40
0.0
 40
0.8406095409510204
 40
0.8406095409510204
 40
0.8406095409510204
 10
651.5531069300401
 20
1263.702993534417
 30
0.0
 10
651.4620849571654
 20
1263.292663057193
 30
0.0
 10
651.3710629842908
 20
1262.88233257997
 30
0.0
  0
SPLINE
  5
114
330
1F
100
AcDbEntity
  8
Predefinito
100
AcDbSpline
210
0.0
220
0.0
230
1.0
 70
    24
 71
     2
 72
     6
 73
     3
 74
     0
 42
0.0000000001
 43
0.0000000001
 40
0.0
 40
0.0
 40
0.0
 40
0.8406095409510204
 40
0.8406095409510204
 40
0.8406095409510204
 10
636.393602175646
 20
1262.88233257997
 30
0.0
 10
636.3025802027714
 20
1263.292663057193
 30
0.0
 10
636.2115582298967
 20
1263.702993534417
 30
0.0
  0
SPLINE
  5
115
330
1F
100
AcDbEntity
  8
Predefinito
100
AcDbSpline
210
0.0
220
0.0
230
1.0
 70
    12
 71
     2
 72
     6
 73
     3
 74
     0
 42
0.0000000001
 43
0.0000000001
 40
0.0
 40
0.0
 40
0.0
 40
0.4136928942282432
 40
0.4136928942282432
 40
0.4136928942282432
 10
653.1625282042718
 20
1278.669670035468
 30
0.0
 41
1.0
 10
653.1577240021828
 20
1278.462879351685
 30
0.0
 41
0.9999997445352884
 10
653.153215430088
 20
1278.256082011191
 30
0.0
 41
1.0
  0
SPLINE
  5
116
330
1F
100
AcDbEntity
  8
Predefinito
100
AcDbSpline
210
0.0
220
0.0
230
1.0
 70
    12
 71
     2
 72
     6
 73
     3
 74
     0
 42
0.0000000001
 43
0.0000000001
 40
0.0
 40
0.0
 40
0.0
 40
0.6155314684470433
 40
0.6155314684470433
 40
0.6155314684470433
 10
634.626022068678
 20
1277.569965378994
 30
0.0
 41
1.0
 10
634.6196532098645
 20
1277.877665232394
 30
0.0
 41
0.9999998813641738
 10
634.6129845896093
 20
1278.185358735167
 30
0.0
 41
1.0
  0
SPLINE
  5
117
330
1F
100
AcDbEntity
  8
Predefinito
100
AcDbSpline
210
0.0
220
0.0
230
1.0
 70
    12
 71
     2
 72
     8
 73
     5
 74
     0
 42
0.0000000001
 43
0.0000000001
 40
0.0
 40
0.0
 40
0.0
 40
60.18212543455522
 40
60.18212543455522
 40
120.3642508691104
 40
120.3642508691104
 40
120.3642508691104
 10
643.8823367763218
 20
1389.16745653757
 30
0.0
 41
1.0
 10
679.4379357908083
 20
1389.167477403131
 30
0.0
 41
0.7846345578454945
 10
687.6620649420217
 20
1354.576086552465
 30
0.0
 41
1.0
 10
695.886194093235
 20
1319.984695701799
 30
0.0
 41
0.7846345578454945
 10
664.1351229293814
 20
1303.982505188394
 30
0.0
 41
1.0
  0
SPLINE
  5
118
330
1F
100
AcDbEntity
  8
Predefinito
100
AcDbSpline
210
0.0
220
0.0
230
1.0
 70
    12
 71
     2
 72
     8
 73
     5
 74
     0
 42
0.0000000001
 43
0.0000000001
 40
0.0
 40
0.0
 40
0.0
 40
60.18207477054641
 40
60.18207477054641
 40
120.3641495410928
 40
120.3641495410928
 40
120.3641495410928
 10
623.6296189691361
 20
1303.982556366918
 30
0.0
 41
1.0
 10
591.8785664945937
 20
1319.984714397383
 30
0.0
 41
0.7846346006832314
 10
600.1026635862652
 20
1354.576080688698
 30
0.0
 41
1.0
 10
608.3267606779367
 20
1389.167446980013
 30
0.0
 41
0.7846346006832314
 10
643.8823283836149
 20
1389.16745653757
 30
0.0
 41
1.0
  0
SPLINE
  5
119
330
1F
100
AcDbEntity
  8
Predefinito
100
AcDbSpline
210
0.0
220
0.0
230
1.0
 70
    12
 71
     2
 72
     6
 73
     3
 74
     0
 42
0.0000000001
 43
0.0000000001
 40
0.0
 40
0.0
 40
0.0
 40
0.1336951060208645
 40
0.1336951060208645
 40
0.1336951060208645
 10
664.3823325799684
 20
1303.261229114641
 30
0.0
 41
1.0
 10
664.3818540195872
 20
1303.193510476124
 30
0.0
 41
0.9807797136950482
 10
664.3554935267775
 20
1303.13113125329
 30
0.0
 41
1.0
  0
SPLINE
  5
11A
330
1F
100
AcDbEntity
  8
Predefinito
100
AcDbSpline
210
0.0
220
0.0
230
1.0
 70
    12
 71
     2
 72
     6
 73
     3
 74
     0
 42
0.0000000001
 43
0.0000000001
 40
0.0
 40
0.0
 40
0.0
 40
11.79822049902053
 40
11.79822049902053
 40
11.79822049902053
 10
663.9383351483267
 20
1302.75759193707
 30
0.0
 41
1.0
 10
658.687204651381
 20
1299.988772240635
 30
0.0
 41
0.9906065982245684
 10
652.8823325799682
 20
1298.746116116905
 30
0.0
 41
1.0
  0
SPLINE
  5
11B
330
1F
100
AcDbEntity
  8
Predefinito
100
AcDbSpline
210
0.0
220
0.0
230
1.0
 70
    12
 71
     2
 72
     6
 73
     3
 74
     0
 42
0.0000000001
 43
0.0000000001
 40
0.0
 40
0.0
 40
0.0
 40
11.79815979547805
 40
11.79815979547805
 40
11.79815979547805
 10
634.8823325799683
 20
1298.746126810938
 30
0.0
 41
1.0
 10
629.0774370192125
 20
1299.988585012392
 30
0.0
 41
0.9906035808538466
 10
623.826352471979
 20
1302.757452277441
 30
0.0
 41
1.0
  0
SPLINE
  5
11C
330
1F
100
AcDbEntity
  8
Predefinito
100
AcDbSpline
210
0.0
220
0.0
230
1.0
 70
    24
 71
     2
 72
     6
 73
     3
 74
     0
 42
0.0000000001
 43
0.0000000001
 40
0.0
 40
0.0
 40
0.0
 40
0.2493513056970187
 40
0.2493513056970187
 40
0.2493513056970187
 10
664.3823325799682
 20
1303.65072843646
 30
0.0
 10
664.3823325799682
 20
1303.526052783611
 30
0.0
 10
664.3823325799682
 20
1303.401377130763
 30
0.0
  0
SPLINE
  5
11D
330
1F
100
AcDbEntity
  8
Predefinito
100
AcDbSpline
210
0.0
220
0.0
230
1.0
 70
    24
 71
     2
 72
     6
 73
     3
 74
     0
 42
0.0000000001
 43
0.0000000001
 40
0.0
 40
0.0
 40
0.0
 40
0.349458881152259
 40
0.349458881152259
 40
0.349458881152259
 10
623.3823325799686
 20
1303.292470285404
 30
0.0
 10
623.3823325799686
 20
1303.46719972598
 30
0.0
 10
623.3823325799686
 20
1303.641929166556
 30
0.0
  0
SPLINE
  5
11E
330
1F
100
AcDbEntity
  8
Predefinito
100
AcDbSpline
210
0.0
220
0.0
230
1.0
 70
    24
 71
     2
 72
     6
 73
     3
 74
     0
 42
0.0000000001
 43
0.0000000001
 40
0.0
 40
0.0
 40
0.0
 40
0.6849663772406984
 40
0.6849663772406984
 40
0.6849663772406984
 10
652.8823325799685
 20
1298.962016074404
 30
0.0
 10
652.8823325799685
 20
1298.619532885784
 30
0.0
 10
652.8823325799685
 20
1298.277049697163
 30
0.0
  0
SPLINE
  5
11F
330
1F
100
AcDbEntity
  8
Predefinito
100
AcDbSpline
210
0.0
220
0.0
230
1.0
 70
    24
 71
     2
 72
     6
 73
     3
 74
     0
 42
0.0000000001
 43
0.0000000001
 40
0.0
 40
0.0
 40
0.0
 40
0.6980366456209595
 40
0.6980366456209595
 40
0.6980366456209595
 10
634.8823325799683
 20
1298.277049698487
 30
0.0
 10
634.8823325799683
 20
1298.626068021297
 30
0.0
 10
634.8823325799683
 20
1298.975086344108
 30
0.0
  0
SPLINE
  5
120
330
1F
100
AcDbEntity
  8
Predefinito
100
AcDbSpline
210
0.0
220
0.0
230
1.0
 70
    24
 71
     2
 72
     6
 73
     3
 74
     0
 42
0.0000000001
 43
0.0000000001
 40
0.0
 40
0.0
 40
0.0
 40
153.0000968413367
 40
153.0000968413367
 40
153.0000968413367
 10
790.8823325799683
 20
1394.882332579968
 30
0.0
 10
790.8823325799683
 20
1318.3822841593
 30
0.0
 10
790.8823325799683
 20
1241.882235738632
 30
0.0
  0
SPLINE
  5
121
330
1F
100
AcDbEntity
  8
Predefinito
100
AcDbSpline
210
0.0
220
0.0
230
1.0
 70
    24
 71
     2
 72
     6
 73
     3
 74
     0
 42
0.0000000001
 43
0.0000000001
 40
0.0
 40
0.0
 40
0.0
 40
153.0000000000002
 40
153.0000000000002
 40
153.0000000000002
 10
510.8823325799684
 20
1394.882332579969
 30
0.0
 10
510.8823325799684
 20
1318.382332579969
 30
0.0
 10
510.8823325799684
 20
1241.882332579968
 30
0.0
  0
SPLINE
  5
122
330
1F
100
AcDbEntity
  8
Predefinito
100
AcDbSpline
210
0.0
220
0.0
230
1.0
 70
    12
 71
     2
 72
    12
 73
     9
 74
     0
 42
0.0000000001
 43
0.0000000001
 40
0.0
 40
0.0
 40
0.0
 40
104.4579705735784
 40
104.4579705735784
 40
208.9159411471569
 40
208.9159411471569
 40
313.3739117207353
 40
313.3739117207353
 40
417.8318822943137
 40
417.8318822943137
 40
417.8318822943137
 10
776.8823325799685
 20
1394.882332579969
 30
0.0
 41
1.0
 10
776.8823448752497
 20
1449.972745069666
 30
0.0
 41
0.9238795111591106
 10
737.9275449724585
 20
1488.927553666534
 30
0.0
 41
1.0
 10
698.9727450696672
 20
1527.882362263402
 30
0.0
 41
0.9238795111591106
 10
643.8823325799684
 20
1527.882362263402
 30
0.0
 41
1.0
 10
588.7919200902696
 20
1527.882362263402
 30
0.0
 41
0.9238795111591106
 10
549.8371201874784
 20
1488.927553666534
 30
0.0
 41
1.0
 10
510.882320284687
 20
1449.972745069666
 30
0.0
 41
0.9238795111591106
 10
510.8823325799683
 20
1394.882332579969
 30
0.0
 41
1.0
  0
SPLINE
  5
123
330
1F
100
AcDbEntity
  8
Predefinito
100
AcDbSpline
210
0.0
220
0.0
230
1.0
 70
    12
 71
     2
 72
     8
 73
     5
 74
     0
 42
0.0000000001
 43
0.0000000001
 40
0.0
 40
0.0
 40
0.0
 40
10.99557428756446
 40
10.99557428756446
 40
21.99114857512856
 40
21.99114857512856
 40
21.99114857512856
 10
118.9297362612851
 20
1232.209387349161
 30
0.0
 41
1.0
 10
121.6026814920912
 20
1225.739815200007
 30
0.0
 41
0.7071067811865012
 10
128.0722536412455
 20
1228.412760430814
 30
0.0
 41
1.0
 10
134.5418257903994
 20
1231.08570566162
 30
0.0
 41
0.7071067811865461
 10
131.8688805595931
 20
1237.555277810774
 30
0.0
 41
1.0
  0
SPLINE
  5
124
330
1F
100
AcDbEntity
  8
Predefinito
100
AcDbSpline
210
0.0
220
0.0
230
1.0
 70
    12
 71
     2
 72
     8
 73
     5
 74
     0
 42
0.0000000001
 43
0.0000000001
 40
0.0
 40
0.0
 40
0.0
 40
10.21017612416692
 40
10.21017612416692
 40
20.42035224833381
 40
20.42035224833381
 40
20.42035224833381
 10
119.3918485576532
 20
1232.400312008505
 30
0.0
 41
1.0
 10
121.8738691291162
 20
1226.39285215572
 30
0.0
 41
0.7071067811865712
 10
127.8813289819021
 20
1228.874872727182
 30
0.0
 41
1.0
 10
133.8887888346881
 20
1231.356893298645
 30
0.0
 41
0.7071067811865506
 10
131.4067682632253
 20
1237.364353151431
 30
0.0
 41
1.0
  0
SPLINE
  5
125
330
1F
100
AcDbEntity
  8
Predefinito
100
AcDbSpline
210
0.0
220
0.0
230
1.0
 70
    12
 71
     2
 72
     8
 73
     5
 74
     0
 42
0.0000000001
 43
0.0000000001
 40
0.0
 40
0.0
 40
0.0
 40
10.21017612416699
 40
10.21017612416699
 40
20.42035224833376
 40
20.42035224833376
 40
20.42035224833376
 10
131.4067682632251
 20
1237.364353151431
 30
0.0
 41
1.0
 10
128.9247476917623
 20
1243.371813004217
 30
0.0
 41
0.707106781186516
 10
122.9172878389762
 20
1240.889792432754
 30
0.0
 41
1.0
 10
116.9098279861899
 20
1238.407771861291
 30
0.0
 41
0.7071067811865055
 10
119.3918485576533
 20
1232.400312008505
 30
0.0
 41
1.0
  0
SPLINE
  5
126
330
1F
100
AcDbEntity
  8
Predefinito
100
AcDbSpline
210
0.0
220
0.0
230
1.0
 70
    12
 71
     2
 72
     8
 73
     5
 74
     0
 42
0.0000000001
 43
0.0000000001
 40
0.0
 40
0.0
 40
0.0
 40
9.624286844900956
 40
9.624286844900956
 40
19.24857368980191
 40
19.24857368980191
 40
19.24857368980191
 10
131.8688805595933
 20
1237.555277810774
 30
0.0
 41
1.0
 10
129.6742414549605
 20
1242.867162194015
 30
0.0
 41
0.7728672718122516
 10
124.0367749326999
 20
1241.748445200806
 30
0.0
 41
1.0
 10
118.3993084104392
 20
1240.629728207598
 30
0.0
 41
0.7728672718122552
 10
118.3993084104392
 20
1234.882332579968
 30
0.0
 41
1.0
  0
SPLINE
  5
127
330
1F
100
AcDbEntity
  8
Predefinito
100
AcDbSpline
210
0.0
220
0.0
230
1.0
 70
    12
 71
     2
 72
     6
 73
     3
 74
     0
 42
0.0000000001
 43
0.0000000001
 40
0.0
 40
0.0
 40
0.0
 40
2.742574885327008
 40
2.742574885327008
 40
2.742574885327008
 10
118.9297362612851
 20
1232.209387349161
 30
0.0
 41
1.0
 10
118.399308410439
 20
1233.493230059973
 30
0.0
 41
0.9808732315483583
 10
118.3993084104392
 20
1234.882332579968
 30
0.0
 41
1.0
  0
SPLINE
  5
128
330
1F
100
AcDbEntity
  8
Predefinito
100
AcDbSpline
210
0.0
220
0.0
230
1.0
 70
    24
 71
     2
 72
     6
 73
     3
 74
     0
 42
0.0000000001
 43
0.0000000001
 40
0.0
 40
0.0
 40
0.0
 40
14.8174311485493
 40
14.8174311485493
 40
14.8174311485493
 10
125.3993084087887
 20
1591.17513249351
 30
0.0
 10
132.8080239830634
 20
1591.17513249351
 30
0.0
 10
140.216739557338
 20
1591.17513249351
 30
0.0
  0
SPLINE
  5
129
330
1F
100
AcDbEntity
  8
Predefinito
100
AcDbSpline
210
0.0
220
0.0
230
1.0
 70
    24
 71
     2
 72
     6
 73
     3
 74
     0
 42
0.0000000001
 43
0.0000000001
 40
0.0
 40
0.0
 40
0.0
 40
14.8174311485493
 40
14.8174311485493
 40
14.8174311485493
 10
110.5818772602394
 20
1591.17513249351
 30
0.0
 10
117.9905928345141
 20
1591.17513249351
 30
0.0
 10
125.3993084087887
 20
1591.17513249351
 30
0.0
  0
SPLINE
  5
12A
330
1F
100
AcDbEntity
  8
Predefinito
100
AcDbSpline
210
0.0
220
0.0
230
1.0
 70
    24
 71
     2
 72
     6
 73
     3
 74
     0
 42
0.0000000001
 43
0.0000000001
 40
0.0
 40
0.0
 40
0.0
 40
10.70651526758846
 40
10.70651526758846
 40
10.70651526758846
 10
125.3993084087887
 20
1595.33098660868
 30
0.0
 10
120.0460507749945
 20
1595.33098660868
 30
0.0
 10
114.6927931412003
 20
1595.33098660868
 30
0.0
  0
SPLINE
  5
12B
330
1F
100
AcDbEntity
  8
Predefinito
100
AcDbSpline
210
0.0
220
0.0
230
1.0
 70
    12
 71
     2
 72
     8
 73
     5
 74
     0
 42
0.0000000001
 43
0.0000000001
 40
0.0
 40
0.0
 40
0.0
 40
0.0434847324115708
 40
0.0434847324115708
 40
16.92954524545671
 40
16.92954524545671
 40
16.92954524545671
 10
136.1058236763772
 20
1595.330986618996
 30
0.0
 41
1.0
 10
136.1275660425829
 20
1595.330986618996
 30
0.0
 41
1.0
 10
136.1493084087887
 20
1595.330986618997
 30
0.0
 41
1.0
 10
136.1493084087887
 20
1595.33098660868
 30
0.0
 41
0.7071067811865476
 10
125.3993084087887
 20
1595.33098660868
 30
0.0
 41
1.0
  0
SPLINE
  5
12C
330
1F
100
AcDbEntity
  8
Predefinito
100
AcDbSpline
210
0.0
220
0.0
230
1.0
 70
    12
 71
     2
 72
     8
 73
     5
 74
     0
 42
0.0000000001
 43
0.0000000001
 40
0.0
 40
0.0
 40
0.0
 40
0.0426757141341341
 40
0.0426757141341341
 40
16.6145769618203
 40
16.6145769618203
 40
16.6145769618203
 10
114.8919841229228
 20
1595.530986666679
 30
0.0
 41
1.0
 10
114.8706462658558
 20
1595.53098666668
 30
0.0
 41
1.0
 10
114.8493084087887
 20
1595.530986666681
 30
0.0
 41
1.0
 10
114.8493084087887
 20
1595.53098660868
 30
0.0
 41
0.7071067811865476
 10
125.3993084087887
 20
1595.53098660868
 30
0.0
 41
1.0
  0
SPLINE
  5
12D
330
1F
100
AcDbEntity
  8
Predefinito
100
AcDbSpline
210
0.0
220
0.0
230
1.0
 70
    24
 71
     2
 72
     6
 73
     3
 74
     0
 42
0.0000000001
 43
0.0000000001
 40
0.0
 40
0.0
 40
0.0
 40
10.50732428586591
 40
10.50732428586591
 40
10.50732428586591
 10
125.3993084087887
 20
1595.53098660868
 30
0.0
 10
130.6529705517217
 20
1595.53098660868
 30
0.0
 10
135.9066326946546
 20
1595.53098660868
 30
0.0
  0
SPLINE
  5
12E
330
1F
100
AcDbEntity
  8
Predefinito
100
AcDbSpline
210
0.0
220
0.0
230
1.0
 70
    24
 71
     2
 72
     6
 73
     3
 74
     0
 42
0.0000000001
 43
0.0000000001
 40
0.0
 40
0.0
 40
0.0
 40
14.99999999999997
 40
14.99999999999997
 40
14.99999999999997
 10
140.3993084087887
 20
1590.975893553891
 30
0.0
 10
132.8993084087887
 20
1590.975893553891
 30
0.0
 10
125.3993084087887
 20
1590.975893553891
 30
0.0
  0
SPLINE
  5
12F
330
1F
100
AcDbEntity
  8
Predefinito
100
AcDbSpline
210
0.0
220
0.0
230
1.0
 70
    24
 71
     2
 72
     6
 73
     3
 74
     0
 42
0.0000000001
 43
0.0000000001
 40
0.0
 40
0.0
 40
0.0
 40
14.99999999999997
 40
14.99999999999997
 40
14.99999999999997
 10
125.3993084087887
 20
1590.975893553891
 30
0.0
 10
117.8993084087887
 20
1590.975893553891
 30
0.0
 10
110.3993084087888
 20
1590.975893553891
 30
0.0
  0
SPLINE
  5
130
330
1F
100
AcDbEntity
  8
Predefinito
100
AcDbSpline
210
0.0
220
0.0
230
1.0
 70
    24
 71
     2
 72
     6
 73
     3
 74
     0
 42
0.0000000001
 43
0.0000000001
 40
0.0
 40
0.0
 40
0.0
 40
15.96763926890301
 40
15.96763926890301
 40
15.96763926890301
 10
117.3993084104395
 20
1595.882332579968
 30
0.0
 10
125.3831280448911
 20
1595.882332579968
 30
0.0
 10
133.3669476793426
 20
1595.882332579968
 30
0.0
  0
SPLINE
  5
131
330
1F
100
AcDbEntity
  8
Predefinito
100
AcDbSpline
210
0.0
220
0.0
230
1.0
 70
    24
 71
     2
 72
     6
 73
     3
 74
     0
 42
0.0000000001
 43
0.0000000001
 40
0.0
 40
0.0
 40
0.0
 40
29.0
 40
29.0
 40
29.0
 10
139.8993084104395
 20
1586.882332579968
 30
0.0
 10
125.3993084104395
 20
1586.882332579968
 30
0.0
 10
110.8993084104395
 20
1586.882332579968
 30
0.0
  0
SPLINE
  5
132
330
1F
100
AcDbEntity
  8
Predefinito
100
AcDbSpline
210
0.0
220
0.0
230
1.0
 70
    28
 71
     2
 72
    10
 73
     7
 74
     0
 42
0.0000000001
 43
0.0000000001
 40
46.75573441475434
 40
46.75573441475434
 40
46.75573441475434
 40
58.90486225480862
 40
58.90486225480862
 40
76.5763209312512
 40
76.5763209312512
 40
94.24777960769379
 40
94.24777960769379
 40
94.24777960769379
 10
110.4061421586708
 20
1587.382332579968
 30
0.0
 41
0.9275845990362499
 10
110.2105580539429
 20
1587.382332579968
 30
0.0
 41
0.884135358458
 10
114.7927066926413
 20
1587.382332579968
 30
0.0
 41
1.0
 10
121.8798113813922
 20
1587.382332579968
 30
0.0
 41
0.8314696123025453
 10
131.1395598959159
 20
1587.382332579968
 30
0.0
 41
1.0
 10
140.3993084104395
 20
1587.382332579968
 30
0.0
 41
0.8314696123025453
 10
140.3993084104395
 20
1587.382332579968
 30
0.0
 41
1.0
  0
SPLINE
  5
133
330
1F
100
AcDbEntity
  8
Predefinito
100
AcDbSpline
210
0.0
220
0.0
230
1.0
 70
    12
 71
     2
 72
     6
 73
     3
 74
     0
 42
0.0000000001
 43
0.0000000001
 40
0.0
 40
0.0
 40
0.0
 40
0.7853981633975292
 40
0.7853981633975292
 40
0.7853981633975292
 10
140.3993084104397
 20
1587.382332579968
 30
0.0
 41
1.0
 10
140.3993084104394
 20
1586.882332579968
 30
0.0
 41
0.7071067811868691
 10
139.8993084104395
 20
1586.882332579968
 30
0.0
 41
1.0
  0
SPLINE
  5
134
330
1F
100
AcDbEntity
  8
Predefinito
100
AcDbSpline
210
0.0
220
0.0
230
1.0
 70
    12
 71
     2
 72
     6
 73
     3
 74
     0
 42
0.0000000001
 43
0.0000000001
 40
0.0
 40
0.0
 40
0.0
 40
0.6344621740254665
 40
0.6344621740254665
 40
0.6344621740254665
 10
116.921917606435
 20
1595.530986608679
 30
0.0
 41
1.0
 10
117.0313227178563
 20
1595.882332579968
 30
0.0
 41
0.8053906062974858
 10
117.3993084104395
 20
1595.882332579968
 30
0.0
 41
1.0
  0
SPLINE
  5
135
330
1F
100
AcDbEntity
  8
Predefinito
100
AcDbSpline
210
0.0
220
0.0
230
1.0
 70
    24
 71
     2
 72
     6
 73
     3
 74
     0
 42
0.0000000001
 43
0.0000000001
 40
0.0
 40
0.0
 40
0.0
 40
14.5
 40
14.5
 40
14.5
 10
125.3993084087887
 20
1592.359159788695
 30
0.0
 10
118.1493084087887
 20
1592.359159788695
 30
0.0
 10
110.8993084087887
 20
1592.359159788695
 30
0.0
  0
SPLINE
  5
136
330
1F
100
AcDbEntity
  8
Predefinito
100
AcDbSpline
210
0.0
220
0.0
230
1.0
 70
    24
 71
     2
 72
     6
 73
     3
 74
     0
 42
0.0000000001
 43
0.0000000001
 40
0.0
 40
0.0
 40
0.0
 40
14.5
 40
14.5
 40
14.5
 10
110.8993084087887
 20
1591.359159788695
 30
0.0
 10
118.1493084087887
 20
1591.359159788695
 30
0.0
 10
125.3993084087887
 20
1591.359159788695
 30
0.0
  0
SPLINE
  5
137
330
1F
100
AcDbEntity
  8
Predefinito
100
AcDbSpline
210
0.0
220
0.0
230
1.0
 70
    24
 71
     2
 72
     6
 73
     3
 74
     0
 42
0.0000000001
 43
0.0000000001
 40
0.0
 40
0.0
 40
0.0
 40
14.5
 40
14.5
 40
14.5
 10
125.3993084087887
 20
1591.359159788695
 30
0.0
 10
132.6493084087887
 20
1591.359159788695
 30
0.0
 10
139.8993084087887
 20
1591.359159788695
 30
0.0
  0
SPLINE
  5
138
330
1F
100
AcDbEntity
  8
Predefinito
100
AcDbSpline
210
0.0
220
0.0
230
1.0
 70
    24
 71
     2
 72
     6
 73
     3
 74
     0
 42
0.0000000001
 43
0.0000000001
 40
0.0
 40
0.0
 40
0.0
 40
14.5
 40
14.5
 40
14.5
 10
139.8993084087887
 20
1592.359159788695
 30
0.0
 10
132.6493084087887
 20
1592.359159788695
 30
0.0
 10
125.3993084087887
 20
1592.359159788695
 30
0.0
  0
SPLINE
  5
139
330
1F
100
AcDbEntity
  8
Predefinito
100
AcDbSpline
210
0.0
220
0.0
230
1.0
 70
    24
 71
     2
 72
     6
 73
     3
 74
     0
 42
0.0000000001
 43
0.0000000001
 40
0.0
 40
0.0
 40
0.0
 40
2.535632005112149
 40
2.535632005112149
 40
2.535632005112149
 10
198.3241684089008
 20
2267.882332579968
 30
0.0
 10
199.5919844114569
 20
2267.882332579968
 30
0.0
 10
200.859800414013
 20
2267.882332579968
 30
0.0
  0
SPLINE
  5
13A
330
1F
100
AcDbEntity
  8
Predefinito
100
AcDbSpline
210
0.0
220
0.0
230
1.0
 70
    28
 71
     2
 72
     8
 73
     5
 74
     0
 42
0.0000000001
 43
0.0000000001
 40
-2.89615572752809
 40
-2.89615572752809
 40
-2.89615572752809
 40
-1.570796326794897
 40
-1.570796326794897
 40
0.0
 40
0.0
 40
0.0
 10
49.93881640686611
 20
2267.882332579968
 30
0.0
 41
0.9227722958206717
 10
48.06902746784858
 20
2267.882332579968
 30
0.0
 41
0.7528713466261495
 10
105.8591510656991
 20
2267.882332579968
 30
0.0
 41
1.0
 10
178.7840110641604
 20
2267.882332579968
 30
0.0
 41
0.7071067811865476
 10
198.3241684089008
 20
2267.882332579968
 30
0.0
 41
1.0
  0
SPLINE
  5
13B
330
1F
100
AcDbEntity
  8
Predefinito
100
AcDbSpline
210
0.0
220
0.0
230
1.0
 70
    24
 71
     2
 72
     6
 73
     3
 74
     0
 42
0.0000000001
 43
0.0000000001
 40
0.0
 40
0.0
 40
0.0
 40
148.4230087652262
 40
148.4230087652262
 40
148.4230087652262
 10
198.329882805773
 20
2233.882332579968
 30
0.0
 10
124.1183784231599
 20
2233.882332579968
 30
0.0
 10
49.90687404054679
 20
2233.882332579968
 30
0.0
  0
SPLINE
  5
13C
330
1F
100
AcDbEntity
  8
Predefinito
100
AcDbSpline
210
0.0
220
0.0
230
1.0
 70
    28
 71
     2
 72
     6
 73
     3
 74
     0
 42
0.0000000001
 43
0.0000000001
 40
5.988660995905542
 40
5.988660995905542
 40
5.988660995905542
 40
6.283185307179586
 40
6.283185307179586
 40
6.283185307179586
 10
200.8917427803323
 20
2233.882332579969
 30
0.0
 41
0.910759097392776
 10
201.0713220748177
 20
2233.882332579968
 30
0.0
 41
0.9450825214724775
 10
198.329882805773
 20
2233.882332579968
 30
0.0
 41
1.0
  0
SPLINE
  5
13D
330
1F
100
AcDbEntity
  8
Predefinito
100
AcDbSpline
210
0.0
220
0.0
230
1.0
 70
    12
 71
     2
 72
     6
 73
     3
 74
     0
 42
0.0000000001
 43
0.0000000001
 40
0.0
 40
0.0
 40
0.0
 40
5.815382238347018
 40
5.815382238347018
 40
5.815382238347018
 10
115.6268747761362
 20
1237.00354470118
 30
0.0
 41
1.0
 10
116.2640687589074
 20
1239.926971223662
 30
0.0
 41
0.958234122574496
 10
118.3993084104408
 20
1242.022965125026
 30
0.0
 41
1.0
  0
SPLINE
  5
13E
330
1F
100
AcDbEntity
  8
Predefinito
100
AcDbSpline
210
0.0
220
0.0
230
1.0
 70
    24
 71
     2
 72
     6
 73
     3
 74
     0
 42
0.0000000001
 43
0.0000000001
 40
0.0
 40
0.0
 40
0.0
 40
2.683285980778862
 40
2.683285980778862
 40
2.683285980778862
 10
115.7245991124794
 20
1236.88233257997
 30
0.0
 10
117.0662421028689
 20
1236.88233257997
 30
0.0
 10
118.4078850932583
 20
1236.88233257997
 30
0.0
  0
SPLINE
  5
13F
330
1F
100
AcDbEntity
  8
Predefinito
100
AcDbSpline
210
0.0
220
0.0
230
1.0
 70
    24
 71
     2
 72
     6
 73
     3
 74
     0
 42
0.0000000001
 43
0.0000000001
 40
0.0
 40
0.0
 40
0.0
 40
2.683285980778862
 40
2.683285980778862
 40
2.683285980778862
 10
132.3907317276171
 20
1236.88233257997
 30
0.0
 10
133.7323747180065
 20
1236.88233257997
 30
0.0
 10
135.074017708396
 20
1236.88233257997
 30
0.0
  0
SPLINE
  5
140
330
1F
100
AcDbEntity
  8
Predefinito
100
AcDbSpline
210
0.0
220
0.0
230
1.0
 70
    24
 71
     2
 72
     6
 73
     3
 74
     0
 42
0.0000000001
 43
0.0000000001
 40
0.0
 40
0.0
 40
0.0
 40
23.99036784821381
 40
23.99036784821381
 40
23.99036784821381
 10
115.9720435441504
 20
1238.404344784199
 30
0.0
 10
116.1813883692839
 20
1250.397701783694
 30
0.0
 10
116.3907331944174
 20
1262.391058783189
 30
0.0
  0
SPLINE
  5
141
330
1F
100
AcDbEntity
  8
Predefinito
100
AcDbSpline
210
0.0
220
0.0
230
1.0
 70
    24
 71
     2
 72
     6
 73
     3
 74
     0
 42
0.0000000001
 43
0.0000000001
 40
0.0
 40
0.0
 40
0.0
 40
24.106342189577
 40
24.106342189577
 40
24.106342189577
 10
134.407883626458
 20
1262.391058783189
 30
0.0
 10
134.6182404672624
 20
1250.33972344474
 30
0.0
 10
134.8285973080668
 20
1238.28838810629
 30
0.0
  0
SPLINE
  5
142
330
1F
100
AcDbEntity
  8
Predefinito
100
AcDbSpline
210
0.0
220
0.0
230
1.0
 70
    24
 71
     2
 72
     6
 73
     3
 74
     0
 42
0.0000000001
 43
0.0000000001
 40
0.0
 40
0.0
 40
0.0
 40
1.480733867661954
 40
1.480733867661954
 40
1.480733867661954
 10
118.3993084215613
 20
1262.88233257997
 30
0.0
 10
117.6589414877304
 20
1262.88233257997
 30
0.0
 10
116.9185745538994
 20
1262.88233257997
 30
0.0
  0
SPLINE
  5
143
330
1F
100
AcDbEntity
  8
Predefinito
100
AcDbSpline
210
0.0
220
0.0
230
1.0
 70
    24
 71
     2
 72
     6
 73
     3
 74
     0
 42
0.0000000001
 43
0.0000000001
 40
0.0
 40
0.0
 40
0.0
 40
1.480733867658245
 40
1.480733867658245
 40
1.480733867658245
 10
133.880042266976
 20
1262.88233257997
 30
0.0
 10
133.1396753331469
 20
1262.88233257997
 30
0.0
 10
132.3993083993178
 20
1262.88233257997
 30
0.0
  0
SPLINE
  5
144
330
1F
100
AcDbEntity
  8
Predefinito
100
AcDbSpline
210
0.0
220
0.0
230
1.0
 70
    12
 71
     2
 72
     6
 73
     3
 74
     0
 42
0.0000000001
 43
0.0000000001
 40
0.0
 40
0.0
 40
0.0
 40
5.815509622628808
 40
5.815509622628808
 40
5.815509622628808
 10
132.3993084104171
 20
1242.023110264876
 30
0.0
 41
1.0
 10
134.5345626477317
 20
1239.927039887149
 30
0.0
 41
0.9582348625799791
 10
135.1717420447391
 20
1237.00354470118
 30
0.0
 41
1.0
  0
SPLINE
  5
145
330
1F
100
AcDbEntity
  8
Predefinito
100
AcDbSpline
210
0.0
220
0.0
230
1.0
 70
    24
 71
     2
 72
     6
 73
     3
 74
     0
 42
0.0000000001
 43
0.0000000001
 40
0.0
 40
0.0
 40
0.0
 40
2.683285980778862
 40
2.683285980778862
 40
2.683285980778862
 10
115.7245991124794
 20
1236.98407782061
 30
0.0
 10
117.0662421028689
 20
1236.98407782061
 30
0.0
 10
118.4078850932583
 20
1236.98407782061
 30
0.0
  0
SPLINE
  5
146
330
1F
100
AcDbEntity
  8
Predefinito
100
AcDbSpline
210
0.0
220
0.0
230
1.0
 70
    24
 71
     2
 72
     6
 73
     3
 74
     0
 42
0.0000000001
 43
0.0000000001
 40
0.0
 40
0.0
 40
0.0
 40
2.683285980778862
 40
2.683285980778862
 40
2.683285980778862
 10
132.3907317276171
 20
1236.98407782061
 30
0.0
 10
133.7323747180065
 20
1236.98407782061
 30
0.0
 10
135.074017708396
 20
1236.98407782061
 30
0.0
  0
SPLINE
  5
147
330
1F
100
AcDbEntity
  8
Predefinito
100
AcDbSpline
210
0.0
220
0.0
230
1.0
 70
    12
 71
     2
 72
     6
 73
     3
 74
     0
 42
0.0000000001
 43
0.0000000001
 40
0.0
 40
0.0
 40
0.0
 40
5.659870792575776
 40
5.659870792575776
 40
5.659870792575776
 10
135.074017708396
 20
1236.98407782061
 30
0.0
 41
1.0
 10
134.456825543844
 20
1239.827484855381
 30
0.0
 41
0.9594217412432153
 10
132.399308409922
 20
1241.884792070403
 30
0.0
 41
1.0
  0
SPLINE
  5
148
330
1F
100
AcDbEntity
  8
Predefinito
100
AcDbSpline
210
0.0
220
0.0
230
1.0
 70
    12
 71
     2
 72
     6
 73
     3
 74
     0
 42
0.0000000001
 43
0.0000000001
 40
0.0
 40
0.0
 40
0.0
 40
5.659870793135812
 40
5.659870793135812
 40
5.659870793135812
 10
118.3993084113493
 20
1241.884792070799
 30
0.0
 41
1.0
 10
116.341791277096
 20
1239.827484855678
 30
0.0
 41
0.9594217412352541
 10
115.7245991124794
 20
1236.98407782061
 30
0.0
 41
1.0
  0
SPLINE
  5
149
330
1F
100
AcDbEntity
  8
Predefinito
100
AcDbSpline
210
0.0
220
0.0
230
1.0
 70
    12
 71
     2
 72
     6
 73
     3
 74
     0
 42
0.0000000001
 43
0.0000000001
 40
0.0
 40
0.0
 40
0.0
 40
0.2021774061998237
 40
0.2021774061998237
 40
0.2021774061998237
 10
115.9700195128086
 20
1238.28838810629
 30
0.0
 41
1.0
 10
116.0030039450832
 20
1238.383944129978
 30
0.0
 41
0.9999999602820061
 10
116.035934508354
 20
1238.479518731407
 30
0.0
 41
1.0
  0
SPLINE
  5
14A
330
1F
100
AcDbEntity
  8
Predefinito
100
AcDbSpline
210
0.0
220
0.0
230
1.0
 70
    12
 71
     2
 72
     6
 73
     3
 74
     0
 42
0.0000000001
 43
0.0000000001
 40
0.0
 40
0.0
 40
0.0
 40
4.224568907748536
 40
4.224568907748536
 40
4.224568907748536
 10
116.1663832703319
 20
1238.846561191918
 30
0.0
 41
1.0
 10
116.9258595764228
 20
1240.847694573218
 30
0.0
 41
0.9804081951626844
 10
118.3993084117672
 20
1242.400204669445
 30
0.0
 41
1.0
  0
SPLINE
  5
14B
330
1F
100
AcDbEntity
  8
Predefinito
100
AcDbSpline
210
0.0
220
0.0
230
1.0
 70
    12
 71
     2
 72
     6
 73
     3
 74
     0
 42
0.0000000001
 43
0.0000000001
 40
0.0
 40
0.0
 40
0.0
 40
2.008585339177066
 40
2.008585339177066
 40
2.008585339177066
 10
116.3907331944174
 20
1262.391058783189
 30
0.0
 41
1.0
 10
117.3950126209164
 20
1262.397416405523
 30
0.0
 41
0.9999897238061366
 10
118.3993084104396
 20
1262.394668133887
 30
0.0
 41
1.0
  0
SPLINE
  5
14C
330
1F
100
AcDbEntity
  8
Predefinito
100
AcDbSpline
210
0.0
220
0.0
230
1.0
 70
    12
 71
     2
 72
     6
 73
     3
 74
     0
 42
0.0000000001
 43
0.0000000001
 40
0.0
 40
0.0
 40
0.0
 40
4.30713206017924
 40
4.30713206017924
 40
4.30713206017924
 10
134.6617907528376
 20
1238.768544039303
 30
0.0
 41
1.0
 10
133.9023960370116
 20
1240.815582248664
 30
0.0
 41
0.979658559846976
 10
132.3993084104347
 20
1242.399177320596
 30
0.0
 41
1.0
  0
SPLINE
  5
14D
330
1F
100
AcDbEntity
  8
Predefinito
100
AcDbSpline
210
0.0
220
0.0
230
1.0
 70
    12
 71
     2
 72
     6
 73
     3
 74
     0
 42
0.0000000001
 43
0.0000000001
 40
0.0
 40
0.0
 40
0.0
 40
2.008585339175177
 40
2.008585339175177
 40
2.008585339175177
 10
132.3993084104377
 20
1262.394668133887
 30
0.0
 41
1.0
 10
133.40360419996
 20
1262.397416405523
 30
0.0
 41
0.9999897238061339
 10
134.407883626458
 20
1262.391058783189
 30
0.0
 41
1.0
  0
SPLINE
  5
14E
330
1F
100
AcDbEntity
  8
Predefinito
100
AcDbSpline
210
0.0
220
0.0
230
1.0
 70
    12
 71
     2
 72
     6
 73
     3
 74
     0
 42
0.0000000001
 43
0.0000000001
 40
0.0
 40
0.0
 40
0.0
 40
0.7766715171362271
 40
0.7766715171362271
 40
0.7766715171362271
 10
133.9079597788799
 20
1262.88233257997
 30
0.0
 41
1.0
 10
134.3993084104364
 20
1262.882332579969
 30
0.0
 41
0.713250449155305
 10
134.407883626458
 20
1262.391058783189
 30
0.0
 41
1.0
  0
SPLINE
  5
14F
330
1F
100
AcDbEntity
  8
Predefinito
100
AcDbSpline
210
0.0
220
0.0
230
1.0
 70
    12
 71
     2
 72
     6
 73
     3
 74
     0
 42
0.0000000001
 43
0.0000000001
 40
0.0
 40
0.0
 40
0.0
 40
0.7766715171362787
 40
0.7766715171362787
 40
0.7766715171362787
 10
116.3907331944173
 20
1262.391058783189
 30
0.0
 41
1.0
 10
116.399308410439
 20
1262.88233257997
 30
0.0
 41
0.7132504491552557
 10
116.8906570419955
 20
1262.88233257997
 30
0.0
 41
1.0
  0
SPLINE
  5
150
330
1F
100
AcDbEntity
  8
Predefinito
100
AcDbSpline
210
0.0
220
0.0
230
1.0
 70
    24
 71
     2
 72
     6
 73
     3
 74
     0
 42
0.0000000001
 43
0.0000000001
 40
0.0
 40
0.0
 40
0.0
 40
0.1017452406404118
 40
0.1017452406404118
 40
0.1017452406404118
 10
135.074017708396
 20
1236.88233257997
 30
0.0
 10
135.074017708396
 20
1236.93320520029
 30
0.0
 10
135.074017708396
 20
1236.98407782061
 30
0.0
  0
SPLINE
  5
151
330
1F
100
AcDbEntity
  8
Predefinito
100
AcDbSpline
210
0.0
220
0.0
230
1.0
 70
    12
 71
     2
 72
     6
 73
     3
 74
     0
 42
0.0000000001
 43
0.0000000001
 40
0.0
 40
0.0
 40
0.0
 40
0.0996637535942456
 40
0.0996637535942456
 40
0.0996637535942456
 10
135.074017708396
 20
1236.98407782061
 30
0.0
 41
1.0
 10
135.1225474486755
 20
1236.995480059089
 30
0.0
 41
0.9994172900317823
 10
135.1717420447392
 20
1237.00354470118
 30
0.0
 41
1.0
  0
SPLINE
  5
152
330
1F
100
AcDbEntity
  8
Predefinito
100
AcDbSpline
210
0.0
220
0.0
230
1.0
 70
    12
 71
     2
 72
     8
 73
     5
 74
     0
 42
0.0000000001
 43
0.0000000001
 40
0.0
 40
0.0
 40
0.0
 40
0.0892270692492254
 40
0.0892270692492254
 40
0.1784541384987814
 40
0.1784541384987814
 40
0.1784541384987814
 10
135.1717420447392
 20
1237.00354470118
 30
0.0
 41
1.0
 10
135.1818877489238
 20
1236.956803397076
 30
0.0
 41
0.9021213650244614
 10
135.1518676028114
 20
1236.919567988523
 30
0.0
 41
1.0
 10
135.1218474566992
 20
1236.88233257997
 30
0.0
 41
0.9021213650229224
 10
135.074017708396
 20
1236.88233257997
 30
0.0
 41
1.0
  0
SPLINE
  5
153
330
1F
100
AcDbEntity
  8
Predefinito
100
AcDbSpline
210
0.0
220
0.0
230
1.0
 70
    12
 71
     2
 72
     6
 73
     3
 74
     0
 42
0.0000000001
 43
0.0000000001
 40
0.0
 40
0.0
 40
0.0
 40
0.0996637535942658
 40
0.0996637535942658
 40
0.0996637535942658
 10
115.6268747761362
 20
1237.00354470118
 30
0.0
 41
1.0
 10
115.6760693721999
 20
1236.995480059089
 30
0.0
 41
0.9994172900315164
 10
115.7245991124794
 20
1236.98407782061
 30
0.0
 41
1.0
  0
SPLINE
  5
154
330
1F
100
AcDbEntity
  8
Predefinito
100
AcDbSpline
210
0.0
220
0.0
230
1.0
 70
    24
 71
     2
 72
     6
 73
     3
 74
     0
 42
0.0000000001
 43
0.0000000001
 40
0.0
 40
0.0
 40
0.0
 40
0.1017452406404118
 40
0.1017452406404118
 40
0.1017452406404118
 10
115.7245991124794
 20
1236.98407782061
 30
0.0
 10
115.7245991124794
 20
1236.93320520029
 30
0.0
 10
115.7245991124795
 20
1236.88233257997
 30
0.0
  0
SPLINE
  5
155
330
1F
100
AcDbEntity
  8
Predefinito
100
AcDbSpline
210
0.0
220
0.0
230
1.0
 70
    12
 71
     2
 72
     8
 73
     5
 74
     0
 42
0.0000000001
 43
0.0000000001
 40
0.0
 40
0.0
 40
0.0
 40
0.0892270692494856
 40
0.0892270692494856
 40
0.1784541384991361
 40
0.1784541384991361
 40
0.1784541384991361
 10
115.626874776136
 20
1237.00354470118
 30
0.0
 41
1.0
 10
115.6167290719512
 20
1236.956803397076
 30
0.0
 41
0.9021213650236988
 10
115.6467492180638
 20
1236.919567988523
 30
0.0
 41
1.0
 10
115.6767693641762
 20
1236.88233257997
 30
0.0
 41
0.9021213650244968
 10
115.7245991124795
 20
1236.882332579969
 30
0.0
 41
1.0
  0
SPLINE
  5
156
330
1F
100
AcDbEntity
  8
Predefinito
100
AcDbSpline
210
0.0
220
0.0
230
1.0
 70
    24
 71
     2
 72
     6
 73
     3
 74
     0
 42
0.0000000001
 43
0.0000000001
 40
0.0
 40
0.0
 40
0.0
 40
0.6411949845394247
 40
0.6411949845394247
 40
0.6411949845394247
 10
133.0405033949236
 20
1263.70955500709
 30
0.0
 10
132.7199059026539
 20
1263.70955500709
 30
0.0
 10
132.3993084103842
 20
1263.70955500709
 30
0.0
  0
SPLINE
  5
157
330
1F
100
AcDbEntity
  8
Predefinito
100
AcDbSpline
210
0.0
220
0.0
230
1.0
 70
    24
 71
     2
 72
     6
 73
     3
 74
     0
 42
0.0000000001
 43
0.0000000001
 40
0.0
 40
0.0
 40
0.0
 40
0.6722298558842539
 40
0.6722298558842539
 40
0.6722298558842539
 10
118.3993084109425
 20
1263.70955500709
 30
0.0
 10
118.0631934830004
 20
1263.70955500709
 30
0.0
 10
117.7270785550582
 20
1263.70955500709
 30
0.0
  0
SPLINE
  5
158
330
1F
100
AcDbEntity
  8
Predefinito
100
AcDbSpline
210
0.0
220
0.0
230
1.0
 70
    12
 71
     2
 72
     6
 73
     3
 74
     0
 42
0.0000000001
 43
0.0000000001
 40
0.0
 40
0.0
 40
0.0
 40
0.1759342398695516
 40
0.1759342398695516
 40
0.1759342398695516
 10
133.0715382658173
 20
1263.709555007089
 30
0.0
 41
1.0
 10
133.0905940485494
 20
1263.79545919237
 30
0.0
 41
0.9995701300132496
 10
133.1045821303006
 20
1263.88233257997
 30
0.0
 41
1.0
  0
SPLINE
  5
159
330
1F
100
AcDbEntity
  8
Predefinito
100
AcDbSpline
210
0.0
220
0.0
230
1.0
 70
    24
 71
     2
 72
     6
 73
     3
 74
     0
 42
0.0000000001
 43
0.0000000001
 40
0.0
 40
0.0
 40
0.0
 40
0.8406095409518898
 40
0.8406095409518898
 40
0.8406095409518898
 10
132.8880388147599
 20
1262.882332579969
 30
0.0
 10
132.9790607876345
 20
1263.292663057192
 30
0.0
 10
133.0700827605091
 20
1263.702993534416
 30
0.0
  0
SPLINE
  5
15A
330
1F
100
AcDbEntity
  8
Predefinito
100
AcDbSpline
210
0.0
220
0.0
230
1.0
 70
    12
 71
     2
 72
     6
 73
     3
 74
     0
 42
0.0000000001
 43
0.0000000001
 40
0.0
 40
0.0
 40
0.0
 40
2.000022146419428
 40
2.000022146419428
 40
2.000022146419428
 10
116.3993084104376
 20
1264.38233257997
 30
0.0
 41
1.0
 10
117.3992896232669
 20
1264.373534220746
 30
0.0
 41
0.9999867325767481
 10
118.3993084104396
 20
1264.37503836114
 30
0.0
 41
1.0
  0
SPLINE
  5
15B
330
1F
100
AcDbEntity
  8
Predefinito
100
AcDbSpline
210
0.0
220
0.0
230
1.0
 70
    12
 71
     2
 72
     6
 73
     3
 74
     0
 42
0.0000000001
 43
0.0000000001
 40
0.0
 40
0.0
 40
0.0
 40
0.7853981633974966
 40
0.7853981633974966
 40
0.7853981633974966
 10
116.8993084104377
 20
1263.88233257997
 30
0.0
 41
1.0
 10
116.3993084104381
 20
1263.88233257997
 30
0.0
 41
0.707106781187271
 10
116.3993084104374
 20
1264.38233257997
 30
0.0
 41
1.0
  0
SPLINE
  5
15C
330
1F
100
AcDbEntity
  8
Predefinito
100
AcDbSpline
210
0.0
220
0.0
230
1.0
 70
    24
 71
     2
 72
     6
 73
     3
 74
     0
 42
0.0000000001
 43
0.0000000001
 40
0.0
 40
0.0
 40
0.0
 40
1.500000000001862
 40
1.500000000001862
 40
1.500000000001862
 10
118.3993084104396
 20
1263.88233257997
 30
0.0
 10
117.6493084104386
 20
1263.88233257997
 30
0.0
 10
116.8993084104377
 20
1263.88233257997
 30
0.0
  0
SPLINE
  5
15D
330
1F
100
AcDbEntity
  8
Predefinito
100
AcDbSpline
210
0.0
220
0.0
230
1.0
 70
    12
 71
     2
 72
     6
 73
     3
 74
     0
 42
0.0000000001
 43
0.0000000001
 40
0.0
 40
0.0
 40
0.0
 40
2.053957241760215
 40
2.053957241760215
 40
2.053957241760215
 10
134.4532188539807
 20
1264.32139790827
 30
0.0
 41
1.0
 10
133.4262351518185
 20
1264.323250153634
 30
0.0
 41
0.9999901387173193
 10
132.3993084104387
 20
1264.334223902248
 30
0.0
 41
1.0
  0
SPLINE
  5
15E
330
1F
100
AcDbEntity
  8
Predefinito
100
AcDbSpline
210
0.0
220
0.0
230
1.0
 70
    24
 71
     2
 72
     6
 73
     3
 74
     0
 42
0.0000000001
 43
0.0000000001
 40
0.0
 40
0.0
 40
0.0
 40
1.557637367723913
 40
1.557637367723913
 40
1.557637367723913
 10
133.9569457781597
 20
1263.88233257997
 30
0.0
 10
133.1781270942977
 20
1263.88233257997
 30
0.0
 10
132.3993084104358
 20
1263.88233257997
 30
0.0
  0
SPLINE
  5
15F
330
1F
100
AcDbEntity
  8
Predefinito
100
AcDbSpline
210
0.0
220
0.0
230
1.0
 70
    12
 71
     2
 72
     6
 73
     3
 74
     0
 42
0.0000000001
 43
0.0000000001
 40
0.0
 40
0.0
 40
0.0
 40
0.7243116395800322
 40
0.7243116395800322
 40
0.7243116395800322
 10
134.4532188539807
 20
1264.32139790827
 30
0.0
 41
1.0
 10
134.3993084104399
 20
1263.88233257997
 30
0.0
 41
0.7489557207873713
 10
133.9569457781598
 20
1263.88233257997
 30
0.0
 41
1.0
  0
SPLINE
  5
160
330
1F
100
AcDbEntity
  8
Predefinito
100
AcDbSpline
210
0.0
220
0.0
230
1.0
 70
    24
 71
     2
 72
     6
 73
     3
 74
     0
 42
0.0000000001
 43
0.0000000001
 40
0.0
 40
0.0
 40
0.0
 40
3.297788558639922
 40
3.297788558639922
 40
3.297788558639922
 10
116.3993084104376
 20
1264.38233257997
 30
0.0
 10
116.3993084104377
 20
1266.03122685929
 30
0.0
 10
116.3993084104377
 20
1267.68012113861
 30
0.0
  0
SPLINE
  5
161
330
1F
100
AcDbEntity
  8
Predefinito
100
AcDbSpline
210
0.0
220
0.0
230
1.0
 70
    12
 71
     2
 72
     6
 73
     3
 74
     0
 42
0.0000000001
 43
0.0000000001
 40
0.0
 40
0.0
 40
0.0
 40
2.57912610045883
 40
2.57912610045883
 40
2.57912610045883
 10
114.3444670142568
 20
1273.033165989484
 30
0.0
 41
1.0
 10
115.2131374521672
 20
1272.064815810943
 30
0.0
 41
0.9870010452797227
 10
115.7297256656294
 20
1270.870903328518
 30
0.0
 41
1.0
  0
SPLINE
  5
162
330
1F
100
AcDbEntity
  8
Predefinito
100
AcDbSpline
210
0.0
220
0.0
230
1.0
 70
    24
 71
     2
 72
     6
 73
     3
 74
     0
 42
0.0000000001
 43
0.0000000001
 40
0.0
 40
0.0
 40
0.0
 40
71.04705727506413
 40
71.04705727506413
 40
71.04705727506413
 10
109.2355361165789
 20
1275.636296301559
 30
0.0
 10
73.9066090858114
 20
1279.349516159885
 30
0.0
 10
38.57768205504391
 20
1283.062736018211
 30
0.0
  0
SPLINE
  5
163
330
1F
100
AcDbEntity
  8
Predefinito
100
AcDbSpline
210
0.0
220
0.0
230
1.0
 70
    24
 71
     2
 72
     6
 73
     3
 74
     0
 42
0.0000000001
 43
0.0000000001
 40
0.0
 40
0.0
 40
0.0
 40
2.740490192974408
 40
2.740490192974408
 40
2.740490192974408
 10
38.57768205504391
 20
1283.062736018211
 30
0.0
 10
37.21494330456639
 20
1283.205965632447
 30
0.0
 10
35.85220455408887
 20
1283.349195246683
 30
0.0
  0
SPLINE
  5
164
330
1F
100
AcDbEntity
  8
Predefinito
100
AcDbSpline
210
0.0
220
0.0
230
1.0
 70
    24
 71
     2
 72
     6
 73
     3
 74
     0
 42
0.0000000001
 43
0.0000000001
 40
0.0
 40
0.0
 40
0.0
 40
1.636023743787141
 40
1.636023743787141
 40
1.636023743787141
 10
134.6525999934311
 20
1265.945226979159
 30
0.0
 10
134.5529094237059
 20
1265.133312443714
 30
0.0
 10
134.4532188539807
 20
1264.32139790827
 30
0.0
  0
SPLINE
  5
165
330
1F
100
AcDbEntity
  8
Predefinito
100
AcDbSpline
210
0.0
220
0.0
230
1.0
 70
    12
 71
     2
 72
     6
 73
     3
 74
     0
 42
0.0000000001
 43
0.0000000001
 40
0.0
 40
0.0
 40
0.0
 40
0.4990925222181806
 40
0.4990925222181806
 40
0.4990925222181806
 10
135.6914662577587
 20
1269.00464728004
 30
0.0
 41
1.0
 10
135.8172968932087
 20
1269.220236921243
 30
0.0
 41
0.9995317165808633
 10
135.9560797060321
 20
1269.427725651243
 30
0.0
 41
1.0
  0
SPLINE
  5
166
330
1F
100
AcDbEntity
  8
Predefinito
100
AcDbSpline
210
0.0
220
0.0
230
1.0
 70
    12
 71
     2
 72
     6
 73
     3
 74
     0
 42
0.0000000001
 43
0.0000000001
 40
0.0
 40
0.0
 40
0.0
 40
1.663468650371725
 40
1.663468650371725
 40
1.663468650371725
 10
136.2990798479748
 20
1269.90248768696
 30
0.0
 41
1.0
 10
136.8116368929673
 20
1270.561439585629
 30
0.0
 41
0.9944564485734343
 10
137.4506683290693
 20
1271.098627776865
 30
0.0
 41
1.0
  0
SPLINE
  5
167
330
1F
100
AcDbEntity
  8
Predefinito
100
AcDbSpline
210
0.0
220
0.0
230
1.0
 70
    12
 71
     2
 72
     6
 73
     3
 74
     0
 42
0.0000000001
 43
0.0000000001
 40
0.0
 40
0.0
 40
0.0
 40
1.4734769628297
 40
1.4734769628297
 40
1.4734769628297
 10
137.7436825393839
 20
1271.33261508478
 30
0.0
 41
1.0
 10
138.3322945823459
 20
1271.779198443309
 30
0.0
 41
0.9957166763163969
 10
138.9930691780106
 20
1272.109770321965
 30
0.0
 41
1.0
  0
SPLINE
  5
168
330
1F
100
AcDbEntity
  8
Predefinito
100
AcDbSpline
210
0.0
220
0.0
230
1.0
 70
    12
 71
     2
 72
     6
 73
     3
 74
     0
 42
0.0000000001
 43
0.0000000001
 40
0.0
 40
0.0
 40
0.0
 40
0.1418453711306042
 40
0.1418453711306042
 40
0.1418453711306042
 10
142.8699455704813
 20
1272.965428468565
 30
0.0
 41
1.0
 10
142.9408293458107
 20
1272.963019909822
 30
0.0
 41
0.9999577412627755
 10
143.0116568565052
 20
1272.959308509952
 30
0.0
 41
1.0
  0
SPLINE
  5
169
330
1F
100
AcDbEntity
  8
Predefinito
100
AcDbSpline
210
0.0
220
0.0
230
1.0
 70
    24
 71
     2
 72
     6
 73
     3
 74
     0
 42
0.0000000001
 43
0.0000000001
 40
0.0
 40
0.0
 40
0.0
 40
6.376431867637934
 40
6.376431867637934
 40
6.376431867637934
 10
280.1884107737059
 20
1272.16565907504
 30
0.0
 10
279.7998649912175
 20
1269.001207619327
 30
0.0
 10
279.4113192087292
 20
1265.836756163613
 30
0.0
  0
SPLINE
  5
16A
330
1F
100
AcDbEntity
  8
Predefinito
100
AcDbSpline
210
0.0
220
0.0
230
1.0
 70
    24
 71
     2
 72
     6
 73
     3
 74
     0
 42
0.0000000001
 43
0.0000000001
 40
0.0
 40
0.0
 40
0.0
 40
136.5836917390968
 40
136.5836917390968
 40
136.5836917390968
 10
279.4081653929816
 20
1265.811070395594
 30
0.0
 10
211.2099111247434
 20
1269.385189452773
 30
0.0
 10
143.0116568565052
 20
1272.959308509952
 30
0.0
  0
SPLINE
  5
16B
330
1F
100
AcDbEntity
  8
Predefinito
100
AcDbSpline
210
0.0
220
0.0
230
1.0
 70
    12
 71
     2
 72
     8
 73
     5
 74
     0
 42
0.0000000001
 43
0.0000000001
 40
0.0
 40
0.0
 40
0.0
 40
0.0381710216242936
 40
0.0381710216242936
 40
14.86079675960863
 40
14.86079675960863
 40
14.86079675960863
 10
30.79888774454594
 20
1298.96294438839
 30
0.0
 41
1.0
 10
30.77990678615904
 20
1298.964939367506
 30
0.0
 41
1.0
 10
30.76092582777214
 20
1298.966934346623
 30
0.0
 41
1.0
 10
30.76092583933924
 20
1298.966934395975
 30
0.0
 41
0.7071067811865476
 10
40.14560900405837
 20
1297.980564448737
 30
0.0
 41
1.0
  0
SPLINE
  5
16C
330
1F
100
AcDbEntity
  8
Predefinito
100
AcDbSpline
210
0.0
220
0.0
230
1.0
 70
    24
 71
     2
 72
     6
 73
     3
 74
     0
 42
0.0000000001
 43
0.0000000001
 40
0.0
 40
0.0
 40
0.0
 40
0.5822721164180579
 40
0.5822721164180579
 40
0.5822721164180579
 10
280.2593718942167
 20
1272.743591023399
 30
0.0
 10
280.2238913339613
 20
1272.454625049219
 30
0.0
 10
280.1884107737059
 20
1272.16565907504
 30
0.0
  0
SPLINE
  5
16D
330
1F
100
AcDbEntity
  8
Predefinito
100
AcDbSpline
210
0.0
220
0.0
230
1.0
 70
    24
 71
     2
 72
     6
 73
     3
 74
     0
 42
0.0000000001
 43
0.0000000001
 40
0.0
 40
0.0
 40
0.0
 40
78.68474265959104
 40
78.68474265959104
 40
78.68474265959104
 10
40.14560900405837
 20
1297.980564448737
 30
0.0
 10
79.27245870724896
 20
1293.868166832327
 30
0.0
 10
118.3993084104395
 20
1289.755769215918
 30
0.0
  0
SPLINE
  5
16E
330
1F
100
AcDbEntity
  8
Predefinito
100
AcDbSpline
210
0.0
220
0.0
230
1.0
 70
    24
 71
     2
 72
     6
 73
     3
 74
     0
 42
0.0000000001
 43
0.0000000001
 40
0.0
 40
0.0
 40
0.0
 40
148.6745180497253
 40
148.6745180497253
 40
148.6745180497253
 10
132.3993084104396
 20
1288.284309922198
 30
0.0
 10
206.3293401523281
 20
1280.513950472799
 30
0.0
 10
280.2593718942167
 20
1272.743591023399
 30
0.0
  0
SPLINE
  5
16F
330
1F
100
AcDbEntity
  8
Predefinito
100
AcDbSpline
210
0.0
220
0.0
230
1.0
 70
    12
 71
     2
 72
     8
 73
     5
 74
     0
 42
0.0000000001
 43
0.0000000001
 40
0.0
 40
0.0
 40
0.0
 40
63.11648650795281
 40
63.11648650795281
 40
126.2329730159055
 40
126.2329730159055
 40
126.2329730159055
 10
59.8548003122887
 20
1301.689976582557
 30
0.0
 41
1.0
 10
95.72717349037535
 20
1314.234865208235
 30
0.0
 41
0.7640077394556697
 10
89.3649351086122
 20
1351.701160872901
 30
0.0
 41
1.0
 10
83.00269672684904
 20
1389.167456537567
 30
0.0
 41
0.7640077394556613
 10
45.00004697635681
 20
1389.16745653757
 30
0.0
 41
1.0
  0
SPLINE
  5
170
330
1F
100
AcDbEntity
  8
Predefinito
100
AcDbSpline
210
0.0
220
0.0
230
1.0
 70
    28
 71
     2
 72
     6
 73
     3
 74
     0
 42
0.0000000001
 43
0.0000000001
 40
-83.30850134233089
 40
-83.30850134233089
 40
-83.30850134233089
 40
-64.23788055312261
 40
-64.23788055312261
 40
-64.23788055312261
 10
20.40255142007364
 20
1305.306188245885
 30
0.0
 41
0.8587019042052254
 10
19.70285908934338
 20
1305.379728873228
 30
0.0
 41
0.8260946513295081
 10
27.62000157198189
 20
1304.547603667101
 30
0.0
 41
1.0
  0
SPLINE
  5
171
330
1F
100
AcDbEntity
  8
Predefinito
100
AcDbSpline
210
0.0
220
0.0
230
1.0
 70
    24
 71
     2
 72
     6
 73
     3
 74
     0
 42
0.0000000001
 43
0.0000000001
 40
0.0
 40
0.0
 40
0.0
 40
33.54400625703592
 40
33.54400625703592
 40
33.54400625703592
 10
27.62000157198185
 20
1304.547603667101
 30
0.0
 10
44.30012591247804
 20
1302.794451954156
 30
0.0
 10
60.98025025297424
 20
1301.041300241211
 30
0.0
  0
SPLINE
  5
172
330
1F
100
AcDbEntity
  8
Predefinito
100
AcDbSpline
210
0.0
220
0.0
230
1.0
 70
    24
 71
     2
 72
     6
 73
     3
 74
     0
 42
0.0000000001
 43
0.0000000001
 40
0.0
 40
0.0
 40
0.0
 40
40.94932439669287
 40
40.94932439669287
 40
40.94932439669287
 10
20.31293037041281
 20
1305.404062611625
 30
0.0
 10
40.67543022693762
 20
1303.26387763611
 30
0.0
 10
61.03793008346243
 20
1301.123692660594
 30
0.0
  0
SPLINE
  5
173
330
1F
100
AcDbEntity
  8
Predefinito
100
AcDbSpline
210
0.0
220
0.0
230
1.0
 70
    12
 71
     2
 72
     6
 73
     3
 74
     0
 42
0.0000000001
 43
0.0000000001
 40
0.0
 40
0.0
 40
0.0
 40
12.18402940855168
 40
12.18402940855168
 40
12.18402940855168
 10
49.20011262004469
 20
1298.034940090322
 30
0.0
 41
1.0
 10
55.29868776940187
 20
1298.684854196957
 30
0.0
 41
0.98998000505295
 10
60.97235023634528
 20
1301.01392298288
 30
0.0
 41
1.0
  0
SPLINE
  5
174
330
1F
100
AcDbEntity
  8
Predefinito
100
AcDbSpline
210
0.0
220
0.0
230
1.0
 70
    12
 71
     2
 72
     6
 73
     3
 74
     0
 42
0.0000000001
 43
0.0000000001
 40
0.0
 40
0.0
 40
0.0
 40
3.214502490005501
 40
3.214502490005501
 40
3.214502490005501
 10
34.49690148242735
 20
1299.580447314773
 30
0.0
 41
1.0
 10
32.89845688734046
 20
1299.748469459854
 30
0.0
 41
0.9999999999309457
 10
31.30000834352034
 20
1299.916454035244
 30
0.0
 41
1.0
  0
SPLINE
  5
175
330
1F
100
AcDbEntity
  8
Predefinito
100
AcDbSpline
210
0.0
220
0.0
230
1.0
 70
    12
 71
     2
 72
     8
 73
     5
 74
     0
 42
0.0000000001
 43
0.0000000001
 40
0.0
 40
0.0
 40
0.0
 40
5.196033200431384
 40
5.196033200431384
 40
14.78421490446404
 40
14.78421490446404
 40
14.78421490446404
 10
49.20011262003754
 20
1298.034940090263
 30
0.0
 41
1.0
 10
46.61633425622175
 20
1298.306564135694
 30
0.0
 41
0.999999999959085
 10
44.03255097861113
 20
1298.578141435391
 30
0.0
 41
1.0
 10
39.26472728472433
 20
1299.079304404543
 30
0.0
 41
0.9999999999977875
 10
34.49690148240541
 20
1299.580447314456
 30
0.0
 41
1.0
  0
SPLINE
  5
176
330
1F
100
AcDbEntity
  8
Predefinito
100
AcDbSpline
210
0.0
220
0.0
230
1.0
 70
    24
 71
     2
 72
     6
 73
     3
 74
     0
 42
0.0000000001
 43
0.0000000001
 40
0.0
 40
0.0
 40
0.0
 40
0.391644792974423
 40
0.391644792974423
 40
0.391644792974423
 10
20.35386839876929
 20
1305.793561933447
 30
0.0
 10
20.3333993845911
 20
1305.598812272537
 30
0.0
 10
20.31293037041291
 20
1305.404062611627
 30
0.0
  0
SPLINE
  5
177
330
1F
100
AcDbEntity
  8
Predefinito
100
AcDbSpline
210
0.0
220
0.0
230
1.0
 70
    28
 71
     2
 72
     8
 73
     5
 74
     0
 42
0.0000000001
 43
0.0000000001
 40
81.50960314509143
 40
81.50960314509143
 40
81.50960314509143
 40
96.60397409788614
 40
96.60397409788614
 40
128.8052987971815
 40
128.8052987971815
 40
128.8052987971815
 10
61.11641969706265
 20
1301.509245151762
 30
0.0
 41
0.8541254476612689
 10
61.39444537637306
 20
1301.480023475354
 30
0.0
 41
0.8627063036811943
 10
56.35945066971328
 20
1302.009222743564
 30
0.0
 41
1.0
 10
43.25449045566717
 20
1303.386609565049
 30
0.0
 41
0.7071067811865476
 10
27.63660703977303
 20
1305.028115257945
 30
0.0
 41
1.0
  0
SPLINE
  5
178
330
1F
100
AcDbEntity
  8
Predefinito
100
AcDbSpline
210
0.0
220
0.0
230
1.0
 70
    24
 71
     2
 72
     6
 73
     3
 74
     0
 42
0.0000000001
 43
0.0000000001
 40
0.0
 40
0.0
 40
0.0
 40
7.322119236256783
 40
7.322119236256783
 40
7.322119236256783
 10
27.63587629972399
 20
1305.028192061819
 30
0.0
 10
23.99487234924668
 20
1305.410876997633
 30
0.0
 10
20.35386839876936
 20
1305.793561933447
 30
0.0
  0
SPLINE
  5
179
330
1F
100
AcDbEntity
  8
Predefinito
100
AcDbSpline
210
0.0
220
0.0
230
1.0
 70
    24
 71
     2
 72
     6
 73
     3
 74
     0
 42
0.0000000001
 43
0.0000000001
 40
0.0
 40
0.0
 40
0.0
 40
1.000531420126932
 40
1.000531420126932
 40
1.000531420126932
 10
49.09630606237306
 20
1297.039808279331
 30
0.0
 10
49.14820934120795
 20
1297.537374184826
 30
0.0
 10
49.20011262004283
 20
1298.034940090321
 30
0.0
  0
SPLINE
  5
17A
330
1F
100
AcDbEntity
  8
Predefinito
100
AcDbSpline
210
0.0
220
0.0
230
1.0
 70
    12
 71
     2
 72
     8
 73
     5
 74
     0
 42
0.0000000001
 43
0.0000000001
 40
0.0
 40
0.0
 40
0.0
 40
5.447481553889753
 40
5.447481553889753
 40
10.89496310777951
 40
10.89496310777951
 40
10.89496310777951
 10
125.3993084104641
 20
1541.71557105376
 30
0.0
 41
1.0
 10
122.5230029360169
 20
1541.778671624916
 30
0.0
 41
0.9219778117092231
 10
120.464283760128
 20
1539.768997467436
 30
0.0
 41
1.0
 10
118.4055645842392
 20
1537.759323309956
 30
0.0
 41
0.9219778117092231
 10
118.3993084104396
 20
1534.882332568799
 30
0.0
 41
1.0
  0
SPLINE
  5
17B
330
1F
100
AcDbEntity
  8
Predefinito
100
AcDbSpline
210
0.0
220
0.0
230
1.0
 70
    12
 71
     2
 72
     8
 73
     5
 74
     0
 42
0.0000000001
 43
0.0000000001
 40
0.0
 40
0.0
 40
0.0
 40
5.447481315287543
 40
5.447481315287543
 40
10.89496263057509
 40
10.89496263057509
 40
10.89496263057509
 10
132.3993084104395
 20
1534.882332568799
 30
0.0
 41
1.0
 10
132.3930517821624
 20
1537.759323117891
 30
0.0
 41
0.9219778423241815
 10
130.3343327430106
 20
1539.768997141906
 30
0.0
 41
1.0
 10
128.2756137038588
 20
1541.778671165921
 30
0.0
 41
0.9219778423241815
 10
125.3993084104641
 20
1541.71557105376
 30
0.0
 41
1.0
  0
SPLINE
  5
17C
330
1F
100
AcDbEntity
  8
Predefinito
100
AcDbSpline
210
0.0
220
0.0
230
1.0
 70
    24
 71
     2
 72
     6
 73
     3
 74
     0
 42
0.0000000001
 43
0.0000000001
 40
0.0
 40
0.0
 40
0.0
 40
1.376188256730229
 40
1.376188256730229
 40
1.376188256730229
 10
111.149500797881
 20
1591.224793118204
 30
0.0
 10
111.8349765203464
 20
1591.284764473042
 30
0.0
 10
112.5204522428118
 20
1591.34473582788
 30
0.0
  0
SPLINE
  5
17D
330
1F
100
AcDbEntity
  8
Predefinito
100
AcDbSpline
210
0.0
220
0.0
230
1.0
 70
    24
 71
     2
 72
     6
 73
     3
 74
     0
 42
0.0000000001
 43
0.0000000001
 40
0.0
 40
0.0
 40
0.0
 40
1.376188256730229
 40
1.376188256730229
 40
1.376188256730229
 10
138.2781645747657
 20
1591.34473582788
 30
0.0
 10
138.9636402972311
 20
1591.284764473042
 30
0.0
 10
139.6491160196964
 20
1591.224793118204
 30
0.0
  0
SPLINE
  5
17E
330
1F
100
AcDbEntity
  8
Predefinito
100
AcDbSpline
210
0.0
220
0.0
230
1.0
 70
    24
 71
     2
 72
     6
 73
     3
 74
     0
 42
0.0000000001
 43
0.0000000001
 40
0.0
 40
0.0
 40
0.0
 40
2.971826819984699
 40
2.971826819984699
 40
2.971826819984699
 10
114.6493084087887
 20
1592.359159788695
 30
0.0
 10
114.6493084087887
 20
1593.845073198688
 30
0.0
 10
114.6493084087887
 20
1595.33098660868
 30
0.0
  0
SPLINE
  5
17F
330
1F
100
AcDbEntity
  8
Predefinito
100
AcDbSpline
210
0.0
220
0.0
230
1.0
 70
    24
 71
     2
 72
     6
 73
     3
 74
     0
 42
0.0000000001
 43
0.0000000001
 40
0.0
 40
0.0
 40
0.0
 40
2.971826819984699
 40
2.971826819984699
 40
2.971826819984699
 10
136.1493084087887
 20
1595.33098660868
 30
0.0
 10
136.1493084087887
 20
1593.845073198688
 30
0.0
 10
136.1493084087887
 20
1592.359159788695
 30
0.0
  0
SPLINE
  5
180
330
1F
100
AcDbEntity
  8
Predefinito
100
AcDbSpline
210
0.0
220
0.0
230
1.0
 70
    24
 71
     2
 72
     6
 73
     3
 74
     0
 42
0.0000000001
 43
0.0000000001
 40
0.0
 40
0.0
 40
0.0
 40
1.376676173718124
 40
1.376676173718124
 40
1.376676173718124
 10
110.3993084087887
 20
1589.599217380173
 30
0.0
 10
110.3993084087887
 20
1590.287555467032
 30
0.0
 10
110.3993084087887
 20
1590.975893553891
 30
0.0
  0
SPLINE
  5
181
330
1F
100
AcDbEntity
  8
Predefinito
100
AcDbSpline
210
0.0
220
0.0
230
1.0
 70
    24
 71
     2
 72
     6
 73
     3
 74
     0
 42
0.0000000001
 43
0.0000000001
 40
0.0
 40
0.0
 40
0.0
 40
1.598472064981934
 40
1.598472064981934
 40
1.598472064981934
 10
140.3993084087887
 20
1590.975893553891
 30
0.0
 10
140.3993084087887
 20
1590.1766575214
 30
0.0
 10
140.3993084087887
 20
1589.377421488909
 30
0.0
  0
SPLINE
  5
182
330
1F
100
AcDbEntity
  8
Predefinito
100
AcDbSpline
210
0.0
220
0.0
230
1.0
 70
    24
 71
     2
 72
     6
 73
     3
 74
     0
 42
0.0000000001
 43
0.0000000001
 40
0.0
 40
0.0
 40
0.0
 40
0.2520943633082988
 40
0.2520943633082988
 40
0.2520943633082988
 10
114.6710507749945
 20
1595.352728974886
 30
0.0
 10
114.7601795918916
 20
1595.441857791783
 30
0.0
 10
114.8493084087888
 20
1595.53098660868
 30
0.0
  0
SPLINE
  5
183
330
1F
100
AcDbEntity
  8
Predefinito
100
AcDbSpline
210
0.0
220
0.0
230
1.0
 70
    24
 71
     2
 72
     6
 73
     3
 74
     0
 42
0.0000000001
 43
0.0000000001
 40
0.0
 40
0.0
 40
0.0
 40
0.2520943633082787
 40
0.2520943633082787
 40
0.2520943633082787
 10
135.9493084087887
 20
1595.53098660868
 30
0.0
 10
136.0384372256858
 20
1595.441857791783
 30
0.0
 10
136.1275660425829
 20
1595.352728974886
 30
0.0
  0
SPLINE
  5
184
330
1F
100
AcDbEntity
  8
Predefinito
100
AcDbSpline
210
0.0
220
0.0
230
1.0
 70
    24
 71
     2
 72
     6
 73
     3
 74
     0
 42
0.0000000001
 43
0.0000000001
 40
0.0
 40
0.0
 40
0.0
 40
0.2292437210960217
 40
0.2292437210960217
 40
0.2292437210960217
 10
110.4270024471097
 20
1591.00611629334
 30
0.0
 10
110.5044398536746
 20
1591.090624393425
 30
0.0
 10
110.5818772602396
 20
1591.17513249351
 30
0.0
  0
SPLINE
  5
185
330
1F
100
AcDbEntity
  8
Predefinito
100
AcDbSpline
210
0.0
220
0.0
230
1.0
 70
    24
 71
     2
 72
     6
 73
     3
 74
     0
 42
0.0000000001
 43
0.0000000001
 40
0.0
 40
0.0
 40
0.0
 40
0.2292437210959833
 40
0.2292437210959833
 40
0.2292437210959833
 10
140.2167395573379
 20
1591.17513249351
 30
0.0
 10
140.2941769639028
 20
1591.090624393425
 30
0.0
 10
140.3716143704677
 20
1591.00611629334
 30
0.0
  0
SPLINE
  5
186
330
1F
100
AcDbEntity
  8
Predefinito
100
AcDbSpline
210
0.0
220
0.0
230
1.0
 70
    24
 71
     2
 72
     6
 73
     3
 74
     0
 42
0.0000000001
 43
0.0000000001
 40
0.0
 40
0.0
 40
0.0
 40
2.018554447771066
 40
2.018554447771066
 40
2.018554447771066
 10
110.3993084104395
 20
1587.382332579968
 30
0.0
 10
110.3993084104395
 20
1588.391609803853
 30
0.0
 10
110.3993084104395
 20
1589.400887027739
 30
0.0
  0
SPLINE
  5
187
330
1F
100
AcDbEntity
  8
Predefinito
100
AcDbSpline
210
0.0
220
0.0
230
1.0
 70
    24
 71
     2
 72
     6
 73
     3
 74
     0
 42
0.0000000001
 43
0.0000000001
 40
0.0
 40
0.0
 40
0.0
 40
1.995088908940716
 40
1.995088908940716
 40
1.995088908940716
 10
140.3993084104395
 20
1589.377421488909
 30
0.0
 10
140.3993084104395
 20
1588.379877034438
 30
0.0
 10
140.3993084104395
 20
1587.382332579968
 30
0.0
  0
SPLINE
  5
188
330
1F
100
AcDbEntity
  8
Predefinito
100
AcDbSpline
210
0.0
220
0.0
230
1.0
 70
    12
 71
     2
 72
     6
 73
     3
 74
     0
 42
0.0000000001
 43
0.0000000001
 40
0.0
 40
0.0
 40
0.0
 40
0.7847227063985689
 40
0.7847227063985689
 40
0.7847227063985689
 10
110.8993084104395
 20
1586.882332579968
 30
0.0
 41
1.0
 10
110.4008813245898
 20
1586.883905494118
 30
0.0
 41
0.7093347054381863
 10
110.3993084104396
 20
1587.382332579968
 30
0.0
 41
1.0
  0
SPLINE
  5
189
330
1F
100
AcDbEntity
  8
Predefinito
100
AcDbSpline
210
0.0
220
0.0
230
1.0
 70
    12
 71
     2
 72
     6
 73
     3
 74
     0
 42
0.0000000001
 43
0.0000000001
 40
0.0
 40
0.0
 40
0.0
 40
0.6335265790353561
 40
0.6335265790353561
 40
0.6335265790353561
 10
133.3993091829375
 20
1595.882332579967
 30
0.0
 41
1.0
 10
133.7665240977438
 20
1595.881564749558
 30
0.0
 41
0.8060983814563599
 10
133.8758051580809
 20
1595.530986608381
 30
0.0
 41
1.0
  0
SPLINE
  5
18A
330
1F
100
AcDbEntity
  8
Predefinito
100
AcDbSpline
210
0.0
220
0.0
230
1.0
 70
    24
 71
     2
 72
     6
 73
     3
 74
     0
 42
0.0000000001
 43
0.0000000001
 40
0.0
 40
0.0
 40
0.0
 40
1.0
 40
1.0
 40
1.0
 10
110.8993084087887
 20
1591.359159788695
 30
0.0
 10
110.8993084087887
 20
1591.859159788695
 30
0.0
 10
110.8993084087887
 20
1592.359159788695
 30
0.0
  0
SPLINE
  5
18B
330
1F
100
AcDbEntity
  8
Predefinito
100
AcDbSpline
210
0.0
220
0.0
230
1.0
 70
    24
 71
     2
 72
     6
 73
     3
 74
     0
 42
0.0000000001
 43
0.0000000001
 40
0.0
 40
0.0
 40
0.0
 40
1.0
 40
1.0
 40
1.0
 10
139.8993084087887
 20
1592.359159788695
 30
0.0
 10
139.8993084087887
 20
1591.859159788695
 30
0.0
 10
139.8993084087887
 20
1591.359159788695
 30
0.0
  0
SPLINE
  5
18C
330
1F
100
AcDbEntity
  8
Predefinito
100
AcDbSpline
210
0.0
220
0.0
230
1.0
 70
    24
 71
     2
 72
     6
 73
     3
 74
     0
 42
0.0000000001
 43
0.0000000001
 40
0.0
 40
0.0
 40
0.0
 40
33.17017767989714
 40
33.17017767989714
 40
33.17017767989714
 10
201.192052827743
 20
2267.051247265668
 30
0.0
 10
201.0473238666484
 20
2250.466789922818
 30
0.0
 10
200.9025949055537
 20
2233.882332579968
 30
0.0
  0
SPLINE
  5
18D
330
1F
100
AcDbEntity
  8
Predefinito
100
AcDbSpline
210
0.0
220
0.0
230
1.0
 70
    12
 71
     3
 72
    11
 73
     7
 74
     0
 42
0.0000000001
 43
0.0000000001
 40
0.0
 40
0.0
 40
0.0
 40
0.0
 40
0.5262167694762904
 40
0.5262167694762904
 40
0.7500552460445619
 40
1.002021177834701
 40
1.002021177834701
 40
1.002021177834701
 40
1.002021177834701
 10
201.192052827743
 20
2267.051247265668
 30
0.0
 41
1.0
 10
201.1935834959855
 20
2267.226646176716
 30
0.0
 41
1.0
 10
201.1951141642281
 20
2267.402045087763
 30
0.0
 41
1.0
 10
201.1972959376182
 20
2267.652053983362
 30
0.0
 41
1.0
 10
201.1370670973517
 20
2267.810803838214
 30
0.0
 41
1.0
 10
200.9806693584676
 20
2267.882332075771
 30
0.0
 41
1.0
 10
200.8966807151881
 20
2267.882332579963
 30
0.0
 41
1.0
  0
SPLINE
  5
18E
330
1F
100
AcDbEntity
  8
Predefinito
100
AcDbSpline
210
0.0
220
0.0
230
1.0
 70
    24
 71
     2
 72
     6
 73
     3
 74
     0
 42
0.0000000001
 43
0.0000000001
 40
0.0
 40
0.0
 40
0.0
 40
33.1701776798976
 40
33.1701776798976
 40
33.1701776798976
 10
49.89602191532532
 20
2233.882332579968
 30
0.0
 10
49.75129295423068
 20
2250.466789922818
 30
0.0
 10
49.60656399313604
 20
2267.051247265668
 30
0.0
  0
SPLINE
  5
18F
330
1F
100
AcDbEntity
  8
Predefinito
100
AcDbSpline
210
0.0
220
0.0
230
1.0
 70
    12
 71
     3
 72
    11
 73
     7
 74
     0
 42
0.0000000001
 43
0.0000000001
 40
0.0
 40
0.0
 40
0.0
 40
0.0
 40
0.5262167694762904
 40
0.5262167694762904
 40
0.7500552460445619
 40
1.002021177834701
 40
1.002021177834701
 40
1.002021177834701
 40
1.002021177834701
 10
49.60656399313604
 20
2267.051247265668
 30
0.0
 41
1.0
 10
49.60503332489357
 20
2267.226646176716
 30
0.0
 41
1.0
 10
49.60350265665092
 20
2267.402045087763
 30
0.0
 41
1.0
 10
49.60132088326084
 20
2267.652053983362
 30
0.0
 41
1.0
 10
49.66154972352803
 20
2267.810803838216
 30
0.0
 41
1.0
 10
49.8179474624115
 20
2267.882332075771
 30
0.0
 41
1.0
 10
49.90193610569094
 20
2267.882332579963
 30
0.0
 41
1.0
  0
SPLINE
  5
190
330
1F
100
AcDbEntity
  8
Predefinito
100
AcDbSpline
210
0.0
220
0.0
230
1.0
 70
    12
 71
     2
 72
     6
 73
     3
 74
     0
 42
0.0000000001
 43
0.0000000001
 40
0.0
 40
0.0
 40
0.0
 40
0.1759289093107692
 40
0.1759289093107692
 40
0.1759289093107692
 10
117.7270785550586
 20
1263.70955500709
 30
0.0
 41
1.0
 10
117.7080289701719
 20
1263.795458008558
 30
0.0
 41
0.9995672625078966
 10
117.6940639715022
 20
1263.88233257997
 30
0.0
 41
1.0
  0
SPLINE
  5
191
330
1F
100
AcDbEntity
  8
Predefinito
100
AcDbSpline
210
0.0
220
0.0
230
1.0
 70
    24
 71
     2
 72
     6
 73
     3
 74
     0
 42
0.0000000001
 43
0.0000000001
 40
0.0
 40
0.0
 40
0.0
 40
0.8473305095829994
 40
0.8473305095829994
 40
0.8473305095829994
 10
117.9105780061154
 20
1262.882332579969
 30
0.0
 10
117.8188282805866
 20
1263.295943793529
 30
0.0
 10
117.7270785550579
 20
1263.709555007089
 30
0.0
  0
SPLINE
  5
192
330
1F
100
AcDbEntity
  8
Predefinito
100
AcDbSpline
210
0.0
220
0.0
230
1.0
 70
    12
 71
     2
 72
     6
 73
     3
 74
     0
 42
0.0000000001
 43
0.0000000001
 40
0.0
 40
0.0
 40
0.0
 40
5.859747034404083
 40
5.859747034404083
 40
5.859747034404083
 10
114.3434134454906
 20
1273.03433585572
 30
0.0
 41
1.0
 10
112.2825341570664
 20
1275.303235023244
 30
0.0
 41
0.9350966118812463
 10
109.2355361165789
 20
1275.63629630156
 30
0.0
 41
1.0
  0
SPLINE
  5
193
330
1F
100
AcDbEntity
  8
Predefinito
100
AcDbSpline
210
0.0
220
0.0
230
1.0
 70
    12
 71
     2
 72
     6
 73
     3
 74
     0
 42
0.0000000001
 43
0.0000000001
 40
0.0
 40
0.0
 40
0.0
 40
3.283001746522526
 40
3.283001746522526
 40
3.283001746522526
 10
116.3993084104377
 20
1267.68012113861
 30
0.0
 41
1.0
 10
116.3946616397174
 20
1269.344792554326
 30
0.0
 41
0.9792460035891386
 10
115.7296254573374
 20
1270.870859194715
 30
0.0
 41
1.0
  0
SPLINE
  5
194
330
1F
100
AcDbEntity
  8
Predefinito
100
AcDbSpline
210
0.0
220
0.0
230
1.0
 70
    12
 71
     2
 72
     6
 73
     3
 74
     0
 42
0.0000000001
 43
0.0000000001
 40
0.0
 40
0.0
 40
0.0
 40
10.096046223753
 40
10.096046223753
 40
10.096046223753
 10
35.80593048321101
 20
1283.354058847513
 30
0.0
 41
1.0
 10
29.45409438715328
 20
1284.021719506946
 30
0.0
 41
0.7132920506029915
 10
30.01004323039609
 20
1290.384306514684
 30
0.0
 41
1.0
  0
SPLINE
  5
195
330
1F
100
AcDbEntity
  8
Predefinito
100
AcDbSpline
210
0.0
220
0.0
230
1.0
 70
    12
 71
     2
 72
     6
 73
     3
 74
     0
 42
0.0000000001
 43
0.0000000001
 40
0.0
 40
0.0
 40
0.0
 40
0.5857521090487949
 40
0.5857521090487949
 40
0.5857521090487949
 10
136.2990322762391
 20
1269.902426624929
 30
0.0
 41
1.0
 10
136.1189758303045
 20
1269.671274970367
 30
0.0
 41
0.9993445408473319
 10
135.9561160292962
 20
1269.427701375031
 30
0.0
 41
1.0
  0
SPLINE
  5
196
330
1F
100
AcDbEntity
  8
Predefinito
100
AcDbSpline
210
0.0
220
0.0
230
1.0
 70
    12
 71
     2
 72
     6
 73
     3
 74
     0
 42
0.0000000001
 43
0.0000000001
 40
0.0
 40
0.0
 40
0.0
 40
3.253122265982546
 40
3.253122265982546
 40
3.253122265982546
 10
135.6915656673513
 20
1269.004588610445
 30
0.0
 41
1.0
 10
134.8582479162697
 20
1267.58148679472
 30
0.0
 41
0.9795958634299269
 10
134.6525999934309
 20
1265.94522697916
 30
0.0
 41
1.0
  0
SPLINE
  5
197
330
1F
100
AcDbEntity
  8
Predefinito
100
AcDbSpline
210
0.0
220
0.0
230
1.0
 70
    12
 71
     2
 72
     6
 73
     3
 74
     0
 42
0.0000000001
 43
0.0000000001
 40
0.0
 40
0.0
 40
0.0
 40
4.010851001417986
 40
4.010851001417986
 40
4.010851001417986
 10
142.8698620398395
 20
1272.965431306998
 30
0.0
 41
1.0
 10
140.8233295243303
 20
1273.027544646483
 30
0.0
 41
0.9694770003900289
 10
138.9933204309271
 20
1272.109274467266
 30
0.0
 41
1.0
  0
SPLINE
  5
198
330
1F
100
AcDbEntity
  8
Predefinito
100
AcDbSpline
210
0.0
220
0.0
230
1.0
 70
    12
 71
     2
 72
     6
 73
     3
 74
     0
 42
0.0000000001
 43
0.0000000001
 40
0.0
 40
0.0
 40
0.0
 40
0.3740682532345976
 40
0.3740682532345976
 40
0.3740682532345976
 10
137.7437093141926
 20
1271.332582946191
 30
0.0
 41
1.0
 10
137.5947195440463
 20
1271.219456692867
 30
0.0
 41
0.9997056104104006
 10
137.4513931376696
 20
1271.099235887535
 30
0.0
 41
1.0
  0
SPLINE
  5
199
330
1F
100
AcDbEntity
  8
Predefinito
100
AcDbSpline
210
0.0
220
0.0
230
1.0
 70
    24
 71
     2
 72
     6
 73
     3
 74
     0
 42
0.0000000001
 43
0.0000000001
 40
0.0
 40
0.0
 40
0.0
 40
8.614086534499696
 40
8.614086534499696
 40
8.614086534499696
 10
30.01010066827659
 20
1290.384963420497
 30
0.0
 10
30.38548422328002
 20
1294.675617087783
 30
0.0
 10
30.76086777828345
 20
1298.966270755069
 30
0.0
  0
SPLINE
  5
19A
330
1F
100
AcDbEntity
  8
Predefinito
100
AcDbSpline
210
0.0
220
0.0
230
1.0
 70
    12
 71
     2
 72
     8
 73
     5
 74
     0
 42
0.0000000001
 43
0.0000000001
 40
0.0
 40
0.0
 40
0.0
 40
58.4040623865179
 40
58.4040623865179
 40
116.8081247730358
 40
116.8081247730358
 40
116.8081247730358
 10
21.63835848642944
 20
1305.706717162136
 30
0.0
 41
1.0
 10
-7.535044683612893
 20
1323.427136745488
 30
0.0
 41
0.7967283577051757
 10
1.665714015902296
 20
1356.297286761653
 30
0.0
 41
1.0
 10
10.86647271541748
 20
1389.167436777817
 30
0.0
 41
0.7967283577051757
 10
45.00004449938818
 20
1389.16745653757
 30
0.0
 41
1.0
  0
SPLINE
  5
19B
330
1F
100
AcDbEntity
  8
Predefinito
100
AcDbSpline
210
0.0
220
0.0
230
1.0
 70
    12
 71
     2
 72
     6
 73
     3
 74
     0
 42
0.0000000001
 43
0.0000000001
 40
0.0
 40
0.0
 40
0.0
 40
0.1072762859539036
 40
0.1072762859539036
 40
0.1072762859539036
 10
61.08832808051299
 20
1301.118395617653
 30
0.0
 41
1.0
 10
61.08139237067687
 20
1301.059629114551
 30
0.0
 41
0.8653941974101949
 10
61.02697244629026
 20
1301.036389540813
 30
0.0
 41
1.0
  0
SPLINE
  5
19C
330
1F
100
AcDbEntity
  8
Predefinito
100
AcDbSpline
210
0.0
220
0.0
230
1.0
 70
    12
 71
     2
 72
     6
 73
     3
 74
     0
 42
0.0000000001
 43
0.0000000001
 40
0.0
 40
0.0
 40
0.0
 40
0.1072762859617302
 40
0.1072762859617302
 40
0.1072762859617302
 10
20.3558952147271
 20
1305.311092010668
 30
0.0
 41
1.0
 10
20.3074962753016
 20
1305.345138282445
 30
0.0
 41
0.8653941972136333
 10
20.31293037041388
 20
1305.404062611628
 30
0.0
 41
1.0
  0
SPLINE
  5
19D
330
1F
100
AcDbEntity
  8
Predefinito
100
AcDbSpline
210
0.0
220
0.0
230
1.0
 70
    12
 71
     2
 72
     6
 73
     3
 74
     0
 42
0.0000000001
 43
0.0000000001
 40
0.0
 40
0.0
 40
0.0
 40
12.20133450881564
 40
12.20133450881564
 40
12.20133450881564
 10
31.30011718262649
 20
1299.917007757702
 30
0.0
 41
1.0
 10
25.46148361273429
 20
1301.823227750522
 30
0.0
 41
0.9899528454644235
 10
20.3899727389819
 20
1305.287775929133
 30
0.0
 41
1.0
  0
SPLINE
  5
19E
330
1F
100
AcDbEntity
  8
Predefinito
100
AcDbSpline
210
0.0
220
0.0
230
1.0
 70
    24
 71
     2
 72
     6
 73
     3
 74
     0
 42
0.0000000001
 43
0.0000000001
 40
0.0
 40
0.0
 40
0.0
 40
0.3916447929744274
 40
0.3916447929744274
 40
0.3916447929744274
 10
61.12926610886798
 20
1301.507894939472
 30
0.0
 10
61.10879709468977
 20
1301.313145278562
 30
0.0
 10
61.08832808051156
 20
1301.118395617652
 30
0.0
  0
SPLINE
  5
19F
330
1F
100
AcDbEntity
  8
Predefinito
100
AcDbSpline
210
0.0
220
0.0
230
1.0
 70
    24
 71
     2
 72
     6
 73
     3
 74
     0
 42
0.0000000001
 43
0.0000000001
 40
0.0
 40
0.0
 40
0.0
 40
0.9999999999997716
 40
0.9999999999997716
 40
0.9999999999997716
 10
31.1949119457439
 20
1298.921320618148
 30
0.0
 10
31.24717617737768
 20
1299.418581565832
 30
0.0
 10
31.29944040901147
 20
1299.915842513516
 30
0.0
  0
SPLINE
  5
1A0
330
1F
100
AcDbEntity
  8
Predefinito
100
AcDbSpline
210
0.0
220
0.0
230
1.0
 70
    24
 71
     2
 72
     6
 73
     3
 74
     0
 42
0.0000000001
 43
0.0000000001
 40
0.0
 40
0.0
 40
0.0
 40
106.5980226577697
 40
106.5980226577697
 40
106.5980226577697
 10
132.3993084104396
 20
1394.882332579968
 30
0.0
 10
132.3993084104396
 20
1341.583321251083
 30
0.0
 10
132.3993084104396
 20
1288.284309922198
 30
0.0
  0
SPLINE
  5
1A1
330
1F
100
AcDbEntity
  8
Predefinito
100
AcDbSpline
210
0.0
220
0.0
230
1.0
 70
    24
 71
     2
 72
     6
 73
     3
 74
     0
 42
0.0000000001
 43
0.0000000001
 40
0.0
 40
0.0
 40
0.0
 40
39.5093115904067
 40
39.5093115904067
 40
39.5093115904067
 10
132.3993084104396
 20
1275.181255007189
 30
0.0
 10
132.3993084104396
 20
1255.426599211985
 30
0.0
 10
132.3993084104396
 20
1235.671943416782
 30
0.0
  0
SPLINE
  5
1A2
330
1F
100
AcDbEntity
  8
Predefinito
100
AcDbSpline
210
0.0
220
0.0
230
1.0
 70
    24
 71
     2
 72
     6
 73
     3
 74
     0
 42
0.0000000001
 43
0.0000000001
 40
0.0
 40
0.0
 40
0.0
 40
159.3719529290149
 40
159.3719529290149
 40
159.3719529290149
 10
118.3993084104395
 20
1235.510379650953
 30
0.0
 10
118.3993084104395
 20
1315.19635611546
 30
0.0
 10
118.3993084104395
 20
1394.882332579968
 30
0.0
  0
SPLINE
  5
1A3
330
1F
100
AcDbEntity
  8
Predefinito
100
AcDbSpline
210
0.0
220
0.0
230
1.0
 70
    24
 71
     2
 72
     6
 73
     3
 74
     0
 42
0.0000000001
 43
0.0000000001
 40
0.0
 40
0.0
 40
0.0
 40
52.00000001116882
 40
52.00000001116882
 40
52.00000001116882
 10
118.3993084104395
 20
1534.882332568799
 30
0.0
 10
118.3993084104395
 20
1560.882332574383
 30
0.0
 10
118.3993084104395
 20
1586.882332579968
 30
0.0
  0
SPLINE
  5
1A4
330
1F
100
AcDbEntity
  8
Predefinito
100
AcDbSpline
210
0.0
220
0.0
230
1.0
 70
    24
 71
     2
 72
     6
 73
     3
 74
     0
 42
0.0000000001
 43
0.0000000001
 40
0.0
 40
0.0
 40
0.0
 40
637.9999999999998
 40
637.9999999999998
 40
637.9999999999998
 10
118.3993084104395
 20
1595.882332579968
 30
0.0
 10
118.3993084104395
 20
1914.882332579968
 30
0.0
 10
118.3993084104395
 20
2233.882332579968
 30
0.0
  0
SPLINE
  5
1A5
330
1F
100
AcDbEntity
  8
Predefinito
100
AcDbSpline
210
0.0
220
0.0
230
1.0
 70
    24
 71
     2
 72
     6
 73
     3
 74
     0
 42
0.0000000001
 43
0.0000000001
 40
0.0
 40
0.0
 40
0.0
 40
637.9999999999998
 40
637.9999999999998
 40
637.9999999999998
 10
132.3993084104395
 20
2233.882332579968
 30
0.0
 10
132.3993084104395
 20
1914.882332579968
 30
0.0
 10
132.3993084104395
 20
1595.882332579968
 30
0.0
  0
SPLINE
  5
1A6
330
1F
100
AcDbEntity
  8
Predefinito
100
AcDbSpline
210
0.0
220
0.0
230
1.0
 70
    24
 71
     2
 72
     6
 73
     3
 74
     0
 42
0.0000000001
 43
0.0000000001
 40
0.0
 40
0.0
 40
0.0
 40
52.00000001116905
 40
52.00000001116905
 40
52.00000001116905
 10
132.3993084104395
 20
1586.882332579968
 30
0.0
 10
132.3993084104395
 20
1560.882332574384
 30
0.0
 10
132.3993084104395
 20
1534.882332568799
 30
0.0
  0
SPLINE
  5
1A7
330
1F
100
AcDbEntity
  8
Predefinito
100
AcDbSpline
210
0.0
220
0.0
230
1.0
 70
    24
 71
     3
 72
     8
 73
     4
 74
     0
 42
0.0000000001
 43
0.0000000001
 40
0.0
 40
0.0
 40
0.0
 40
0.0
 40
139.9999999888507
 40
139.9999999888507
 40
139.9999999888507
 40
139.9999999888507
 10
118.3993084104395
 20
1394.882332579968
 30
0.0
 10
118.3993084104399
 20
1441.548999242917
 30
0.0
 10
118.3993084104394
 20
1488.215665905869
 30
0.0
 10
118.3993084104395
 20
1534.882332568819
 30
0.0
  0
SPLINE
  5
1A8
330
1F
100
AcDbEntity
  8
Predefinito
100
AcDbSpline
210
0.0
220
0.0
230
1.0
 70
    24
 71
     3
 72
     8
 73
     4
 74
     0
 42
0.0000000001
 43
0.0000000001
 40
0.0
 40
0.0
 40
0.0
 40
0.0
 40
139.9999999888889
 40
139.9999999888889
 40
139.9999999888889
 40
139.9999999888889
 10
132.3993084104395
 20
1534.882332568857
 30
0.0
 10
132.3993084104397
 20
1488.215665905896
 30
0.0
 10
132.3993084104397
 20
1441.54899924293
 30
0.0
 10
132.3993084104395
 20
1394.882332579968
 30
0.0
  0
SPLINE
  5
1A9
330
1F
100
AcDbEntity
  8
Predefinito
100
AcDbSpline
210
0.0
220
0.0
230
1.0
 70
    24
 71
     2
 72
     6
 73
     3
 74
     0
 42
0.0000000001
 43
0.0000000001
 40
0.0
 40
0.0
 40
0.0
 40
11.89908843873911
 40
11.89908843873911
 40
11.89908843873911
 10
137.2983968492017
 20
1596.295201443336
 30
0.0
 10
131.348852629832
 20
1596.295201443336
 30
0.0
 10
125.3993084104623
 20
1596.295201443336
 30
0.0
  0
SPLINE
  5
1AA
330
1F
100
AcDbEntity
  8
Predefinito
100
AcDbSpline
210
0.0
220
0.0
230
1.0
 70
    24
 71
     2
 72
     6
 73
     3
 74
     0
 42
0.0000000001
 43
0.0000000001
 40
0.0
 40
0.0
 40
0.0
 40
12.01151648578349
 40
12.01151648578349
 40
12.01151648578349
 10
125.3993084104623
 20
1596.295201443336
 30
0.0
 10
119.3935501675705
 20
1596.295201443336
 30
0.0
 10
113.3877919246788
 20
1596.295201443336
 30
0.0
  0
SPLINE
  5
1AB
330
1F
100
AcDbEntity
  8
Predefinito
100
AcDbSpline
210
0.0
220
0.0
230
1.0
 70
    12
 71
     2
 72
     8
 73
     5
 74
     0
 42
0.0000000001
 43
0.0000000001
 40
0.0
 40
0.0
 40
0.0
 40
0.0490257009804509
 40
0.0490257009804509
 40
312.6374947331649
 40
312.6374947331649
 40
312.6374947331649
 10
324.3502827094817
 20
1176.659159552392
 30
0.0
 41
1.0
 10
324.374795559972
 20
1176.659159552391
 30
0.0
 41
1.0
 10
324.3993084104623
 20
1176.659159552391
 30
0.0
 41
1.0
 10
324.3993084104624
 20
1176.659159788661
 30
0.0
 41
0.7071067811865476
 10
125.3993084104623
 20
1176.659159788661
 30
0.0
 41
1.0
  0
SPLINE
  5
1AC
330
1F
100
AcDbEntity
  8
Predefinito
100
AcDbSpline
210
0.0
220
0.0
230
1.0
 70
    24
 71
     2
 72
     6
 73
     3
 74
     0
 42
0.0000000001
 43
0.0000000001
 40
0.0
 40
0.0
 40
0.0
 40
198.9509742990195
 40
198.9509742990195
 40
198.9509742990195
 10
125.3993084104623
 20
1176.659159788661
 30
0.0
 10
25.92382126095254
 20
1176.659159788661
 30
0.0
 10
-73.55166588855718
 20
1176.659159788661
 30
0.0
  0
SPLINE
  5
1AD
330
1F
100
AcDbEntity
  8
Predefinito
100
AcDbSpline
210
0.0
220
0.0
230
1.0
 70
    28
 71
     2
 72
     8
 73
     5
 74
     0
 42
0.0000000001
 43
0.0000000001
 40
309.2505268377453
 40
309.2505268377453
 40
309.2505268377453
 40
314.1592653589793
 40
314.1592653589793
 40
628.3185307179587
 40
628.3185307179587
 40
628.3185307179587
 10
-74.55141952825048
 20
1177.659159788661
 30
0.0
 41
0.9909901011790784
 10
-74.6006915895377
 20
1177.659159788661
 30
0.0
 41
0.9954235434560398
 10
-74.60069158953775
 20
1177.659159788661
 30
0.0
 41
1.0
 10
-74.60069158953772
 20
1177.659159788661
 30
0.0
 41
0.7071067811865476
 10
125.3993084104623
 20
1177.659159788661
 30
0.0
 41
1.0
  0
SPLINE
  5
1AE
330
1F
100
AcDbEntity
  8
Predefinito
100
AcDbSpline
210
0.0
220
0.0
230
1.0
 70
    24
 71
     2
 72
     6
 73
     3
 74
     0
 42
0.0000000001
 43
0.0000000001
 40
0.0
 40
0.0
 40
0.0
 40
199.950727938713
 40
199.950727938713
 40
199.950727938713
 10
125.3993084104623
 20
1177.659159788661
 30
0.0
 10
225.3746723798188
 20
1177.65915978866
 30
0.0
 10
325.3500363491753
 20
1177.65915978866
 30
0.0
  0
SPLINE
  5
1AF
330
1F
100
AcDbEntity
  8
Predefinito
100
AcDbSpline
210
0.0
220
0.0
230
1.0
 70
    12
 71
     2
 72
     6
 73
     3
 74
     0
 42
0.0000000001
 43
0.0000000001
 40
0.0
 40
0.0
 40
0.0
 40
302.0916432333297
 40
302.0916432333297
 40
302.0916432333297
 10
-74.60069158953775
 20
1396.65915978866
 30
0.0
 41
1.0
 10
-74.60069267706993
 20
1584.941493937028
 30
0.0
 41
0.7281145157207645
 10
113.3390069029247
 20
1596.295201443336
 30
0.0
 41
1.0
  0
SPLINE
  5
1B0
330
1F
100
AcDbEntity
  8
Predefinito
100
AcDbSpline
210
0.0
220
0.0
230
1.0
 70
    12
 71
     2
 72
     6
 73
     3
 74
     0
 42
0.0000000001
 43
0.0000000001
 40
0.0
 40
0.0
 40
0.0
 40
302.0914479113812
 40
302.0914479113812
 40
302.0914479113812
 10
137.4596099179998
 20
1596.295201443336
 30
0.0
 41
1.0
 10
325.3988446177312
 20
1584.941056293324
 30
0.0
 41
0.7281162081528209
 10
325.3993084104623
 20
1396.65915978866
 30
0.0
 41
1.0
  0
SPLINE
  5
1B1
330
1F
100
AcDbEntity
  8
Predefinito
100
AcDbSpline
210
0.0
220
0.0
230
1.0
 70
    24
 71
     2
 72
     6
 73
     3
 74
     0
 42
0.0000000001
 43
0.0000000001
 40
0.0
 40
0.0
 40
0.0
 40
219.0
 40
219.0
 40
219.0
 10
-74.60069158953775
 20
1177.659159788661
 30
0.0
 10
-74.60069158953775
 20
1287.159159788661
 30
0.0
 10
-74.60069158953775
 20
1396.659159788661
 30
0.0
  0
SPLINE
  5
1B2
330
1F
100
AcDbEntity
  8
Predefinito
100
AcDbSpline
210
0.0
220
0.0
230
1.0
 70
    24
 71
     2
 72
     6
 73
     3
 74
     0
 42
0.0000000001
 43
0.0000000001
 40
0.0
 40
0.0
 40
0.0
 40
219.0
 40
219.0
 40
219.0
 10
325.3993084104623
 20
1396.659159788661
 30
0.0
 10
325.3993084104623
 20
1287.159159788661
 30
0.0
 10
325.3993084104623
 20
1177.659159788661
 30
0.0
  0
SPLINE
  5
1B3
330
1F
100
AcDbEntity
  8
Predefinito
100
AcDbSpline
210
0.0
220
0.0
230
1.0
 70
    12
 71
     2
 72
     6
 73
     3
 74
     0
 42
0.0000000001
 43
0.0000000001
 40
0.0
 40
0.0
 40
0.0
 40
1.570590394569358
 40
1.570590394569358
 40
1.570590394569358
 10
-73.60069313453369
 20
1176.659159788662
 30
0.0
 41
1.0
 10
-74.60021542675963
 20
1176.659637495698
 30
0.0
 41
0.7074441057374391
 10
-74.60069158953775
 20
1177.659159788661
 30
0.0
 41
1.0
  0
SPLINE
  5
1B4
330
1F
100
AcDbEntity
  8
Predefinito
100
AcDbSpline
210
0.0
220
0.0
230
1.0
 70
    12
 71
     2
 72
     6
 73
     3
 74
     0
 42
0.0000000001
 43
0.0000000001
 40
0.0
 40
0.0
 40
0.0
 40
1.570485748399497
 40
1.570485748399497
 40
1.570485748399497
 10
325.3993084104623
 20
1177.659159788661
 30
0.0
 41
1.0
 10
325.3985884822549
 20
1176.659881260751
 30
0.0
 41
0.7076165770484358
 10
324.3993099554582
 20
1176.659159788662
 30
0.0
 41
1.0
  0
SPLINE
  5
1B5
330
1F
100
AcDbEntity
  8
Predefinito
100
AcDbSpline
210
0.0
220
0.0
230
1.0
 70
    24
 71
     2
 72
     6
 73
     3
 74
     0
 42
0.0000000001
 43
0.0000000001
 40
0.0
 40
0.0
 40
0.0
 40
0.1009115612999096
 40
0.1009115612999096
 40
0.1009115612999096
 10
137.2983968491617
 20
1596.297021235062
 30
0.0
 10
137.3488526298115
 20
1596.297021235062
 30
0.0
 10
137.3993084104613
 20
1596.297021235063
 30
0.0
  0
SPLINE
  5
1B6
330
1F
100
AcDbEntity
  8
Predefinito
100
AcDbSpline
210
0.0
220
0.0
230
1.0
 70
    12
 71
     2
 72
     6
 73
     3
 74
     0
 42
0.0000000001
 43
0.0000000001
 40
0.0
 40
0.0
 40
0.0
 40
302.091642776397
 40
302.091642776397
 40
302.091642776397
 10
843.8714804547469
 20
1396.659159788695
 30
0.0
 41
1.0
 10
843.8714804547468
 20
1584.941492913247
 30
0.0
 41
0.7281145196800051
 10
655.9317819622845
 20
1596.295201443371
 30
0.0
 41
1.0
  0
SPLINE
  5
1B7
330
1F
100
AcDbEntity
  8
Predefinito
100
AcDbSpline
210
0.0
220
0.0
230
1.0
 70
    24
 71
     2
 72
     6
 73
     3
 74
     0
 42
0.0000000001
 43
0.0000000001
 40
0.0
 40
0.0
 40
0.0
 40
23.97282312192692
 40
23.97282312192692
 40
23.97282312192692
 10
655.7840020691358
 20
1596.295201443371
 30
0.0
 10
643.7975905081723
 20
1596.295201443371
 30
0.0
 10
631.8111789472089
 20
1596.295201443371
 30
0.0
  0
SPLINE
  5
1B8
330
1F
100
AcDbEntity
  8
Predefinito
100
AcDbSpline
210
0.0
220
0.0
230
1.0
 70
    24
 71
     2
 72
     6
 73
     3
 74
     0
 42
0.0000000001
 43
0.0000000001
 40
0.0
 40
0.0
 40
0.0
 40
397.9509742990194
 40
397.9509742990194
 40
397.9509742990194
 10
842.8224547537664
 20
1176.659159788696
 30
0.0
 10
643.8469676042566
 20
1176.659159788695
 30
0.0
 10
444.8714804547469
 20
1176.659159788695
 30
0.0
  0
SPLINE
  5
1B9
330
1F
100
AcDbEntity
  8
Predefinito
100
AcDbSpline
210
0.0
220
0.0
230
1.0
 70
    24
 71
     2
 72
     6
 73
     3
 74
     0
 42
0.0000000001
 43
0.0000000001
 40
0.0
 40
0.0
 40
0.0
 40
399.9507279387133
 40
399.9507279387133
 40
399.9507279387133
 10
443.8714804547469
 20
1177.659159788695
 30
0.0
 10
643.8468444241034
 20
1177.659159788695
 30
0.0
 10
843.82220839346
 20
1177.659159788695
 30
0.0
  0
SPLINE
  5
1BA
330
1F
100
AcDbEntity
  8
Predefinito
100
AcDbSpline
210
0.0
220
0.0
230
1.0
 70
    24
 71
     2
 72
     6
 73
     3
 74
     0
 42
0.0000000001
 43
0.0000000001
 40
0.0
 40
0.0
 40
0.0
 40
219.0
 40
219.0
 40
219.0
 10
843.8714804547469
 20
1177.659159788695
 30
0.0
 10
843.8714804547469
 20
1287.159159788695
 30
0.0
 10
843.8714804547469
 20
1396.659159788695
 30
0.0
  0
SPLINE
  5
1BB
330
1F
100
AcDbEntity
  8
Predefinito
100
AcDbSpline
210
0.0
220
0.0
230
1.0
 70
    12
 71
     2
 72
     6
 73
     3
 74
     0
 42
0.0000000001
 43
0.0000000001
 40
0.0
 40
0.0
 40
0.0
 40
1.570796326794734
 40
1.570796326794734
 40
1.570796326794734
 10
443.8714804547469
 20
1177.659159788695
 30
0.0
 41
1.0
 10
443.8714804547467
 20
1176.659159788696
 30
0.0
 41
0.7071067811866681
 10
444.8714804547469
 20
1176.659159788695
 30
0.0
 41
1.0
  0
SPLINE
  5
1BC
330
1F
100
AcDbEntity
  8
Predefinito
100
AcDbSpline
210
0.0
220
0.0
230
1.0
 70
    12
 71
     2
 72
     6
 73
     3
 74
     0
 42
0.0000000001
 43
0.0000000001
 40
0.0
 40
0.0
 40
0.0
 40
302.0916432333295
 40
302.0916432333295
 40
302.0916432333295
 10
443.8714804547469
 20
1396.659159788695
 30
0.0
 41
1.0
 10
443.8714793672145
 20
1584.941493937062
 30
0.0
 41
0.7281145157207648
 10
631.8111789472089
 20
1596.295201443371
 30
0.0
 41
1.0
  0
SPLINE
  5
1BD
330
1F
100
AcDbEntity
  8
Predefinito
100
AcDbSpline
210
0.0
220
0.0
230
1.0
 70
    24
 71
     2
 72
     6
 73
     3
 74
     0
 42
0.0000000001
 43
0.0000000001
 40
0.0
 40
0.0
 40
0.0
 40
219.0
 40
219.0
 40
219.0
 10
443.8714804547469
 20
1177.659159788695
 30
0.0
 10
443.8714804547469
 20
1287.159159788695
 30
0.0
 10
443.8714804547469
 20
1396.659159788695
 30
0.0
  0
SPLINE
  5
1BE
330
1F
100
AcDbEntity
  8
Predefinito
100
AcDbSpline
210
0.0
220
0.0
230
1.0
 70
    12
 71
     2
 72
     6
 73
     3
 74
     0
 42
0.0000000001
 43
0.0000000001
 40
0.0
 40
0.0
 40
0.0
 40
1.570485748399254
 40
1.570485748399254
 40
1.570485748399254
 10
843.8714804547469
 20
1177.659159788695
 30
0.0
 41
1.0
 10
843.8707605265386
 20
1176.659881260785
 30
0.0
 41
0.7076165770486164
 10
842.8714819997429
 20
1176.659159788697
 30
0.0
 41
1.0
  0
SPLINE
  5
1BF
330
1F
100
AcDbEntity
  8
Predefinito
100
AcDbSpline
210
0.0
220
0.0
230
1.0
 70
    24
 71
     2
 72
     6
 73
     3
 74
     0
 42
0.0000000001
 43
0.0000000001
 40
0.0
 40
0.0
 40
0.0
 40
0.0494974357029605
 40
0.0494974357029605
 40
0.0494974357029605
 10
655.7840020691244
 20
1596.297021235097
 30
0.0
 10
655.8087507869761
 20
1596.297021235097
 30
0.0
 10
655.8334995048278
 20
1596.297021235097
 30
0.0
  0
SPLINE
  5
1C0
330
1F
100
AcDbEntity
  8
Predefinito
100
AcDbSpline
210
0.0
220
0.0
230
1.0
 70
    12
 71
     2
 72
     8
 73
     5
 74
     0
 42
0.0000000001
 43
0.0000000001
 40
0.0
 40
0.0
 40
0.0
 40
314.1592653589793
 40
314.1592653589793
 40
628.3185307179585
 40
628.3185307179585
 40
628.3185307179585
 10
843.8823325799685
 20
125.399264057694
 30
0.0
 41
1.0
 10
843.8823325799683
 20
325.399264057694
 30
0.0
 41
0.7071067811865479
 10
643.8823325799685
 20
325.3992640576941
 30
0.0
 41
1.0
 10
443.8823325799685
 20
325.399264057694
 30
0.0
 41
0.7071067811865479
 10
443.8823325799685
 20
125.399264057694
 30
0.0
 41
1.0
  0
SPLINE
  5
1C1
330
1F
100
AcDbEntity
  8
Predefinito
100
AcDbSpline
210
0.0
220
0.0
230
1.0
 70
    12
 71
     2
 72
     8
 73
     5
 74
     0
 42
0.0000000001
 43
0.0000000001
 40
0.0
 40
0.0
 40
0.0
 40
314.1592653589793
 40
314.1592653589793
 40
628.3185307179588
 40
628.3185307179588
 40
628.3185307179588
 10
443.8823325799685
 20
125.399264057694
 30
0.0
 41
1.0
 10
443.882332579968
 20
-74.60073594230593
 30
0.0
 41
0.7071067811865476
 10
643.8823325799685
 20
-74.60073594230595
 30
0.0
 41
1.0
 10
843.8823325799685
 20
-74.60073594230599
 30
0.0
 41
0.7071067811865476
 10
843.8823325799685
 20
125.399264057694
 30
0.0
 41
1.0
  0
VIEWPORT
  5
1CB
330
1C7
100
AcDbEntity
 67
     1
  8
0
100
AcDbViewport
 10
6.0
 20
4.5
 30
0.0
 40
12.696
 41
9.522
 68
     1
 69
     1
 12
6.0
 22
4.5
 13
0.0
 23
0.0
 14
0.5
 24
0.5
 15
0.5
 25
0.5
 16
0.0
 26
0.0
 36
1.0
 17
0.0
 27
0.0
 37
0.0
 42
50.0
 43
0.0
 44
0.0
 45
9.522
 50
0.0
 51
0.0
 72
   100
 90
   557152
  1

281
     0
 71
     1
 74
     0
110
0.0
120
0.0
130
0.0
111
1.0
121
0.0
131
0.0
112
0.0
122
1.0
132
0.0
 79
     0
146
0.0
170
     0
  0
ENDSEC
  0
SECTION
  2
OBJECTS
  0
DICTIONARY
  5
C
330
0
100
AcDbDictionary
281
     1
  3
ACAD_GROUP
350
D
  3
ACAD_LAYOUT
350
1A
  3
ACAD_MLEADERSTYLE
350
1F1
  3
ACAD_MLINESTYLE
350
17
  3
ACAD_PLOTSETTINGS
350
19
  3
ACAD_PLOTSTYLENAME
350
E
  3
ACAD_SCALELIST
350
1CC
  3
ACAD_TABLESTYLE
350
1F0
  3
ACAD_VISUALSTYLE
350
2A
  3
AcDbVariableDictionary
350
1EE
  0
DICTIONARY
  5
D
102
{ACAD_REACTORS
330
C
102
}
330
C
100
AcDbDictionary
281
     1
  0
DICTIONARY
  5
1A
102
{ACAD_REACTORS
330
C
102
}
330
C
100
AcDbDictionary
281
     1
  3
Layout1
350
1C3
  3
Layout2
350
1C8
  3
Model
350
22
  0
DICTIONARY
  5
1F1
102
{ACAD_REACTORS
330
C
102
}
330
C
100
AcDbDictionary
281
     1
  0
DICTIONARY
  5
17
102
{ACAD_REACTORS
330
C
102
}
330
C
100
AcDbDictionary
281
     1
  3
Standard
350
18
  0
DICTIONARY
  5
19
102
{ACAD_REACTORS
330
C
102
}
330
C
100
AcDbDictionary
281
     1
  0
ACDBDICTIONARYWDFLT
  5
E
102
{ACAD_REACTORS
330
C
102
}
330
C
100
AcDbDictionary
281
     1
  3
Normal
350
F
100
AcDbDictionaryWithDefault
340
F
  0
DICTIONARY
  5
1CC
102
{ACAD_REACTORS
330
C
102
}
330
C
100
AcDbDictionary
281
     1
  3
A0
350
1CD
  3
A1
350
1CE
  3
A2
350
1CF
  3
A3
350
1D0
  3
A4
350
1D1
  3
A5
350
1D2
  3
A6
350
1D3
  3
A7
350
1D4
  3
A8
350
1D5
  3
A9
350
1D6
  3
B0
350
1D7
  3
B1
350
1D8
  3
B2
350
1D9
  3
B3
350
1DA
  3
B4
350
1DB
  3
B5
350
1DC
  3
B6
350
1DD
  3
B7
350
1DE
  3
B8
350
1DF
  3
B9
350
1E0
  3
C0
350
1E1
  3
C1
350
1E2
  3
C2
350
1E3
  3
C3
350
1E4
  3
C4
350
1E5
  3
C5
350
1E6
  3
C6
350
1E7
  3
C7
350
1E8
  3
C8
350
1E9
  3
C9
350
1EA
  3
D0
350
1EB
  3
D1
350
1EC
  3
D2
350
1ED
  0
DICTIONARY
  5
1F0
102
{ACAD_REACTORS
330
C
102
}
330
C
100
AcDbDictionary
281
     1
  0
DICTIONARY
  5
2A
102
{ACAD_REACTORS
330
C
102
}
330
C
100
AcDbDictionary
281
     1
  3
2dWireframe
350
2F
  3
3D Hidden
350
31
  3
3dWireframe
350
30
  3
Basic
350
32
  3
Brighten
350
36
  3
ColorChange
350
3A
  3
Conceptual
350
34
  3
Dim
350
35
  3
Facepattern
350
39
  3
Flat
350
2B
  3
FlatWithEdges
350
2C
  3
Gouraud
350
2D
  3
GouraudWithEdges
350
2E
  3
Linepattern
350
38
  3
Realistic
350
33
  3
Thicken
350
37
  0
DICTIONARY
  5
1EE
102
{ACAD_REACTORS
330
C
102
}
330
C
100
AcDbDictionary
281
     1
  3
CANNOSCALE
350
1EF
  0
LAYOUT
  5
1C3
102
{ACAD_REACTORS
330
1A
102
}
330
1A
100
AcDbPlotSettings
  1

  2
none_device
  4
Letter_(8.50_x_11.00_Inches)
  6

 40
6.35
 41
6.35
 42
6.35000508
 43
6.35000508
 44
215.9
 45
279.4
 46
0.0
 47
0.0
 48
0.0
 49
0.0
140
0.0
141
0.0
142
1.0
143
1.0
 70
   688
 72
     0
 73
     1
 74
     5
  7

 75
    16
 76
     0
 77
     2
 78
   300
147
1.0
148
0.0
149
0.0
100
AcDbLayout
  1
Layout1
 70
     1
 71
     1
 10
0.0
 20
0.0
 11
0.0
 21
0.0
 12
0.0
 22
0.0
 32
0.0
 14
0.0
 24
0.0
 34
0.0
 15
0.0
 25
0.0
 35
0.0
146
0.0
 13
0.0
 23
0.0
 33
0.0
 16
1.0
 26
0.0
 36
0.0
 17
0.0
 27
1.0
 37
0.0
 76
     0
330
1C2
331
1C6
  0
LAYOUT
  5
1C8
102
{ACAD_REACTORS
330
1A
102
}
330
1A
100
AcDbPlotSettings
  1

  2
none_device
  4
Letter_(8.50_x_11.00_Inches)
  6

 40
6.35
 41
6.35
 42
6.35000508
 43
6.35000508
 44
215.9
 45
279.4
 46
0.0
 47
0.0
 48
0.0
 49
0.0
140
0.0
141
0.0
142
1.0
143
1.0
 70
   688
 72
     0
 73
     1
 74
     5
  7

 75
    16
 76
     0
 77
     2
 78
   300
147
1.0
148
0.0
149
0.0
100
AcDbLayout
  1
Layout2
 70
     1
 71
     2
 10
0.0
 20
0.0
 11
0.0
 21
0.0
 12
0.0
 22
0.0
 32
0.0
 14
0.0
 24
0.0
 34
0.0
 15
0.0
 25
0.0
 35
0.0
146
0.0
 13
0.0
 23
0.0
 33
0.0
 16
1.0
 26
0.0
 36
0.0
 17
0.0
 27
1.0
 37
0.0
 76
     0
330
1C7
331
1CB
  0
LAYOUT
  5
22
102
{ACAD_REACTORS
330
1A
102
}
330
1A
100
AcDbPlotSettings
  1

  2
none_device
  4

  6

 40
0.0
 41
0.0
 42
0.0
 43
0.0
 44
0.0
 45
0.0
 46
0.0
 47
0.0
 48
0.0
 49
0.0
140
0.0
141
0.0
142
1.0
143
1.0
 70
  1712
 72
     0
 73
     0
 74
     0
  7

 75
     0
 76
     0
 77
     2
 78
   300
147
1.0
148
0.0
149
0.0
100
AcDbLayout
  1
Model
 70
     1
 71
     0
 10
0.0
 20
0.0
 11
12.0
 21
9.0
 12
0.0
 22
0.0
 32
0.0
 14
-74.60069158953775
 24
-74.60073594230595
 34
0.0
 15
843.8823325799685
 25
2267.882332579969
 35
0.0
146
0.0
 13
0.0
 23
0.0
 33
0.0
 16
1.0
 26
0.0
 36
0.0
 17
0.0
 27
1.0
 37
0.0
 76
     0
330
1F
331
29
  0
MLINESTYLE
  5
18
102
{ACAD_REACTORS
330
17
102
}
330
17
100
AcDbMlineStyle
  2
Standard
 70
     0
  3

 62
   256
 51
90.0
 52
90.0
 71
     2
 49
0.5
 62
   256
  6
BYLAYER
 49
-0.5
 62
   256
  6
BYLAYER
  0
ACDBPLACEHOLDER
  5
F
102
{ACAD_REACTORS
330
E
102
}
330
E
  0
SCALE
  5
1CD
102
{ACAD_REACTORS
330
1CC
102
}
330
1CC
100
AcDbScale
 70
     0
300
1:1
140
1.0
141
1.0
290
     1
  0
SCALE
  5
1CE
102
{ACAD_REACTORS
330
1CC
102
}
330
1CC
100
AcDbScale
 70
     0
300
1:2
140
1.0
141
2.0
290
     0
  0
SCALE
  5
1CF
102
{ACAD_REACTORS
330
1CC
102
}
330
1CC
100
AcDbScale
 70
     0
300
1:4
140
1.0
141
4.0
290
     0
  0
SCALE
  5
1D0
102
{ACAD_REACTORS
330
1CC
102
}
330
1CC
100
AcDbScale
 70
     0
300
1:5
140
1.0
141
5.0
290
     0
  0
SCALE
  5
1D1
102
{ACAD_REACTORS
330
1CC
102
}
330
1CC
100
AcDbScale
 70
     0
300
1:8
140
1.0
141
8.0
290
     0
  0
SCALE
  5
1D2
102
{ACAD_REACTORS
330
1CC
102
}
330
1CC
100
AcDbScale
 70
     0
300
1:10
140
1.0
141
10.0
290
     0
  0
SCALE
  5
1D3
102
{ACAD_REACTORS
330
1CC
102
}
330
1CC
100
AcDbScale
 70
     0
300
1:16
140
1.0
141
16.0
290
     0
  0
SCALE
  5
1D4
102
{ACAD_REACTORS
330
1CC
102
}
330
1CC
100
AcDbScale
 70
     0
300
1:20
140
1.0
141
20.0
290
     0
  0
SCALE
  5
1D5
102
{ACAD_REACTORS
330
1CC
102
}
330
1CC
100
AcDbScale
 70
     0
300
1:30
140
1.0
141
30.0
290
     0
  0
SCALE
  5
1D6
102
{ACAD_REACTORS
330
1CC
102
}
330
1CC
100
AcDbScale
 70
     0
300
1:40
140
1.0
141
40.0
290
     0
  0
SCALE
  5
1D7
102
{ACAD_REACTORS
330
1CC
102
}
330
1CC
100
AcDbScale
 70
     0
300
1:50
140
1.0
141
50.0
290
     0
  0
SCALE
  5
1D8
102
{ACAD_REACTORS
330
1CC
102
}
330
1CC
100
AcDbScale
 70
     0
300
1:100
140
1.0
141
100.0
290
     0
  0
SCALE
  5
1D9
102
{ACAD_REACTORS
330
1CC
102
}
330
1CC
100
AcDbScale
 70
     0
300
2:1
140
2.0
141
1.0
290
     0
  0
SCALE
  5
1DA
102
{ACAD_REACTORS
330
1CC
102
}
330
1CC
100
AcDbScale
 70
     0
300
4:1
140
4.0
141
1.0
290
     0
  0
SCALE
  5
1DB
102
{ACAD_REACTORS
330
1CC
102
}
330
1CC
100
AcDbScale
 70
     0
300
8:1
140
8.0
141
1.0
290
     0
  0
SCALE
  5
1DC
102
{ACAD_REACTORS
330
1CC
102
}
330
1CC
100
AcDbScale
 70
     0
300
10:1
140
10.0
141
1.0
290
     0
  0
SCALE
  5
1DD
102
{ACAD_REACTORS
330
1CC
102
}
330
1CC
100
AcDbScale
 70
     0
300
100:1
140
100.0
141
1.0
290
     0
  0
SCALE
  5
1DE
102
{ACAD_REACTORS
330
1CC
102
}
330
1CC
100
AcDbScale
 70
     0
300
1/128" = 1'-0"
140
0.0078125
141
12.0
290
     0
  0
SCALE
  5
1DF
102
{ACAD_REACTORS
330
1CC
102
}
330
1CC
100
AcDbScale
 70
     0
300
1/64" = 1'-0"
140
0.015625
141
12.0
290
     0
  0
SCALE
  5
1E0
102
{ACAD_REACTORS
330
1CC
102
}
330
1CC
100
AcDbScale
 70
     0
300
1/32" = 1'-0"
140
0.03125
141
12.0
290
     0
  0
SCALE
  5
1E1
102
{ACAD_REACTORS
330
1CC
102
}
330
1CC
100
AcDbScale
 70
     0
300
1/16" = 1'-0"
140
0.0625
141
12.0
290
     0
  0
SCALE
  5
1E2
102
{ACAD_REACTORS
330
1CC
102
}
330
1CC
100
AcDbScale
 70
     0
300
3/32" = 1'-0"
140
0.09375
141
12.0
290
     0
  0
SCALE
  5
1E3
102
{ACAD_REACTORS
330
1CC
102
}
330
1CC
100
AcDbScale
 70
     0
300
1/8" = 1'-0"
140
0.125
141
12.0
290
     0
  0
SCALE
  5
1E4
102
{ACAD_REACTORS
330
1CC
102
}
330
1CC
100
AcDbScale
 70
     0
300
3/16" = 1'-0"
140
0.1875
141
12.0
290
     0
  0
SCALE
  5
1E5
102
{ACAD_REACTORS
330
1CC
102
}
330
1CC
100
AcDbScale
 70
     0
300
1/4" = 1'-0"
140
0.25
141
12.0
290
     0
  0
SCALE
  5
1E6
102
{ACAD_REACTORS
330
1CC
102
}
330
1CC
100
AcDbScale
 70
     0
300
3/8" = 1'-0"
140
0.375
141
12.0
290
     0
  0
SCALE
  5
1E7
102
{ACAD_REACTORS
330
1CC
102
}
330
1CC
100
AcDbScale
 70
     0
300
1/2" = 1'-0"
140
0.5
141
12.0
290
     0
  0
SCALE
  5
1E8
102
{ACAD_REACTORS
330
1CC
102
}
330
1CC
100
AcDbScale
 70
     0
300
3/4" = 1'-0"
140
0.75
141
12.0
290
     0
  0
SCALE
  5
1E9
102
{ACAD_REACTORS
330
1CC
102
}
330
1CC
100
AcDbScale
 70
     0
300
1" = 1'-0"
140
1.0
141
12.0
290
     0
  0
SCALE
  5
1EA
102
{ACAD_REACTORS
330
1CC
102
}
330
1CC
100
AcDbScale
 70
     0
300
1-1/2" = 1'-0"
140
1.5
141
12.0
290
     0
  0
SCALE
  5
1EB
102
{ACAD_REACTORS
330
1CC
102
}
330
1CC
100
AcDbScale
 70
     0
300
3" = 1'-0"
140
3.0
141
12.0
290
     0
  0
SCALE
  5
1EC
102
{ACAD_REACTORS
330
1CC
102
}
330
1CC
100
AcDbScale
 70
     0
300
6" = 1'-0"
140
6.0
141
12.0
290
     0
  0
SCALE
  5
1ED
102
{ACAD_REACTORS
330
1CC
102
}
330
1CC
100
AcDbScale
 70
     0
300
1'-0" = 1'-0"
140
12.0
141
12.0
290
     0
  0
VISUALSTYLE
  5
2F
102
{ACAD_REACTORS
330
2A
102
}
330
2A
100
AcDbVisualStyle
  2
2dWireframe
 70
     4
 71
     0
 72
     2
 73
     0
 90
        0
 40
-0.6
 41
-30.0
 62
     5
 63
     7
421
 16777215
 74
     1
 91
        4
 64
     7
 65
   257
 75
     1
175
     1
 42
1.0
 92
        0
 66
   257
 43
1.0
 76
     1
 77
     6
 78
     2
 67
     7
 79
     5
170
     0
171
     0
290
     0
174
     0
 93
        1
 44
0.0
173
     0
291
     0
 45
0.0
1001
ACAD
1000
AcDbSavedByObjectVersion
1070
     0
  0
VISUALSTYLE
  5
31
102
{ACAD_REACTORS
330
2A
102
}
330
2A
100
AcDbVisualStyle
  2
3D Hidden
 70
     6
 71
     1
 72
     2
 73
     2
 90
        0
 40
-0.6
 41
-30.0
 62
     5
 63
     7
421
 16777215
 74
     2
 91
        2
 64
     7
 65
   257
 75
     2
175
     1
 42
40.0
 92
        0
 66
   257
 43
1.0
 76
     1
 77
     6
 78
     2
 67
     7
 79
     3
170
     0
171
     0
290
     0
174
     0
 93
        1
 44
0.0
173
     0
291
     0
 45
0.0
1001
ACAD
1000
AcDbSavedByObjectVersion
1070
     0
  0
VISUALSTYLE
  5
30
102
{ACAD_REACTORS
330
2A
102
}
330
2A
100
AcDbVisualStyle
  2
3dWireframe
 70
     5
 71
     0
 72
     2
 73
     0
 90
        0
 40
-0.6
 41
-30.0
 62
     5
 63
     7
421
 16777215
 74
     1
 91
        4
 64
     7
 65
   257
 75
     1
175
     1
 42
1.0
 92
        0
 66
   257
 43
1.0
 76
     1
 77
     6
 78
     2
 67
     7
 79
     5
170
     0
171
     0
290
     0
174
     0
 93
        1
 44
0.0
173
     0
291
     0
 45
0.0
1001
ACAD
1000
AcDbSavedByObjectVersion
1070
     0
  0
VISUALSTYLE
  5
32
102
{ACAD_REACTORS
330
2A
102
}
330
2A
100
AcDbVisualStyle
  2
Basic
 70
     7
 71
     1
 72
     0
 73
     1
 90
        0
 40
-0.6
 41
-30.0
 62
     5
 63
     7
421
 16777215
 74
     0
 91
        4
 64
     7
 65
   257
 75
     1
175
     1
 42
1.0
 92
        8
 66
     7
 43
1.0
 76
     1
 77
     6
 78
     2
 67
     7
 79
     5
170
     0
171
     0
290
     0
174
     0
 93
        1
 44
0.0
173
     0
291
     1
 45
0.0
1001
ACAD
1000
AcDbSavedByObjectVersion
1070
     0
  0
VISUALSTYLE
  5
36
102
{ACAD_REACTORS
330
2A
102
}
330
2A
100
AcDbVisualStyle
  2
Brighten
 70
    12
 71
     2
 72
     2
 73
     0
 90
        0
 40
-0.6
 41
-30.0
 62
     5
 63
     7
421
 16777215
 74
     1
 91
        4
 64
     7
 65
   257
 75
     1
175
     1
 42
1.0
 92
        8
 66
     7
 43
1.0
 76
     1
 77
     6
 78
     2
 67
     7
 79
     5
170
     0
171
     0
290
     0
174
     0
 93
        1
 44
50.0
173
     0
291
     1
 45
0.0
1001
ACAD
1000
AcDbSavedByObjectVersion
1070
     0
  0
VISUALSTYLE
  5
3A
102
{ACAD_REACTORS
330
2A
102
}
330
2A
100
AcDbVisualStyle
  2
ColorChange
 70
    16
 71
     2
 72
     2
 73
     3
 90
        0
 40
-0.6
 41
-30.0
 62
     5
 63
     8
421
  8421504
 74
     1
 91
        4
 64
     7
 65
   257
 75
     1
175
     1
 42
1.0
 92
        8
 66
     8
424
  8421504
 43
1.0
 76
     1
 77
     6
 78
     2
 67
     7
 79
     5
170
     0
171
     0
290
     0
174
     0
 93
        1
 44
0.0
173
     0
291
     1
 45
0.0
1001
ACAD
1000
AcDbSavedByObjectVersion
1070
     0
  0
VISUALSTYLE
  5
34
102
{ACAD_REACTORS
330
2A
102
}
330
2A
100
AcDbVisualStyle
  2
Conceptual
 70
     9
 71
     3
 72
     2
 73
     0
 90
        0
 40
-0.6
 41
-30.0
 62
     5
 63
     7
421
 16777215
 74
     2
 91
        2
 64
     7
 65
   257
 75
     1
175
     1
 42
40.0
 92
        8
 66
     7
 43
1.0
 76
     1
 77
     6
 78
     2
 67
     7
 79
     3
170
     0
171
     0
290
     0
174
     0
 93
        1
 44
0.0
173
     0
291
     0
 45
0.0
1001
ACAD
1000
AcDbSavedByObjectVersion
1070
     0
  0
VISUALSTYLE
  5
35
102
{ACAD_REACTORS
330
2A
102
}
330
2A
100
AcDbVisualStyle
  2
Dim
 70
    11
 71
     2
 72
     2
 73
     0
 90
        0
 40
-0.6
 41
-30.0
 62
     5
 63
     7
421
 16777215
 74
     1
 91
        4
 64
     7
 65
   257
 75
     1
175
     1
 42
1.0
 92
        8
 66
     7
 43
1.0
 76
     1
 77
     6
 78
     2
 67
     7
 79
     5
170
     0
171
     0
290
     0
174
     0
 93
        1
 44
-50.0
173
     0
291
     1
 45
0.0
1001
ACAD
1000
AcDbSavedByObjectVersion
1070
     0
  0
VISUALSTYLE
  5
39
102
{ACAD_REACTORS
330
2A
102
}
330
2A
100
AcDbVisualStyle
  2
Facepattern
 70
    15
 71
     2
 72
     2
 73
     0
 90
        0
 40
-0.6
 41
-30.0
 62
     5
 63
     7
421
 16777215
 74
     1
 91
        4
 64
     7
 65
   257
 75
     1
175
     1
 42
1.0
 92
        8
 66
     7
 43
1.0
 76
     1
 77
     6
 78
     2
 67
     7
 79
     5
170
     0
171
     0
290
     0
174
     0
 93
        1
 44
0.0
173
     0
291
     1
 45
0.0
1001
ACAD
1000
AcDbSavedByObjectVersion
1070
     0
  0
VISUALSTYLE
  5
2B
102
{ACAD_REACTORS
330
2A
102
}
330
2A
100
AcDbVisualStyle
  2
Flat
 70
     0
 71
     2
 72
     1
 73
     1
 90
        2
 40
-0.6
 41
30.0
 62
     5
 63
     7
421
 16777215
 74
     0
 91
        4
 64
     7
 65
   257
 75
     1
175
     1
 42
1.0
 92
        8
 66
     7
 43
1.0
 76
     1
 77
     6
 78
     2
 67
     7
 79
     5
170
     0
171
     0
290
     0
174
     0
 93
       13
 44
0.0
173
     0
291
     1
 45
0.0
1001
ACAD
1000
AcDbSavedByObjectVersion
1070
     0
  0
VISUALSTYLE
  5
2C
102
{ACAD_REACTORS
330
2A
102
}
330
2A
100
AcDbVisualStyle
  2
FlatWithEdges
 70
     1
 71
     2
 72
     1
 73
     1
 90
        2
 40
-0.6
 41
30.0
 62
     5
 63
     7
421
 16777215
 74
     1
 91
        4
 64
     7
 65
   257
 75
     1
175
     1
 42
1.0
 92
        0
 66
   257
 43
1.0
 76
     1
 77
     6
 78
     2
 67
     7
 79
     5
170
     0
171
     0
290
     0
174
     0
 93
       13
 44
0.0
173
     0
291
     1
 45
0.0
1001
ACAD
1000
AcDbSavedByObjectVersion
1070
     0
  0
VISUALSTYLE
  5
2D
102
{ACAD_REACTORS
330
2A
102
}
330
2A
100
AcDbVisualStyle
  2
Gouraud
 70
     2
 71
     2
 72
     2
 73
     1
 90
        2
 40
-0.6
 41
30.0
 62
     5
 63
     7
421
 16777215
 74
     0
 91
        4
 64
     7
 65
   257
 75
     1
175
     1
 42
1.0
 92
        0
 66
     7
 43
1.0
 76
     1
 77
     6
 78
     2
 67
     7
 79
     5
170
     0
171
     0
290
     0
174
     0
 93
       13
 44
0.0
173
     0
291
     1
 45
0.0
1001
ACAD
1000
AcDbSavedByObjectVersion
1070
     0
  0
VISUALSTYLE
  5
2E
102
{ACAD_REACTORS
330
2A
102
}
330
2A
100
AcDbVisualStyle
  2
GouraudWithEdges
 70
     3
 71
     2
 72
     2
 73
     1
 90
        2
 40
-0.6
 41
30.0
 62
     5
 63
     7
421
 16777215
 74
     1
 91
        4
 64
     7
 65
   257
 75
     1
175
     1
 42
1.0
 92
        0
 66
   257
 43
1.0
 76
     1
 77
     6
 78
     2
 67
     7
 79
     5
170
     0
171
     0
290
     0
174
     0
 93
       13
 44
0.0
173
     0
291
     1
 45
0.0
1001
ACAD
1000
AcDbSavedByObjectVersion
1070
     0
  0
VISUALSTYLE
  5
38
102
{ACAD_REACTORS
330
2A
102
}
330
2A
100
AcDbVisualStyle
  2
Linepattern
 70
    14
 71
     2
 72
     2
 73
     0
 90
        0
 40
-0.6
 41
-30.0
 62
     5
 63
     7
421
 16777215
 74
     1
 91
        4
 64
     7
 65
   257
 75
     7
175
     7
 42
1.0
 92
        8
 66
     7
 43
1.0
 76
     1
 77
     6
 78
     2
 67
     7
 79
     5
170
     0
171
     0
290
     0
174
     0
 93
        1
 44
0.0
173
     0
291
     1
 45
0.0
1001
ACAD
1000
AcDbSavedByObjectVersion
1070
     0
  0
VISUALSTYLE
  5
33
102
{ACAD_REACTORS
330
2A
102
}
330
2A
100
AcDbVisualStyle
  2
Realistic
 70
     8
 71
     2
 72
     2
 73
     0
 90
        0
 40
-0.6
 41
-30.0
 62
     5
 63
     7
421
 16777215
 74
     1
 91
        0
 64
     7
 65
   257
 75
     1
175
     1
 42
1.0
 92
        8
 66
     8
424
  7895160
 43
1.0
 76
     1
 77
     6
 78
     2
 67
     7
 79
     5
170
     0
171
     0
290
     0
174
     0
 93
       13
 44
0.0
173
     0
291
     0
 45
0.0
1001
ACAD
1000
AcDbSavedByObjectVersion
1070
     0
  0
VISUALSTYLE
  5
37
102
{ACAD_REACTORS
330
2A
102
}
330
2A
100
AcDbVisualStyle
  2
Thicken
 70
    13
 71
     2
 72
     2
 73
     0
 90
        0
 40
-0.6
 41
-30.0
 62
     5
 63
     7
421
 16777215
 74
     1
 91
        4
 64
     7
 65
   257
 75
     1
175
     1
 42
1.0
 92
       12
 66
     7
 43
1.0
 76
     1
 77
     6
 78
     2
 67
     7
 79
     5
170
     0
171
     0
290
     0
174
     0
 93
        1
 44
0.0
173
     0
291
     1
 45
0.0
1001
ACAD
1000
AcDbSavedByObjectVersion
1070
     0
  0
DICTIONARYVAR
  5
1EF
102
{ACAD_REACTORS
330
1EE
102
}
330
1EE
100
DictionaryVariables
280
     0
  1
1:1
  0
ENDSEC
  0
EOF
